  0
SECTION
  2
HEADER
  9
$ACADVER
  1
AC1009
  9
$DWGCODEPAGE
  3
dos932
  9
$INSBASE
 10
0.0
 20
0.0
 30
0.0
  9
$EXTMIN
 10
-301.82188247775588
 20
-228.14940210449279
 30
-0.0015258207003583
  9
$EXTMAX
 10
748.21015528660428
 20
516.54053527924771
 30
0.0000000349246037
  9
$LIMMIN
 10
-2970.0
 20
-2100.0
  9
$LIMMAX
 10
2970.0
 20
2100.0
  9
$ORTHOMODE
 70
     1
  9
$REGENMODE
 70
     1
  9
$FILLMODE
 70
     1
  9
$QTEXTMODE
 70
     0
  9
$MIRRTEXT
 70
     0
  9
$LTSCALE
 40
20.0
  9
$ATTMODE
 70
     1
  9
$TEXTSIZE
 40
64.0
  9
$TRACEWID
 40
0.05
  9
$TEXTSTYLE
  7
STANDARD
  9
$CLAYER
  8
SIZE
  9
$CELTYPE
  6
CONTINUOUS
  9
$CECOLOR
 62
     7
  9
$DIMSCALE
 40
1.0
  9
$DIMASZ
 40
12.0
  9
$DIMEXO
 40
20.0
  9
$DIMDLI
 40
200.0
  9
$DIMRND
 40
0.0
  9
$DIMDLE
 40
0.0
  9
$DIMEXE
 40
20.0
  9
$DIMTP
 40
0.0
  9
$DIMTM
 40
0.0
  9
$DIMTXT
 40
64.0
  9
$DIMCEN
 40
0.09
  9
$DIMTSZ
 40
0.0
  9
$DIMTOL
 70
     0
  9
$DIMLIM
 70
     0
  9
$DIMTIH
 70
     0
  9
$DIMTOH
 70
     0
  9
$DIMSE1
 70
     0
  9
$DIMSE2
 70
     0
  9
$DIMTAD
 70
     1
  9
$DIMZIN
 70
     8
  9
$DIMBLK
  1

  9
$DIMASO
 70
     1
  9
$DIMSHO
 70
     0
  9
$DIMPOST
  1

  9
$DIMAPOST
  1

  9
$DIMALT
 70
     0
  9
$DIMALTD
 70
     2
  9
$DIMALTF
 40
25.399999999999999
  9
$DIMLFAC
 40
1.0
  9
$DIMTOFL
 70
     1
  9
$DIMTVP
 40
0.0
  9
$DIMTIX
 70
     1
  9
$DIMSOXD
 70
     0
  9
$DIMSAH
 70
     0
  9
$DIMBLK1
  1

  9
$DIMBLK2
  1

  9
$DIMSTYLE
  2
STANDARD
  9
$DIMCLRD
 70
     7
  9
$DIMCLRE
 70
     7
  9
$DIMCLRT
 70
     7
  9
$DIMTFAC
 40
1.0
  9
$DIMGAP
 40
25.0
  9
$LUNITS
 70
     2
  9
$LUPREC
 70
     4
  9
$SKETCHINC
 40
0.1
  9
$FILLETRAD
 40
3.0
  9
$AUNITS
 70
     1
  9
$AUPREC
 70
     3
  9
$MENU
  1
ACAD
  9
$ELEVATION
 40
0.0
  9
$PELEVATION
 40
0.0
  9
$THICKNESS
 40
0.0
  9
$LIMCHECK
 70
     0
  9
$CHAMFERA
 40
0.0
  9
$CHAMFERB
 40
0.0
  9
$SKPOLY
 70
     0
  9
$TDCREATE
 40
2453019.623009259
  9
$TDUPDATE
 40
2459356.645960405
  9
$TDINDWG
 40
1.723326169
  9
$TDUSRTIMER
 40
1.723326169
  9
$USRTIMER
 70
     1
  9
$ANGBASE
 50
0.0
  9
$ANGDIR
 70
     0
  9
$PDMODE
 70
     3
  9
$PDSIZE
 40
-2.0
  9
$PLINEWID
 40
0.0
  9
$SPLFRAME
 70
     0
  9
$SPLINETYPE
 70
     6
  9
$SPLINESEGS
 70
     8
  9
$SURFTAB1
 70
     6
  9
$SURFTAB2
 70
     6
  9
$SURFTYPE
 70
     6
  9
$SURFU
 70
     6
  9
$SURFV
 70
     6
  9
$UCSNAME
  2

  9
$UCSORG
 10
0.0
 20
0.0
 30
0.0
  9
$UCSXDIR
 10
1.0
 20
0.0
 30
0.0
  9
$UCSYDIR
 10
0.0
 20
1.0
 30
0.0
  9
$PUCSNAME
  2

  9
$PUCSORG
 10
0.0
 20
0.0
 30
0.0
  9
$PUCSXDIR
 10
1.0
 20
0.0
 30
0.0
  9
$PUCSYDIR
 10
0.0
 20
1.0
 30
0.0
  9
$USERI1
 70
     0
  9
$USERI2
 70
     0
  9
$USERI3
 70
     0
  9
$USERI4
 70
     0
  9
$USERI5
 70
     0
  9
$USERR1
 40
20.0
  9
$USERR2
 40
0.0
  9
$USERR3
 40
0.0
  9
$USERR4
 40
0.0
  9
$USERR5
 40
0.0
  9
$WORLDVIEW
 70
     1
  9
$SHADEDGE
 70
     3
  9
$SHADEDIF
 70
    70
  9
$TILEMODE
 70
     1
  9
$MAXACTVP
 70
    48
  9
$PINSBASE
 10
0.0
 20
0.0
 30
0.0
  9
$PLIMCHECK
 70
     0
  9
$PEXTMIN
 10
-100000000000000000000.0
 20
-100000000000000000000.0
 30
-100000000000000000000.0
  9
$PEXTMAX
 10
100000000000000000000.0
 20
100000000000000000000.0
 30
100000000000000000000.0
  9
$PLIMMIN
 10
0.0
 20
0.0
  9
$PLIMMAX
 10
12.0
 20
9.0
  9
$UNITMODE
 70
     0
  9
$VISRETAIN
 70
     0
  9
$PLINEGEN
 70
     0
  9
$PSLTSCALE
 70
     0
  9
$TREEDEPTH
 70
  3020
  9
$ATTDIA
 70
     0
  9
$ATTREQ
 70
     1
  9
$BLIPMODE
 70
     1
  9
$COORDS
 70
     1
  9
$DRAGMODE
 70
     2
  9
$OSMODE
 70
     0
  9
$HANDLING
 70
     0
  9
$HANDSEED
  5
280
  0
ENDSEC
  0
SECTION
  2
TABLES
  0
TABLE
  2
LTYPE
 70
     2
  0
LTYPE
  2
CONTINUOUS
 70
     0
  3
実線
 72
    65
 73
     0
 40
0.0
  0
LTYPE
  2
DASHDOT
 70
     0
  3
____ _ ____ _ ____ _ ____ _ ____ _ ____ _ ____
 72
    65
 73
     4
 40
5.5
 49
4.0
 49
-0.6
 49
0.3
 49
-0.6
  0
ENDTAB
  0
TABLE
  2
LAYER
 70
    12
  0
LAYER
  2
SIZE
 70
     0
 62
    30
  6
CONTINUOUS
  0
LAYER
  2
BASIS
 70
     0
 62
     6
  6
DASHDOT
  0
LAYER
  2
OUTLINE
 70
     0
 62
     3
  6
CONTINUOUS
  0
LAYER
  2
DETAIL
 70
     0
 62
     5
  6
CONTINUOUS
  0
LAYER
  2
ARRANGE
 70
     0
 62
     1
  6
CONTINUOUS
  0
LAYER
  2
ETC
 70
     0
 62
    61
  6
CONTINUOUS
  0
LAYER
  2
FIX
 70
     0
 62
    11
  6
CONTINUOUS
  0
LAYER
  2
NOTE
 70
     0
 62
     4
  6
CONTINUOUS
  0
LAYER
  2
0
 70
    64
 62
     7
  6
CONTINUOUS
  0
LAYER
  2
DEFPOINTS
 70
    64
 62
     7
  6
CONTINUOUS
  0
LAYER
  2
SERVICESPACE
 70
    64
 62
     2
  6
DASHDOT
  0
LAYER
  2
SYMBOLLINE
 70
    64
 62
    15
  6
CONTINUOUS
  0
ENDTAB
  0
TABLE
  2
STYLE
 70
     1
  0
STYLE
  2
STANDARD
 70
     0
 40
64.0
 41
0.9
 50
0.0
 71
     0
 42
64.0
  3
SIMPLEX.shx
  4
BIGFONT.shx
  0
ENDTAB
  0
TABLE
  2
APPID
 70
    20
  0
APPID
  2
ACAD
 70
     0
  0
APPID
  2
ACADANNOTATIVE
 70
     0
  0
APPID
  2
AUTOCAD_POSTSCRIPT_FIGURE
 70
     0
  0
APPID
  2
ACAD_EXEMPT_FROM_CAD_STANDARDS
 70
     0
  0
APPID
  2
ACAD_PSEXT
 70
     0
  0
APPID
  2
ACAUTHENVIRON
 70
     0
  0
APPID
  2
GENIUS_GENOENT_13
 70
     0
  0
APPID
  2
GENIUS_GENCFG_13
 70
     0
  0
APPID
  2
GENIUS_GENCFG0_13
 70
     0
  0
APPID
  2
GENIUS_GENCFG1_13
 70
     0
  0
APPID
  2
GENIUS_GENCFG2_13
 70
     0
  0
APPID
  2
GENIUS_GENCFG3_13
 70
     0
  0
APPID
  2
GENIUS_GENCFG4_13
 70
     0
  0
APPID
  2
GENIUS_GEVCFG0_13
 70
     0
  0
APPID
  2
CONTENTBLOCKICON
 70
     0
  0
APPID
  2
CONTENTBLOCKDESCRIPTION
 70
     0
  0
APPID
  2
ACAD_NAV_VCDISPLAY
 70
     0
  0
APPID
  2
ACAD_MLEADERVER
 70
     0
  0
APPID
  2
ACDBDYNAMICBLOCKTRUENAME
 70
     0
  0
APPID
  2
ACDBDYNAMICBLOCKGUID
 70
     0
  0
ENDTAB
  0
TABLE
  2
DIMSTYLE
 70
     1
  0
DIMSTYLE
  2
STANDARD
 70
     0
  3

  4

  5

  6

  7

 40
1.0
 41
12.0
 42
20.0
 43
200.0
 44
20.0
 45
0.0
 46
0.0
 47
0.0
 48
0.0
140
64.0
141
0.09
142
0.0
143
25.399999999999999
144
1.0
145
0.0
146
1.0
147
25.0
 71
     0
 72
     0
 73
     0
 74
     0
 75
     0
 76
     0
 77
     1
 78
     8
170
     0
171
     2
172
     1
173
     0
174
     1
175
     0
176
     7
177
     7
178
     7
  0
ENDTAB
  0
TABLE
  2
VIEW
 70
     1
  0
VIEW
  2
ALL
 70
     0
 40
4282.6198079999986
 10
0.0
 20
41.309904000000003
 41
5940.0
 11
0.0
 21
0.0
 31
1.0
 12
0.0
 22
0.0
 32
0.0
 42
50.0
 43
0.0
 44
0.0
 50
0.0
 71
     0
  0
ENDTAB
  0
TABLE
  2
UCS
 70
     0
  0
ENDTAB
  0
TABLE
  2
VPORT
 70
     1
  0
VPORT
  2
*ACTIVE
 70
     0
 10
0.0
 20
0.0
 11
1.0
 21
1.0
 12
223.19413640442431
 22
144.1955665873775
 13
0.0
 23
0.0
 14
1.0
 24
1.0
 15
0.0
 25
0.0
 16
0.0
 26
0.0
 36
1.0
 17
0.0
 27
0.0
 37
0.0
 40
628.22536773142247
 41
1.946595460614152
 42
50.0
 43
0.0
 44
0.0
 50
0.0
 51
0.0
 71
     0
 72
  1000
 73
     1
 74
     3
 75
     0
 76
     0
 77
     0
 78
     0
  0
ENDTAB
  0
ENDSEC
  0
SECTION
  2
BLOCKS
  0
ENDSEC
  0
SECTION
  2
ENTITIES
  0
CIRCLE
  8
ARRANGE
  6
CONTINUOUS
 62
     1
 10
0.0
 20
0.0
 30
0.0
 40
40.0
  0
POINT
  8
ARRANGE
  6
CONTINUOUS
 62
     1
 10
0.0
 20
0.0
 30
0.0
  0
LINE
  8
BASIS
  6
DASHDOT
 62
     6
 10
0.0
 20
-109.2854010143142
 30
0.0
 11
-0.0000000000001137
 21
131.46605582236501
 31
0.0
  0
LINE
  8
BASIS
  6
DASHDOT
 62
     6
 10
95.967552833830439
 20
0.0
 30
0.0
 11
-95.967646960021909
 21
0.0
 31
0.0
  0
CIRCLE
  8
FIX
  6
CONTINUOUS
 62
    11
 10
69.999760096084287
 20
5.9999999952671894
 30
0.0
 40
7.0441691683918863
  0
LINE
  8
NOTE
  6
CONTINUOUS
 62
     4
 10
69.999760096084287
 20
-20.021817727174891
 30
0.0
 11
69.999760096084287
 21
32.021817717709268
 31
0.0
  0
LINE
  8
NOTE
  6
CONTINUOUS
 62
     4
 10
96.021577818526367
 20
5.9999999952671894
 30
0.0
 11
43.977942373642158
 21
5.9999999952671894
 31
0.0
  0
CIRCLE
  8
FIX
  6
CONTINUOUS
 62
    11
 10
-69.999999944784008
 20
5.9999999952671894
 30
0.0
 40
7.0441691683918863
  0
LINE
  8
NOTE
  6
CONTINUOUS
 62
     4
 10
-69.999999944784008
 20
-20.021817727174891
 30
0.0
 11
-69.999999944784008
 21
32.021817717709268
 31
0.0
  0
LINE
  8
NOTE
  6
CONTINUOUS
 62
     4
 10
-43.978182222341928
 20
5.9999999952671894
 30
0.0
 11
-96.021817667226088
 21
5.9999999952671894
 31
0.0
  0
LINE
  8
SIZE
  6
CONTINUOUS
 62
    30
 10
295.31459241769022
 20
125.7473529540818
 30
0.0
 11
54.743751433709967
 21
23.310334166720619
 31
0.0
  0
LINE
  8
SIZE
  6
CONTINUOUS
 62
    30
 10
-54.743751433709967
 20
-23.310334166720612
 30
0.0
 11
-65.78450802538255
 21
-28.011578032277701
 31
0.0
  0
TEXT
  8
SIZE
  6
CONTINUOUS
 62
    30
 10
115.6451504437161
 20
76.414695596249629
 30
0.0
 40
64.0
  1
φ95
 50
23.06469894784157
 41
0.9
 72
     1
 11
195.64331820509241
 21
110.4785654335433
 31
0.0
  0
LINE
  8
SIZE
  6
CONTINUOUS
 62
    30
 10
-43.702994842037363
 20
-18.609090301163519
 30
0.0
 11
43.702994842037363
 21
18.609090301163519
 31
0.0
  0
CIRCLE
  8
SIZE
  6
CONTINUOUS
 62
    30
 10
-43.702994842037363
 20
-18.609090301163519
 30
0.0
 40
6.0
  0
LINE
  8
SIZE
  6
CONTINUOUS
 62
    30
 10
-43.702994842037363
 20
-18.609090301163519
 30
0.0
 11
-54.743751433709967
 21
-23.310334166720612
 31
0.0
  0
CIRCLE
  8
SIZE
  6
CONTINUOUS
 62
    30
 10
43.702994842037363
 20
18.609090301163519
 30
0.0
 40
6.0
  0
LINE
  8
SIZE
  6
CONTINUOUS
 62
    30
 10
43.702994842037363
 20
18.609090301163519
 30
0.0
 11
54.743751433709967
 21
23.310334166720619
 31
0.0
  0
LINE
  8
SIZE
  6
CONTINUOUS
 62
    30
 10
-301.72101842946438
 20
114.790330706086
 30
0.0
 11
-32.712514266213198
 21
12.44553776993172
 31
0.0
  0
LINE
  8
SIZE
  6
CONTINUOUS
 62
    30
 10
32.712514266213198
 20
-12.445537769931731
 30
0.0
 11
43.928233443200597
 21
-16.712579291051181
 31
0.0
  0
TEXT
  8
SIZE
  6
CONTINUOUS
 62
    30
 10
-282.79595033972299
 20
134.33842612567469
 30
0.0
 40
64.0
  1
φ46
 50
339.1705881268955
 41
0.9
 72
     1
 11
-202.81185015183581
 21
103.90832430649139
 31
0.0
  0
LINE
  8
SIZE
  6
CONTINUOUS
 62
    30
 10
21.49679508922582
 20
-8.1784962488122801
 30
0.0
 11
-21.49679508922582
 21
8.1784962488122801
 31
0.0
  0
CIRCLE
  8
SIZE
  6
CONTINUOUS
 62
    30
 10
21.49679508922582
 20
-8.1784962488122801
 30
0.0
 40
6.0
  0
LINE
  8
SIZE
  6
CONTINUOUS
 62
    30
 10
21.49679508922582
 20
-8.1784962488122801
 30
0.0
 11
32.712514266213198
 21
-12.445537769931731
 31
0.0
  0
CIRCLE
  8
SIZE
  6
CONTINUOUS
 62
    30
 10
-21.49679508922582
 20
8.1784962488122801
 30
0.0
 40
6.0
  0
LINE
  8
SIZE
  6
CONTINUOUS
 62
    30
 10
-21.49679508922582
 20
8.1784962488122801
 30
0.0
 11
-32.712514266213198
 21
12.44553776993172
 31
0.0
  0
LINE
  8
SIZE
  6
CONTINUOUS
 62
    30
 10
69.999760096084287
 20
-40.021817727174891
 30
0.0
 11
69.999760096084273
 21
-227.9648025748179
 31
0.0
  0
LINE
  8
SIZE
  6
CONTINUOUS
 62
    30
 10
-69.999999944784008
 20
-40.021817727174891
 30
0.0
 11
-69.999999944784022
 21
-227.9648025748179
 31
0.0
  0
LINE
  8
SIZE
  6
CONTINUOUS
 62
    30
 10
57.999760096084273
 20
-207.9648025748179
 30
0.0
 11
-57.999999944784022
 21
-207.9648025748179
 31
0.0
  0
LINE
  8
SIZE
  6
CONTINUOUS
 62
    30
 10
-69.999999944784022
 20
-207.9648025748179
 30
0.0
 11
-269.14285708764118
 21
-207.9648025748179
 31
0.0
  0
CIRCLE
  8
SIZE
  6
CONTINUOUS
 62
    30
 10
69.999760096084273
 20
-207.9648025748179
 30
0.0
 40
6.0
  0
LINE
  8
SIZE
  6
CONTINUOUS
 62
    30
 10
69.999760096084273
 20
-207.9648025748179
 30
0.0
 11
57.999760096084273
 21
-207.9648025748179
 31
0.0
  0
CIRCLE
  8
SIZE
  6
CONTINUOUS
 62
    30
 10
-69.999999944784022
 20
-207.9648025748179
 30
0.0
 40
6.0
  0
LINE
  8
SIZE
  6
CONTINUOUS
 62
    30
 10
-69.999999944784022
 20
-207.9648025748179
 30
0.0
 11
-57.999999944784022
 21
-207.9648025748179
 31
0.0
  0
TEXT
  8
SIZE
  6
CONTINUOUS
 62
    30
 10
-244.1428570876412
 20
-182.9648025748179
 30
0.0
 40
64.0
  1
140
 41
0.9
 72
     1
 11
-175.57142851621259
 21
-182.9648025748179
 31
0.0
  0
LINE
  8
SIZE
  6
CONTINUOUS
 62
    30
 10
-116.0218176672261
 20
5.9999999952672169
 30
0.0
 11
-180.47055140810701
 21
5.9999999952672169
 31
0.0
  0
LINE
  8
SIZE
  6
CONTINUOUS
 62
    30
 10
-116.0218176672261
 20
0.0000000000000284
 30
0.0
 11
-180.47055140810701
 21
0.0000000000000284
 31
0.0
  0
LINE
  8
SIZE
  6
CONTINUOUS
 62
    30
 10
-160.47055140810701
 20
17.99999999526722
 30
0.0
 11
-160.47055140810701
 21
29.99999999526722
 31
0.0
  0
LINE
  8
SIZE
  6
CONTINUOUS
 62
    30
 10
-160.47055140810701
 20
-11.99999999999997
 30
0.0
 11
-160.47055140810701
 21
-23.999999999999972
 31
0.0
  0
LINE
  8
SIZE
  6
CONTINUOUS
 62
    30
 10
-160.47055140810701
 20
5.9999999952672169
 30
0.0
 11
-160.47055140810701
 21
0.0000000000000284
 31
0.0
  0
CIRCLE
  8
SIZE
  6
CONTINUOUS
 62
    30
 10
-160.47055140810701
 20
5.9999999952672169
 30
0.0
 40
6.0
  0
LINE
  8
SIZE
  6
CONTINUOUS
 62
    30
 10
-160.47055140810701
 20
5.9999999952672169
 30
0.0
 11
-160.47055140810701
 21
17.99999999526722
 31
0.0
  0
CIRCLE
  8
SIZE
  6
CONTINUOUS
 62
    30
 10
-160.47055140810701
 20
0.0000000000000284
 30
0.0
 40
6.0
  0
LINE
  8
SIZE
  6
CONTINUOUS
 62
    30
 10
-160.47055140810701
 20
0.0000000000000284
 30
0.0
 11
-160.47055140810701
 21
-11.99999999999997
 31
0.0
  0
TEXT
  8
SIZE
  6
CONTINUOUS
 62
    30
 10
-185.47055140810701
 20
-14.82857143093781
 30
0.0
 40
64.0
  1
6
 50
90.0
 41
0.9
 72
     1
 11
-185.47055140810701
 21
2.999999997633608
 31
0.0
  0
CIRCLE
  8
FIX
  6
CONTINUOUS
 62
    11
 10
-0.0000000000000142
 20
79.994672090700021
 30
0.0
 40
7.0441691683918863
  0
LINE
  8
NOTE
  6
CONTINUOUS
 62
     4
 10
0.0
 20
53.972854368257941
 30
0.0
 11
0.0
 21
106.0164898131421
 31
0.0
  0
LINE
  8
NOTE
  6
CONTINUOUS
 62
     4
 10
-26.021817722442051
 20
79.994672090699993
 30
0.0
 11
26.021817722442108
 21
79.994672090700021
 31
0.0
  0
TEXT
  8
NOTE
  6
CONTINUOUS
 62
     4
 10
-257.05426863573081
 20
261.29128219320319
 30
0.0
 40
64.0
  1
EL
 41
0.9
 72
     2
 11
-172.02569720715931
 21
261.29128219320319
 31
0.0
  0
TEXT
  8
NOTE
  6
CONTINUOUS
 62
     4
 10
178.69041800723821
 20
-12.043398039340641
 30
0.0
 40
64.0
  1
2-φ4×10
 41
0.9
  0
LINE
  8
NOTE
  6
CONTINUOUS
 62
     4
 10
-3.1033090428799852
 20
85.375580217994056
 30
0.0
 11
0.0
 21
79.994672090700021
 31
0.0
  0
LINE
  8
NOTE
  6
CONTINUOUS
 62
     4
 10
0.0
 20
79.994672090700021
 30
0.0
 11
-5.3780032146754388
 21
83.103012598582097
 31
0.0
  0
LINE
  8
NOTE
  6
CONTINUOUS
 62
     4
 10
0.0
 20
79.994672090700021
 30
0.0
 11
-8.4813122575554232
 21
88.483920725876175
 31
0.0
  0
LINE
  8
NOTE
  6
CONTINUOUS
 62
     4
 10
-8.4813122575554232
 20
88.483920725876175
 30
0.0
 11
-166.27416310601379
 21
245.78479377611549
 31
0.0
  0
LINE
  8
NOTE
  6
CONTINUOUS
 62
     4
 10
-166.27416310601379
 20
245.78479377611549
 30
0.0
 11
-263.30273453458528
 21
245.78479377611549
 31
0.0
  0
LINE
  8
NOTE
  6
CONTINUOUS
 62
     4
 10
76.089964416309229
 20
4.7764673943281926
 30
0.0
 11
69.999999944784008
 21
5.9999999952671894
 31
0.0
  0
LINE
  8
NOTE
  6
CONTINUOUS
 62
     4
 10
69.999999944784008
 20
5.9999999952671894
 30
0.0
 11
74.662291399404694
 21
1.8954004189174041
 31
0.0
  0
LINE
  8
NOTE
  6
CONTINUOUS
 62
     4
 10
69.999999944784008
 20
5.9999999952671894
 30
0.0
 11
80.752255870929943
 21
0.6718678179784092
 31
0.0
  0
LINE
  8
NOTE
  6
CONTINUOUS
 62
     4
 10
80.752255870929943
 20
0.6718678179784092
 30
0.0
 11
164.50904250564821
 21
-40.751005736772377
 31
0.0
  0
LINE
  8
NOTE
  6
CONTINUOUS
 62
     4
 10
164.50904250564821
 20
-40.751005736772377
 30
0.0
 11
575.77753920521673
 21
-40.751005736772598
 31
0.0
  0
TEXT
  8
ETC
  6
CONTINUOUS
 62
    61
 10
237.78910183462219
 20
452.39130228539972
 30
0.0
 40
64.0
  1
V-08PC8_3
 41
0.9
  0
TEXT
  8
ETC
  6
CONTINUOUS
 62
    61
 10
233.6031078346218
 20
334.43599227056848
 30
0.0
 40
64.0
  1
換気扇
 41
0.9
  0
TEXT
  8
ETC
  6
CONTINUOUS
 62
    61
 10
284.30450608317778
 20
226.28721938434319
 30
0.0
 40
40.0
  1
V-08PC8
 41
0.9
  0
ARC
  8
DETAIL
  6
CONTINUOUS
 62
     5
 10
0.0
 20
0.0
 30
0.0
 40
79.999999999999986
 50
278.42394137150012
 51
261.57605862849988
  0
ARC
  8
DETAIL
  6
CONTINUOUS
 62
     5
 10
0.0
 20
0.0
 30
0.0
 40
79.781583196300005
 50
267.43742918119932
 51
272.56257081869961
  0
LINE
  8
DETAIL
  6
CONTINUOUS
 62
     5
 10
-11.09949101259997
 20
-79.09418205439998
 30
0.0
 11
-11.152248968399929
 21
-79.112203827500025
 31
0.0
  0
LINE
  8
DETAIL
  6
CONTINUOUS
 62
     5
 10
9.1986718732000554
 20
-79.288641362800035
 30
0.0
 11
10.916084172000071
 21
-79.11219051700003
 31
0.0
  0
LINE
  8
DETAIL
  6
CONTINUOUS
 62
     5
 10
-11.152248968399929
 20
-79.112203827500025
 30
0.0
 11
-11.436286382499929
 21
-79.15172318880002
 31
0.0
  0
LINE
  8
DETAIL
  6
CONTINUOUS
 62
     5
 10
-11.436286382499929
 20
-79.15172318880002
 30
0.0
 11
-11.719711115199971
 21
-79.136896397100031
 31
0.0
  0
LINE
  8
DETAIL
  6
CONTINUOUS
 62
     5
 10
-11.45381722909997
 20
-79.064986810800065
 30
0.0
 11
-11.437473251999901
 21
-79.065779182399993
 31
0.0
  0
LINE
  8
DETAIL
  6
CONTINUOUS
 62
     5
 10
-4.2026759012999264
 20
-79.671235521700055
 30
0.0
 11
-3.5670654191999351
 21
-79.701797208300022
 31
0.0
  0
LINE
  8
DETAIL
  6
CONTINUOUS
 62
     5
 10
-11.45543235599996
 20
-79.064928271400049
 30
0.0
 11
-11.45381722909997
 21
-79.064986810800065
 31
0.0
  0
LINE
  8
DETAIL
  6
CONTINUOUS
 62
     5
 10
11.45339058370007
 20
-79.065003452399992
 30
0.0
 11
11.45502952289991
 21
-79.064942007300033
 31
0.0
  0
LINE
  8
DETAIL
  6
CONTINUOUS
 62
     5
 10
3.567065484900013
 20
-79.70179867880006
 30
0.0
 11
3.764805412300007
 21
-79.692739775000064
 31
0.0
  0
LINE
  8
DETAIL
  6
CONTINUOUS
 62
     5
 10
11.437769778400019
 20
-79.065762873300059
 30
0.0
 11
11.45339058370007
 21
-79.065003452399992
 31
0.0
  0
LINE
  8
DETAIL
  6
CONTINUOUS
 62
     5
 10
3.764805412300007
 20
-79.692739775000064
 30
0.0
 11
4.4484533369000019
 21
-79.658289789599976
 31
0.0
  0
LINE
  8
DETAIL
  6
CONTINUOUS
 62
     5
 10
11.71971111530002
 20
-79.136896397100031
 30
0.0
 11
11.436286382600089
 21
-79.15172318880002
 31
0.0
  0
LINE
  8
DETAIL
  6
CONTINUOUS
 62
     5
 10
4.4484533369000019
 20
-79.658289789599976
 30
0.0
 11
5.1136441457000492
 21
-79.620079508100034
 31
0.0
  0
LINE
  8
DETAIL
  6
CONTINUOUS
 62
     5
 10
11.409069018400031
 20
-79.067520164200005
 30
0.0
 11
11.437769778400019
 21
-79.065762873300059
 31
0.0
  0
LINE
  8
DETAIL
  6
CONTINUOUS
 62
     5
 10
5.1136441457000492
 20
-79.620079508100034
 30
0.0
 11
5.7564512023000134
 21
-79.578798607500062
 31
0.0
  0
LINE
  8
DETAIL
  6
CONTINUOUS
 62
     5
 10
5.7564512023000134
 20
-79.578798607500062
 30
0.0
 11
6.3735443110000451
 21
-79.535179600799992
 31
0.0
  0
LINE
  8
DETAIL
  6
CONTINUOUS
 62
     5
 10
11.36866557420001
 20
-79.070398009299979
 30
0.0
 11
11.409069018400031
 21
-79.067520164200005
 31
0.0
  0
LINE
  8
DETAIL
  6
CONTINUOUS
 62
     5
 10
6.3735443110000451
 20
-79.535179600799992
 30
0.0
 11
6.9620007260999159
 21
-79.490014014300058
 31
0.0
  0
LINE
  8
DETAIL
  6
CONTINUOUS
 62
     5
 10
11.3176632807
 20
-79.074430320300038
 30
0.0
 11
11.36866557420001
 21
-79.070398009299979
 31
0.0
  0
LINE
  8
DETAIL
  6
CONTINUOUS
 62
     5
 10
6.9620007260999159
 20
-79.490014014300058
 30
0.0
 11
7.5193398763000223
 21
-79.444097154100064
 31
0.0
  0
LINE
  8
DETAIL
  6
CONTINUOUS
 62
     5
 10
11.256622983299909
 20
-79.079633555100031
 30
0.0
 11
11.3176632807
 21
-79.074430320300038
 31
0.0
  0
LINE
  8
DETAIL
  6
CONTINUOUS
 62
     5
 10
7.5193398763000223
 20
-79.444097154100064
 30
0.0
 11
8.0435118849999849
 21
-79.39821821969997
 31
0.0
  0
LINE
  8
DETAIL
  6
CONTINUOUS
 62
     5
 10
8.0435118849999849
 20
-79.39821821969997
 30
0.0
 11
8.5327953908999898
 21
-79.35315773210003
 31
0.0
  0
LINE
  8
DETAIL
  6
CONTINUOUS
 62
     5
 10
11.105406595200069
 20
-79.093576298999992
 30
0.0
 11
11.256622983299909
 21
-79.079633555100031
 31
0.0
  0
LINE
  8
DETAIL
  6
CONTINUOUS
 62
     5
 10
8.5327953908999898
 20
-79.35315773210003
 30
0.0
 11
9.1986718732000554
 21
-79.288641362800035
 31
0.0
  0
LINE
  8
DETAIL
  6
CONTINUOUS
 62
     5
 10
10.916084172000071
 20
-79.11219051700003
 30
0.0
 11
11.105406595200069
 21
-79.093576298999992
 31
0.0
  0
LINE
  8
DETAIL
  6
CONTINUOUS
 62
     5
 10
11.436286382600089
 20
-79.15172318880002
 30
0.0
 11
11.152248968499981
 21
-79.112203827500025
 31
0.0
  0
LINE
  8
DETAIL
  6
CONTINUOUS
 62
     5
 10
-10.69898933939999
 20
-79.134320993100005
 30
0.0
 11
-9.865399051499935
 21
-79.220974512400062
 31
0.0
  0
LINE
  8
DETAIL
  6
CONTINUOUS
 62
     5
 10
-11.05693298749998
 20
-79.0982515444
 30
0.0
 11
-10.69898933939999
 21
-79.134320993100005
 31
0.0
  0
LINE
  8
DETAIL
  6
CONTINUOUS
 62
     5
 10
-9.865399051499935
 20
-79.220974512400062
 30
0.0
 11
-8.988483215199949
 21
-79.309374730000073
 31
0.0
  0
LINE
  8
DETAIL
  6
CONTINUOUS
 62
     5
 10
-8.988483215199949
 20
-79.309374730000073
 30
0.0
 11
-8.210658597199993
 21
-79.383060651200012
 31
0.0
  0
LINE
  8
DETAIL
  6
CONTINUOUS
 62
     5
 10
-11.23426399280009
 20
-79.081614815499975
 30
0.0
 11
-11.05693298749998
 21
-79.0982515444
 31
0.0
  0
LINE
  8
DETAIL
  6
CONTINUOUS
 62
     5
 10
-8.210658597199993
 20
-79.383060651200012
 30
0.0
 11
-7.6370748788000364
 21
-79.434016811000092
 31
0.0
  0
LINE
  8
DETAIL
  6
CONTINUOUS
 62
     5
 10
-11.304284426699949
 20
-79.07554114130005
 30
0.0
 11
-11.23426399280009
 21
-79.081614815499975
 31
0.0
  0
LINE
  8
DETAIL
  6
CONTINUOUS
 62
     5
 10
-7.6370748788000364
 20
-79.434016811000092
 30
0.0
 11
-7.0216730622000236
 21
-79.485240982599962
 31
0.0
  0
LINE
  8
DETAIL
  6
CONTINUOUS
 62
     5
 10
-11.36174348169993
 20
-79.070923596000057
 30
0.0
 11
-11.304284426699949
 21
-79.07554114130005
 31
0.0
  0
LINE
  8
DETAIL
  6
CONTINUOUS
 62
     5
 10
-7.0216730622000236
 20
-79.485240982599962
 30
0.0
 11
-6.3670328198999204
 21
-79.535660884100011
 31
0.0
  0
LINE
  8
DETAIL
  6
CONTINUOUS
 62
     5
 10
-11.406357510000079
 20
-79.067701245400031
 30
0.0
 11
-11.36174348169993
 21
-79.070923596000057
 31
0.0
  0
LINE
  8
DETAIL
  6
CONTINUOUS
 62
     5
 10
-6.3670328198999204
 20
-79.535660884100011
 30
0.0
 11
-5.6763021509999589
 21
-79.584178537200032
 31
0.0
  0
LINE
  8
DETAIL
  6
CONTINUOUS
 62
     5
 10
-5.6763021509999589
 20
-79.584178537200032
 30
0.0
 11
-4.9533451090999279
 21
-79.629708209199975
 31
0.0
  0
LINE
  8
DETAIL
  6
CONTINUOUS
 62
     5
 10
-11.437473251999901
 20
-79.065779182399993
 30
0.0
 11
-11.406357510000079
 21
-79.067701245400031
 31
0.0
  0
LINE
  8
DETAIL
  6
CONTINUOUS
 62
     5
 10
-4.9533451090999279
 20
-79.629708209199975
 30
0.0
 11
-4.2026759012999264
 21
-79.671235521700055
 31
0.0
  0
LINE
  8
DETAIL
  6
CONTINUOUS
 62
     5
 10
11.152248968499981
 20
-79.112203827500025
 30
0.0
 11
11.09941907209998
 21
-79.094157480000035
 31
0.0
  0
ARC
  8
DETAIL
  6
CONTINUOUS
 62
     5
 10
-70.0
 20
0.0
 30
0.0
 40
2.0
 50
180.0
 51
0.0
  0
ARC
  8
DETAIL
  6
CONTINUOUS
 62
     5
 10
-70.0
 20
6.0
 30
0.0
 40
2.0
 50
0.0
 51
180.0
  0
LINE
  8
DETAIL
  6
CONTINUOUS
 62
     5
 10
-68.0
 20
0.0
 30
0.0
 11
-68.0
 21
6.0
 31
0.0
  0
LINE
  8
DETAIL
  6
CONTINUOUS
 62
     5
 10
-72.0
 20
6.0
 30
0.0
 11
-72.0
 21
0.0
 31
0.0
  0
ARC
  8
DETAIL
  6
CONTINUOUS
 62
     5
 10
70.000000000000099
 20
0.0
 30
0.0
 40
2.0
 50
180.0
 51
0.0
  0
ARC
  8
DETAIL
  6
CONTINUOUS
 62
     5
 10
70.000000000000099
 20
6.0
 30
0.0
 40
2.0
 50
0.0
 51
180.0
  0
LINE
  8
DETAIL
  6
CONTINUOUS
 62
     5
 10
72.000000000000099
 20
0.0
 30
0.0
 11
72.000000000000099
 21
6.0
 31
0.0
  0
LINE
  8
DETAIL
  6
CONTINUOUS
 62
     5
 10
68.000000000000071
 20
6.0
 30
0.0
 11
68.000000000000071
 21
0.0
 31
0.0
  0
LINE
  8
DETAIL
  6
CONTINUOUS
 62
     5
 10
-12.500000000000229
 20
143.48938068176329
 30
0.0
 11
-14.000000000000229
 21
143.48938068176329
 31
0.0
  0
LINE
  8
DETAIL
  6
CONTINUOUS
 62
     5
 10
-12.500000000000229
 20
152.48938068176329
 30
0.0
 11
-14.000000000000229
 21
152.48938068176329
 31
0.0
  0
LINE
  8
DETAIL
  6
CONTINUOUS
 62
     5
 10
13.999999999999771
 20
152.48938068176329
 30
0.0
 11
13.999999999999771
 21
143.48938068176329
 31
0.0
  0
LINE
  8
DETAIL
  6
CONTINUOUS
 62
     5
 10
-14.000000000000229
 20
152.48938068176329
 30
0.0
 11
-14.000000000000229
 21
143.48938068176329
 31
0.0
  0
LINE
  8
DETAIL
  6
CONTINUOUS
 62
     5
 10
13.999999999999771
 20
152.48938068176329
 30
0.0
 11
12.499999999999771
 21
152.48938068176329
 31
0.0
  0
LINE
  8
DETAIL
  6
CONTINUOUS
 62
     5
 10
13.999999999999771
 20
143.48938068176329
 30
0.0
 11
12.499999999999771
 21
143.48938068176329
 31
0.0
  0
ARC
  8
DETAIL
  6
CONTINUOUS
 62
     5
 10
-9.5000000000002274
 20
152.48938068176329
 30
0.0
 40
3.0
 50
90.0
 51
180.0
  0
ARC
  8
DETAIL
  6
CONTINUOUS
 62
     5
 10
-9.5000000000002274
 20
143.48938068176329
 30
0.0
 40
3.0
 50
180.0
 51
270.0
  0
ARC
  8
DETAIL
  6
CONTINUOUS
 62
     5
 10
9.4999999999997726
 20
143.48938068176329
 30
0.0
 40
3.0
 50
270.0
 51
0.0
  0
ARC
  8
DETAIL
  6
CONTINUOUS
 62
     5
 10
9.4999999999997726
 20
152.48938068176329
 30
0.0
 40
3.0
 50
0.0
 51
90.0
  0
LINE
  8
DETAIL
  6
CONTINUOUS
 62
     5
 10
-12.500000000000229
 20
152.48938068176329
 30
0.0
 11
-12.500000000000229
 21
143.48938068176329
 31
0.0
  0
LINE
  8
DETAIL
  6
CONTINUOUS
 62
     5
 10
12.499999999999771
 20
152.48938068176329
 30
0.0
 11
12.499999999999771
 21
143.48938068176329
 31
0.0
  0
LINE
  8
DETAIL
  6
CONTINUOUS
 62
     5
 10
9.4999999999997726
 20
140.48938068176329
 30
0.0
 11
-9.5000000000002274
 21
140.48938068176329
 31
0.0
  0
LINE
  8
DETAIL
  6
CONTINUOUS
 62
     5
 10
9.4999999999997726
 20
155.48938068176329
 30
0.0
 11
-9.5000000000002274
 21
155.48938068176329
 31
0.0
  0
LINE
  8
DETAIL
  6
CONTINUOUS
 62
     5
 10
5.8827972857693567
 20
138.61413725407371
 30
0.0
 11
4.7793006785575471
 21
120.9581915386856
 31
0.0
  0
LINE
  8
DETAIL
  6
CONTINUOUS
 62
     5
 10
-5.8827972857696409
 20
138.61413725407371
 30
0.0
 11
-4.7793006785577763
 21
120.9581915386856
 31
0.0
  0
ARC
  8
DETAIL
  6
CONTINUOUS
 62
     5
 10
-7.8789024427353507
 20
138.48938068176329
 30
0.0
 40
2.0
 50
3.5763343749981509
 51
90.0
  0
ARC
  8
DETAIL
  6
CONTINUOUS
 62
     5
 10
7.8789024427351251
 20
138.48938068176329
 30
0.0
 40
1.999999999999994
 50
90.0
 51
176.4236656250018
  0
LINE
  8
DETAIL
  6
CONTINUOUS
 62
     5
 10
-0.0000000000002274
 20
135.98938068176329
 30
0.0
 11
-5.7187500000002274
 21
135.98938068176329
 31
0.0
  0
LINE
  8
DETAIL
  6
CONTINUOUS
 62
     5
 10
-0.0000000000002274
 20
134.48938068176329
 30
0.0
 11
-5.6250000000002274
 21
134.48938068176329
 31
0.0
  0
LINE
  8
DETAIL
  6
CONTINUOUS
 62
     5
 10
5.53125
 20
132.98938068176329
 30
0.0
 11
-0.0000000000002274
 21
132.98938068176329
 31
0.0
  0
LINE
  8
DETAIL
  6
CONTINUOUS
 62
     5
 10
5.4374999999997726
 20
131.48938068176329
 30
0.0
 11
-0.0000000000002274
 21
131.48938068176329
 31
0.0
  0
LINE
  8
DETAIL
  6
CONTINUOUS
 62
     5
 10
-0.0000000000002274
 20
129.98938068176329
 30
0.0
 11
-5.3437500000002274
 21
129.98938068176329
 31
0.0
  0
LINE
  8
DETAIL
  6
CONTINUOUS
 62
     5
 10
-0.0000000000002274
 20
128.48938068176329
 30
0.0
 11
-5.2500000000002274
 21
128.48938068176329
 31
0.0
  0
LINE
  8
DETAIL
  6
CONTINUOUS
 62
     5
 10
5.1562499999997726
 20
126.98938068176329
 30
0.0
 11
-0.0000000000002274
 21
126.98938068176329
 31
0.0
  0
LINE
  8
DETAIL
  6
CONTINUOUS
 62
     5
 10
-0.0000000000002274
 20
135.98938068176329
 30
0.0
 11
-0.0000000000002274
 21
134.48938068176329
 31
0.0
  0
LINE
  8
DETAIL
  6
CONTINUOUS
 62
     5
 10
-0.0000000000002274
 20
132.98938068176329
 30
0.0
 11
-0.0000000000002274
 21
131.48938068176329
 31
0.0
  0
LINE
  8
DETAIL
  6
CONTINUOUS
 62
     5
 10
-0.0000000000002274
 20
129.98938068176329
 30
0.0
 11
-0.0000000000002274
 21
128.48938068176329
 31
0.0
  0
LINE
  8
DETAIL
  6
CONTINUOUS
 62
     5
 10
-0.0000000000002274
 20
126.98938068176329
 30
0.0
 11
-0.0000000000002274
 21
125.48938068176329
 31
0.0
  0
LINE
  8
DETAIL
  6
CONTINUOUS
 62
     5
 10
-12.500000000000229
 20
143.48938068176329
 30
0.0
 11
-14.000000000000229
 21
143.48938068176329
 31
0.0
  0
LINE
  8
DETAIL
  6
CONTINUOUS
 62
     5
 10
-12.500000000000229
 20
152.48938068176329
 30
0.0
 11
-14.000000000000229
 21
152.48938068176329
 31
0.0
  0
LINE
  8
DETAIL
  6
CONTINUOUS
 62
     5
 10
13.999999999999771
 20
152.48938068176329
 30
0.0
 11
13.999999999999771
 21
143.48938068176329
 31
0.0
  0
LINE
  8
DETAIL
  6
CONTINUOUS
 62
     5
 10
-14.000000000000229
 20
152.48938068176329
 30
0.0
 11
-14.000000000000229
 21
143.48938068176329
 31
0.0
  0
LINE
  8
DETAIL
  6
CONTINUOUS
 62
     5
 10
13.999999999999771
 20
152.48938068176329
 30
0.0
 11
12.499999999999771
 21
152.48938068176329
 31
0.0
  0
LINE
  8
DETAIL
  6
CONTINUOUS
 62
     5
 10
13.999999999999771
 20
143.48938068176329
 30
0.0
 11
12.499999999999771
 21
143.48938068176329
 31
0.0
  0
ARC
  8
DETAIL
  6
CONTINUOUS
 62
     5
 10
-9.5000000000002274
 20
152.48938068176329
 30
0.0
 40
3.0
 50
90.0
 51
180.0
  0
ARC
  8
DETAIL
  6
CONTINUOUS
 62
     5
 10
-9.5000000000002274
 20
143.48938068176329
 30
0.0
 40
3.0
 50
180.0
 51
270.0
  0
ARC
  8
DETAIL
  6
CONTINUOUS
 62
     5
 10
9.4999999999997726
 20
143.48938068176329
 30
0.0
 40
3.0
 50
270.0
 51
0.0
  0
ARC
  8
DETAIL
  6
CONTINUOUS
 62
     5
 10
9.4999999999997726
 20
152.48938068176329
 30
0.0
 40
3.0
 50
0.0
 51
90.0
  0
LINE
  8
DETAIL
  6
CONTINUOUS
 62
     5
 10
-12.500000000000229
 20
152.48938068176329
 30
0.0
 11
-12.500000000000229
 21
143.48938068176329
 31
0.0
  0
LINE
  8
DETAIL
  6
CONTINUOUS
 62
     5
 10
12.499999999999771
 20
152.48938068176329
 30
0.0
 11
12.499999999999771
 21
143.48938068176329
 31
0.0
  0
LINE
  8
DETAIL
  6
CONTINUOUS
 62
     5
 10
9.4999999999997726
 20
140.48938068176329
 30
0.0
 11
-9.5000000000002274
 21
140.48938068176329
 31
0.0
  0
LINE
  8
DETAIL
  6
CONTINUOUS
 62
     5
 10
9.4999999999997726
 20
155.48938068176329
 30
0.0
 11
-9.5000000000002274
 21
155.48938068176329
 31
0.0
  0
LINE
  8
DETAIL
  6
CONTINUOUS
 62
     5
 10
2.9999999999997731
 20
99.991621110687788
 30
0.0
 11
2.9999999999997731
 21
120.48938068176329
 31
0.0
  0
LINE
  8
DETAIL
  6
CONTINUOUS
 62
     5
 10
0.0
 20
99.991621110687788
 30
0.0
 11
-0.0000000000000568
 21
120.48938068176329
 31
0.0
  0
LINE
  8
DETAIL
  6
CONTINUOUS
 62
     5
 10
-3.0000000000002269
 20
99.991621110687788
 30
0.0
 11
-3.0000000000002269
 21
120.48938068176329
 31
0.0
  0
ARC
  8
DETAIL
  6
CONTINUOUS
 62
     5
 10
1.4999999999997731
 20
102.5896973220412
 30
0.0
 40
3.0000000000000502
 50
240.0000000000004
 51
299.99999999999937
  0
ARC
  8
DETAIL
  6
CONTINUOUS
 62
     5
 10
-1.5000000000002269
 20
97.393544899334543
 30
0.0
 40
2.9999999999999498
 50
60.000000000000448
 51
119.9999999999996
  0
ARC
  8
DETAIL
  6
CONTINUOUS
 62
     5
 10
1.4999999999997731
 20
99.589697322041147
 30
0.0
 40
3.0000000000000502
 50
240.0000000000004
 51
299.99999999999937
  0
LINE
  8
DETAIL
  6
CONTINUOUS
 62
     5
 10
3.0
 20
79.943730210692479
 30
0.0
 11
3.0
 21
96.991621110687788
 31
0.0
  0
ARC
  8
DETAIL
  6
CONTINUOUS
 62
     5
 10
-1.5000000000002269
 20
94.393544899334543
 30
0.0
 40
2.9999999999999498
 50
60.000000000000448
 51
119.9999999999996
  0
LINE
  8
DETAIL
  6
CONTINUOUS
 62
     5
 10
0.0
 20
79.991316454599982
 30
0.0
 11
0.0
 21
96.991621110687788
 31
0.0
  0
LINE
  8
DETAIL
  6
CONTINUOUS
 62
     5
 10
-3.0
 20
79.943730210692479
 30
0.0
 11
-3.0
 21
96.991621110687788
 31
0.0
  0
LINE
  8
DETAIL
  6
CONTINUOUS
 62
     5
 10
-0.0000000000002274
 20
123.98938068176329
 30
0.0
 11
-0.0000000000002274
 21
122.48938068176329
 31
0.0
  0
LINE
  8
DETAIL
  6
CONTINUOUS
 62
     5
 10
-0.0000000000002274
 20
122.48938068176329
 30
0.0
 11
-4.8750000000002274
 21
122.48938068176329
 31
0.0
  0
LINE
  8
DETAIL
  6
CONTINUOUS
 62
     5
 10
-0.0000000000002274
 20
123.98938068176329
 30
0.0
 11
-4.9687500000002274
 21
123.98938068176329
 31
0.0
  0
LINE
  8
DETAIL
  6
CONTINUOUS
 62
     5
 10
5.0624999999997726
 20
125.48938068176329
 30
0.0
 11
-0.0000000000002274
 21
125.48938068176329
 31
0.0
  0
ARC
  8
DETAIL
  6
CONTINUOUS
 62
     5
 10
4.2802743893159922
 20
120.98938068176329
 30
0.0
 40
0.500000000000116
 50
270.0
 51
356.42366562499529
  0
ARC
  8
DETAIL
  6
CONTINUOUS
 62
     5
 10
-4.2802743893161619
 20
120.98938068176329
 30
0.0
 40
0.5
 50
183.57633437500459
 51
270.0
  0
LINE
  8
DETAIL
  6
CONTINUOUS
 62
     5
 10
-4.2802743893161619
 20
120.48938068176329
 30
0.0
 11
4.2802743893159922
 21
120.48938068176329
 31
0.0
  0
ARC
  8
OUTLINE
  6
CONTINUOUS
 62
     3
 10
0.0
 20
0.0
 30
0.0
 40
79.999999999999986
 50
278.42394137150012
 51
261.57605862849988
  0
ARC
  8
OUTLINE
  6
CONTINUOUS
 62
     3
 10
0.0
 20
0.0
 30
0.0
 40
79.781583196300005
 50
267.43742918119932
 51
272.56257081869961
  0
LINE
  8
OUTLINE
  6
CONTINUOUS
 62
     3
 10
-11.09949101259997
 20
-79.09418205439998
 30
0.0
 11
-11.152248968399929
 21
-79.112203827500025
 31
0.0
  0
LINE
  8
OUTLINE
  6
CONTINUOUS
 62
     3
 10
9.1986718732000554
 20
-79.288641362800035
 30
0.0
 11
10.916084172000071
 21
-79.11219051700003
 31
0.0
  0
LINE
  8
OUTLINE
  6
CONTINUOUS
 62
     3
 10
-11.152248968399929
 20
-79.112203827500025
 30
0.0
 11
-11.436286382499929
 21
-79.15172318880002
 31
0.0
  0
LINE
  8
OUTLINE
  6
CONTINUOUS
 62
     3
 10
-11.436286382499929
 20
-79.15172318880002
 30
0.0
 11
-11.719711115199971
 21
-79.136896397100031
 31
0.0
  0
LINE
  8
OUTLINE
  6
CONTINUOUS
 62
     3
 10
-11.45381722909997
 20
-79.064986810800065
 30
0.0
 11
-11.437473251999901
 21
-79.065779182399993
 31
0.0
  0
LINE
  8
OUTLINE
  6
CONTINUOUS
 62
     3
 10
-4.2026759012999264
 20
-79.671235521700055
 30
0.0
 11
-3.5670654191999351
 21
-79.701797208300022
 31
0.0
  0
LINE
  8
OUTLINE
  6
CONTINUOUS
 62
     3
 10
-11.45543235599996
 20
-79.064928271400049
 30
0.0
 11
-11.45381722909997
 21
-79.064986810800065
 31
0.0
  0
LINE
  8
OUTLINE
  6
CONTINUOUS
 62
     3
 10
11.45339058370007
 20
-79.065003452399992
 30
0.0
 11
11.45502952289991
 21
-79.064942007300033
 31
0.0
  0
LINE
  8
OUTLINE
  6
CONTINUOUS
 62
     3
 10
3.567065484900013
 20
-79.70179867880006
 30
0.0
 11
3.764805412300007
 21
-79.692739775000064
 31
0.0
  0
LINE
  8
OUTLINE
  6
CONTINUOUS
 62
     3
 10
11.437769778400019
 20
-79.065762873300059
 30
0.0
 11
11.45339058370007
 21
-79.065003452399992
 31
0.0
  0
LINE
  8
OUTLINE
  6
CONTINUOUS
 62
     3
 10
3.764805412300007
 20
-79.692739775000064
 30
0.0
 11
4.4484533369000019
 21
-79.658289789599976
 31
0.0
  0
LINE
  8
OUTLINE
  6
CONTINUOUS
 62
     3
 10
11.71971111530002
 20
-79.136896397100031
 30
0.0
 11
11.436286382600089
 21
-79.15172318880002
 31
0.0
  0
LINE
  8
OUTLINE
  6
CONTINUOUS
 62
     3
 10
4.4484533369000019
 20
-79.658289789599976
 30
0.0
 11
5.1136441457000492
 21
-79.620079508100034
 31
0.0
  0
LINE
  8
OUTLINE
  6
CONTINUOUS
 62
     3
 10
11.409069018400031
 20
-79.067520164200005
 30
0.0
 11
11.437769778400019
 21
-79.065762873300059
 31
0.0
  0
LINE
  8
OUTLINE
  6
CONTINUOUS
 62
     3
 10
5.1136441457000492
 20
-79.620079508100034
 30
0.0
 11
5.7564512023000134
 21
-79.578798607500062
 31
0.0
  0
LINE
  8
OUTLINE
  6
CONTINUOUS
 62
     3
 10
5.7564512023000134
 20
-79.578798607500062
 30
0.0
 11
6.3735443110000451
 21
-79.535179600799992
 31
0.0
  0
LINE
  8
OUTLINE
  6
CONTINUOUS
 62
     3
 10
11.36866557420001
 20
-79.070398009299979
 30
0.0
 11
11.409069018400031
 21
-79.067520164200005
 31
0.0
  0
LINE
  8
OUTLINE
  6
CONTINUOUS
 62
     3
 10
6.3735443110000451
 20
-79.535179600799992
 30
0.0
 11
6.9620007260999159
 21
-79.490014014300058
 31
0.0
  0
LINE
  8
OUTLINE
  6
CONTINUOUS
 62
     3
 10
11.3176632807
 20
-79.074430320300038
 30
0.0
 11
11.36866557420001
 21
-79.070398009299979
 31
0.0
  0
LINE
  8
OUTLINE
  6
CONTINUOUS
 62
     3
 10
6.9620007260999159
 20
-79.490014014300058
 30
0.0
 11
7.5193398763000223
 21
-79.444097154100064
 31
0.0
  0
LINE
  8
OUTLINE
  6
CONTINUOUS
 62
     3
 10
11.256622983299909
 20
-79.079633555100031
 30
0.0
 11
11.3176632807
 21
-79.074430320300038
 31
0.0
  0
LINE
  8
OUTLINE
  6
CONTINUOUS
 62
     3
 10
7.5193398763000223
 20
-79.444097154100064
 30
0.0
 11
8.0435118849999849
 21
-79.39821821969997
 31
0.0
  0
LINE
  8
OUTLINE
  6
CONTINUOUS
 62
     3
 10
8.0435118849999849
 20
-79.39821821969997
 30
0.0
 11
8.5327953908999898
 21
-79.35315773210003
 31
0.0
  0
LINE
  8
OUTLINE
  6
CONTINUOUS
 62
     3
 10
11.105406595200069
 20
-79.093576298999992
 30
0.0
 11
11.256622983299909
 21
-79.079633555100031
 31
0.0
  0
LINE
  8
OUTLINE
  6
CONTINUOUS
 62
     3
 10
8.5327953908999898
 20
-79.35315773210003
 30
0.0
 11
9.1986718732000554
 21
-79.288641362800035
 31
0.0
  0
LINE
  8
OUTLINE
  6
CONTINUOUS
 62
     3
 10
10.916084172000071
 20
-79.11219051700003
 30
0.0
 11
11.105406595200069
 21
-79.093576298999992
 31
0.0
  0
LINE
  8
OUTLINE
  6
CONTINUOUS
 62
     3
 10
11.436286382600089
 20
-79.15172318880002
 30
0.0
 11
11.152248968499981
 21
-79.112203827500025
 31
0.0
  0
LINE
  8
OUTLINE
  6
CONTINUOUS
 62
     3
 10
-10.69898933939999
 20
-79.134320993100005
 30
0.0
 11
-9.865399051499935
 21
-79.220974512400062
 31
0.0
  0
LINE
  8
OUTLINE
  6
CONTINUOUS
 62
     3
 10
-11.05693298749998
 20
-79.0982515444
 30
0.0
 11
-10.69898933939999
 21
-79.134320993100005
 31
0.0
  0
LINE
  8
OUTLINE
  6
CONTINUOUS
 62
     3
 10
-9.865399051499935
 20
-79.220974512400062
 30
0.0
 11
-8.988483215199949
 21
-79.309374730000073
 31
0.0
  0
LINE
  8
OUTLINE
  6
CONTINUOUS
 62
     3
 10
-8.988483215199949
 20
-79.309374730000073
 30
0.0
 11
-8.210658597199993
 21
-79.383060651200012
 31
0.0
  0
LINE
  8
OUTLINE
  6
CONTINUOUS
 62
     3
 10
-11.23426399280009
 20
-79.081614815499975
 30
0.0
 11
-11.05693298749998
 21
-79.0982515444
 31
0.0
  0
LINE
  8
OUTLINE
  6
CONTINUOUS
 62
     3
 10
-8.210658597199993
 20
-79.383060651200012
 30
0.0
 11
-7.6370748788000364
 21
-79.434016811000092
 31
0.0
  0
LINE
  8
OUTLINE
  6
CONTINUOUS
 62
     3
 10
-11.304284426699949
 20
-79.07554114130005
 30
0.0
 11
-11.23426399280009
 21
-79.081614815499975
 31
0.0
  0
LINE
  8
OUTLINE
  6
CONTINUOUS
 62
     3
 10
-7.6370748788000364
 20
-79.434016811000092
 30
0.0
 11
-7.0216730622000236
 21
-79.485240982599962
 31
0.0
  0
LINE
  8
OUTLINE
  6
CONTINUOUS
 62
     3
 10
-11.36174348169993
 20
-79.070923596000057
 30
0.0
 11
-11.304284426699949
 21
-79.07554114130005
 31
0.0
  0
LINE
  8
OUTLINE
  6
CONTINUOUS
 62
     3
 10
-7.0216730622000236
 20
-79.485240982599962
 30
0.0
 11
-6.3670328198999204
 21
-79.535660884100011
 31
0.0
  0
LINE
  8
OUTLINE
  6
CONTINUOUS
 62
     3
 10
-11.406357510000079
 20
-79.067701245400031
 30
0.0
 11
-11.36174348169993
 21
-79.070923596000057
 31
0.0
  0
LINE
  8
OUTLINE
  6
CONTINUOUS
 62
     3
 10
-6.3670328198999204
 20
-79.535660884100011
 30
0.0
 11
-5.6763021509999589
 21
-79.584178537200032
 31
0.0
  0
LINE
  8
OUTLINE
  6
CONTINUOUS
 62
     3
 10
-5.6763021509999589
 20
-79.584178537200032
 30
0.0
 11
-4.9533451090999279
 21
-79.629708209199975
 31
0.0
  0
LINE
  8
OUTLINE
  6
CONTINUOUS
 62
     3
 10
-11.437473251999901
 20
-79.065779182399993
 30
0.0
 11
-11.406357510000079
 21
-79.067701245400031
 31
0.0
  0
LINE
  8
OUTLINE
  6
CONTINUOUS
 62
     3
 10
-4.9533451090999279
 20
-79.629708209199975
 30
0.0
 11
-4.2026759012999264
 21
-79.671235521700055
 31
0.0
  0
LINE
  8
OUTLINE
  6
CONTINUOUS
 62
     3
 10
11.152248968499981
 20
-79.112203827500025
 30
0.0
 11
11.09941907209998
 21
-79.094157480000035
 31
0.0
  0
CIRCLE
  8
DETAIL
  6
CONTINUOUS
 62
     5
 10
-0.0000000000000497
 20
0.0000000000000284
 30
0.0
 40
23.0
  0
CIRCLE
  8
DETAIL
  6
CONTINUOUS
 62
     5
 10
-0.0000000000000568
 20
0.0
 30
0.0
 40
47.5
  0
LINE
  8
SIZE
  6
CONTINUOUS
 62
    30
 10
-79.999999999999986
 20
20.0
 30
0.0
 11
-79.999999999999972
 21
230.88059246061181
 31
0.0
  0
LINE
  8
SIZE
  6
CONTINUOUS
 62
    30
 10
79.999999999999986
 20
20.0
 30
0.0
 11
80.0
 21
230.88059246061181
 31
0.0
  0
LINE
  8
SIZE
  6
CONTINUOUS
 62
    30
 10
-91.999999999999957
 20
210.88059246061181
 30
0.0
 11
-104.0
 21
210.88059246061181
 31
0.0
  0
LINE
  8
SIZE
  6
CONTINUOUS
 62
    30
 10
92.0
 20
210.88059246061181
 30
0.0
 11
104.0
 21
210.88059246061181
 31
0.0
  0
LINE
  8
SIZE
  6
CONTINUOUS
 62
    30
 10
-79.999999999999972
 20
210.88059246061181
 30
0.0
 11
80.0
 21
210.88059246061181
 31
0.0
  0
CIRCLE
  8
SIZE
  6
CONTINUOUS
 62
    30
 10
-79.999999999999972
 20
210.88059246061181
 30
0.0
 40
6.0
  0
LINE
  8
SIZE
  6
CONTINUOUS
 62
    30
 10
-79.999999999999972
 20
210.88059246061181
 30
0.0
 11
-91.999999999999957
 21
210.88059246061181
 31
0.0
  0
CIRCLE
  8
SIZE
  6
CONTINUOUS
 62
    30
 10
80.0
 20
210.88059246061181
 30
0.0
 40
6.0
  0
LINE
  8
SIZE
  6
CONTINUOUS
 62
    30
 10
80.0
 20
210.88059246061181
 30
0.0
 11
92.0
 21
210.88059246061181
 31
0.0
  0
TEXT
  8
SIZE
  6
CONTINUOUS
 62
    30
 10
-108.89142857142861
 20
246.54725912727841
 30
0.0
 40
64.0
  1
φ160
 41
0.9
 72
     1
 11
0.0000000000000142
 21
246.54725912727841
 31
0.0
  0
ENDSEC
  0
EOF
