  0
SECTION
  2
HEADER
  9
$ACADVER
  1
AC1009
  9
$DWGCODEPAGE
  3
dos932
  9
$INSBASE
 10
0.0
 20
0.0
 30
0.0
  9
$EXTMIN
 10
-461.79655307414578
 20
-210.2050661461017
 30
-0.0015258207003583
  9
$EXTMAX
 10
802.59247956866238
 20
656.89087723951161
 30
0.0000000349246037
  9
$LIMMIN
 10
-2970.0
 20
-2100.0
  9
$LIMMAX
 10
2970.0
 20
2100.0
  9
$ORTHOMODE
 70
     1
  9
$REGENMODE
 70
     1
  9
$FILLMODE
 70
     1
  9
$QTEXTMODE
 70
     0
  9
$MIRRTEXT
 70
     0
  9
$LTSCALE
 40
20.0
  9
$ATTMODE
 70
     1
  9
$TEXTSIZE
 40
64.0
  9
$TRACEWID
 40
0.05
  9
$TEXTSTYLE
  7
STANDARD
  9
$CLAYER
  8
SIZE
  9
$CELTYPE
  6
CONTINUOUS
  9
$CECOLOR
 62
     7
  9
$DIMSCALE
 40
1.0
  9
$DIMASZ
 40
12.0
  9
$DIMEXO
 40
20.0
  9
$DIMDLI
 40
200.0
  9
$DIMRND
 40
0.0
  9
$DIMDLE
 40
0.0
  9
$DIMEXE
 40
20.0
  9
$DIMTP
 40
0.0
  9
$DIMTM
 40
0.0
  9
$DIMTXT
 40
64.0
  9
$DIMCEN
 40
0.09
  9
$DIMTSZ
 40
0.0
  9
$DIMTOL
 70
     0
  9
$DIMLIM
 70
     0
  9
$DIMTIH
 70
     0
  9
$DIMTOH
 70
     0
  9
$DIMSE1
 70
     0
  9
$DIMSE2
 70
     0
  9
$DIMTAD
 70
     1
  9
$DIMZIN
 70
     8
  9
$DIMBLK
  1

  9
$DIMASO
 70
     1
  9
$DIMSHO
 70
     0
  9
$DIMPOST
  1

  9
$DIMAPOST
  1

  9
$DIMALT
 70
     0
  9
$DIMALTD
 70
     2
  9
$DIMALTF
 40
25.399999999999999
  9
$DIMLFAC
 40
1.0
  9
$DIMTOFL
 70
     1
  9
$DIMTVP
 40
0.0
  9
$DIMTIX
 70
     1
  9
$DIMSOXD
 70
     0
  9
$DIMSAH
 70
     0
  9
$DIMBLK1
  1

  9
$DIMBLK2
  1

  9
$DIMSTYLE
  2
STANDARD
  9
$DIMCLRD
 70
     7
  9
$DIMCLRE
 70
     7
  9
$DIMCLRT
 70
     7
  9
$DIMTFAC
 40
1.0
  9
$DIMGAP
 40
25.0
  9
$LUNITS
 70
     2
  9
$LUPREC
 70
     4
  9
$SKETCHINC
 40
0.1
  9
$FILLETRAD
 40
3.0
  9
$AUNITS
 70
     1
  9
$AUPREC
 70
     3
  9
$MENU
  1
ACAD
  9
$ELEVATION
 40
0.0
  9
$PELEVATION
 40
0.0
  9
$THICKNESS
 40
0.0
  9
$LIMCHECK
 70
     0
  9
$CHAMFERA
 40
0.0
  9
$CHAMFERB
 40
0.0
  9
$SKPOLY
 70
     0
  9
$TDCREATE
 40
2453019.623009259
  9
$TDUPDATE
 40
2459356.646108623
  9
$TDINDWG
 40
1.7237428356
  9
$TDUSRTIMER
 40
1.7237428356
  9
$USRTIMER
 70
     1
  9
$ANGBASE
 50
0.0
  9
$ANGDIR
 70
     0
  9
$PDMODE
 70
     3
  9
$PDSIZE
 40
-2.0
  9
$PLINEWID
 40
0.0
  9
$SPLFRAME
 70
     0
  9
$SPLINETYPE
 70
     6
  9
$SPLINESEGS
 70
     8
  9
$SURFTAB1
 70
     6
  9
$SURFTAB2
 70
     6
  9
$SURFTYPE
 70
     6
  9
$SURFU
 70
     6
  9
$SURFV
 70
     6
  9
$UCSNAME
  2

  9
$UCSORG
 10
0.0
 20
0.0
 30
0.0
  9
$UCSXDIR
 10
1.0
 20
0.0
 30
0.0
  9
$UCSYDIR
 10
0.0
 20
1.0
 30
0.0
  9
$PUCSNAME
  2

  9
$PUCSORG
 10
0.0
 20
0.0
 30
0.0
  9
$PUCSXDIR
 10
1.0
 20
0.0
 30
0.0
  9
$PUCSYDIR
 10
0.0
 20
1.0
 30
0.0
  9
$USERI1
 70
     0
  9
$USERI2
 70
     0
  9
$USERI3
 70
     0
  9
$USERI4
 70
     0
  9
$USERI5
 70
     0
  9
$USERR1
 40
20.0
  9
$USERR2
 40
0.0
  9
$USERR3
 40
0.0
  9
$USERR4
 40
0.0
  9
$USERR5
 40
0.0
  9
$WORLDVIEW
 70
     1
  9
$SHADEDGE
 70
     3
  9
$SHADEDIF
 70
    70
  9
$TILEMODE
 70
     1
  9
$MAXACTVP
 70
    48
  9
$PINSBASE
 10
0.0
 20
0.0
 30
0.0
  9
$PLIMCHECK
 70
     0
  9
$PEXTMIN
 10
-100000000000000000000.0
 20
-100000000000000000000.0
 30
-100000000000000000000.0
  9
$PEXTMAX
 10
100000000000000000000.0
 20
100000000000000000000.0
 30
100000000000000000000.0
  9
$PLIMMIN
 10
0.0
 20
0.0
  9
$PLIMMAX
 10
12.0
 20
9.0
  9
$UNITMODE
 70
     0
  9
$VISRETAIN
 70
     0
  9
$PLINEGEN
 70
     0
  9
$PSLTSCALE
 70
     0
  9
$TREEDEPTH
 70
  3020
  9
$ATTDIA
 70
     0
  9
$ATTREQ
 70
     1
  9
$BLIPMODE
 70
     1
  9
$COORDS
 70
     1
  9
$DRAGMODE
 70
     2
  9
$OSMODE
 70
     0
  9
$HANDLING
 70
     0
  9
$HANDSEED
  5
2B1
  0
ENDSEC
  0
SECTION
  2
TABLES
  0
TABLE
  2
LTYPE
 70
     2
  0
LTYPE
  2
CONTINUOUS
 70
     0
  3
実線
 72
    65
 73
     0
 40
0.0
  0
LTYPE
  2
DASHDOT
 70
     0
  3
____ _ ____ _ ____ _ ____ _ ____ _ ____ _ ____
 72
    65
 73
     4
 40
5.5
 49
4.0
 49
-0.6
 49
0.3
 49
-0.6
  0
ENDTAB
  0
TABLE
  2
LAYER
 70
    12
  0
LAYER
  2
SIZE
 70
     0
 62
    30
  6
CONTINUOUS
  0
LAYER
  2
BASIS
 70
     0
 62
     6
  6
DASHDOT
  0
LAYER
  2
OUTLINE
 70
     0
 62
     3
  6
CONTINUOUS
  0
LAYER
  2
DETAIL
 70
     0
 62
     5
  6
CONTINUOUS
  0
LAYER
  2
ARRANGE
 70
     0
 62
     1
  6
CONTINUOUS
  0
LAYER
  2
ETC
 70
     0
 62
    61
  6
CONTINUOUS
  0
LAYER
  2
FIX
 70
     0
 62
    11
  6
CONTINUOUS
  0
LAYER
  2
NOTE
 70
     0
 62
     4
  6
CONTINUOUS
  0
LAYER
  2
0
 70
    64
 62
     7
  6
CONTINUOUS
  0
LAYER
  2
DEFPOINTS
 70
    64
 62
     7
  6
CONTINUOUS
  0
LAYER
  2
SERVICESPACE
 70
    64
 62
     2
  6
DASHDOT
  0
LAYER
  2
SYMBOLLINE
 70
    64
 62
    15
  6
CONTINUOUS
  0
ENDTAB
  0
TABLE
  2
STYLE
 70
     1
  0
STYLE
  2
STANDARD
 70
     0
 40
64.0
 41
0.9
 50
0.0
 71
     0
 42
64.0
  3
SIMPLEX.shx
  4
BIGFONT.shx
  0
ENDTAB
  0
TABLE
  2
APPID
 70
    20
  0
APPID
  2
ACAD
 70
     0
  0
APPID
  2
ACADANNOTATIVE
 70
     0
  0
APPID
  2
AUTOCAD_POSTSCRIPT_FIGURE
 70
     0
  0
APPID
  2
ACAD_EXEMPT_FROM_CAD_STANDARDS
 70
     0
  0
APPID
  2
ACAD_PSEXT
 70
     0
  0
APPID
  2
ACAUTHENVIRON
 70
     0
  0
APPID
  2
GENIUS_GENOENT_13
 70
     0
  0
APPID
  2
GENIUS_GENCFG_13
 70
     0
  0
APPID
  2
GENIUS_GENCFG0_13
 70
     0
  0
APPID
  2
GENIUS_GENCFG1_13
 70
     0
  0
APPID
  2
GENIUS_GENCFG2_13
 70
     0
  0
APPID
  2
GENIUS_GENCFG3_13
 70
     0
  0
APPID
  2
GENIUS_GENCFG4_13
 70
     0
  0
APPID
  2
GENIUS_GEVCFG0_13
 70
     0
  0
APPID
  2
CONTENTBLOCKICON
 70
     0
  0
APPID
  2
CONTENTBLOCKDESCRIPTION
 70
     0
  0
APPID
  2
ACAD_NAV_VCDISPLAY
 70
     0
  0
APPID
  2
ACAD_MLEADERVER
 70
     0
  0
APPID
  2
ACDBDYNAMICBLOCKTRUENAME
 70
     0
  0
APPID
  2
ACDBDYNAMICBLOCKGUID
 70
     0
  0
ENDTAB
  0
TABLE
  2
DIMSTYLE
 70
     1
  0
DIMSTYLE
  2
STANDARD
 70
     0
  3

  4

  5

  6

  7

 40
1.0
 41
12.0
 42
20.0
 43
200.0
 44
20.0
 45
0.0
 46
0.0
 47
0.0
 48
0.0
140
64.0
141
0.09
142
0.0
143
25.399999999999999
144
1.0
145
0.0
146
1.0
147
25.0
 71
     0
 72
     0
 73
     0
 74
     0
 75
     0
 76
     0
 77
     1
 78
     8
170
     0
171
     2
172
     1
173
     0
174
     1
175
     0
176
     7
177
     7
178
     7
  0
ENDTAB
  0
TABLE
  2
VIEW
 70
     1
  0
VIEW
  2
ALL
 70
     0
 40
4282.6198079999986
 10
0.0
 20
41.309904000000003
 41
5940.0
 11
0.0
 21
0.0
 31
1.0
 12
0.0
 22
0.0
 32
0.0
 42
50.0
 43
0.0
 44
0.0
 50
0.0
 71
     0
  0
ENDTAB
  0
TABLE
  2
UCS
 70
     0
  0
ENDTAB
  0
TABLE
  2
VPORT
 70
     1
  0
VPORT
  2
*ACTIVE
 70
     0
 10
0.0
 20
0.0
 11
1.0
 21
1.0
 12
170.39796324725819
 22
223.34290554670491
 13
0.0
 23
0.0
 14
1.0
 24
1.0
 15
0.0
 25
0.0
 16
0.0
 26
0.0
 36
1.0
 17
0.0
 27
0.0
 37
0.0
 40
655.41314569904057
 41
2.056631892697466
 42
50.0
 43
0.0
 44
0.0
 50
0.0
 51
0.0
 71
     0
 72
  1000
 73
     1
 74
     3
 75
     0
 76
     0
 77
     0
 78
     0
  0
ENDTAB
  0
ENDSEC
  0
SECTION
  2
BLOCKS
  0
ENDSEC
  0
SECTION
  2
ENTITIES
  0
TEXT
  8
ETC
  6
CONTINUOUS
 62
    61
 10
294.97821307029528
 20
592.59310898775004
 30
0.0
 40
64.0
  1
V-08PC8_6
 41
0.9
  0
TEXT
  8
ETC
  6
CONTINUOUS
 62
    61
 10
290.79221907029478
 20
474.63779897291892
 30
0.0
 40
64.0
  1
換気扇
 41
0.9
  0
LINE
  8
BASIS
  6
DASHDOT
 62
     6
 10
0.0
 20
-109.2854010143142
 30
0.0
 11
0.0
 21
109.2854010143142
 31
0.0
  0
LINE
  8
BASIS
  6
DASHDOT
 62
     6
 10
95.967552833830496
 20
0.0
 30
0.0
 11
-95.967646960021909
 21
0.0000000000000284
 31
0.0
  0
TEXT
  8
ETC
  6
CONTINUOUS
 62
    61
 10
341.49361731885068
 20
366.48902608669368
 30
0.0
 40
40.0
  1
V-08PC8
 41
0.9
  0
CIRCLE
  8
FIX
  6
CONTINUOUS
 62
    11
 10
69.945735111388331
 20
0.0
 30
0.0
 40
7.0441691683918863
  0
LINE
  8
NOTE
  6
CONTINUOUS
 62
     4
 10
69.945735111388331
 20
-26.02181772244208
 30
0.0
 11
69.945735111388331
 21
26.02181772244208
 31
0.0
  0
CIRCLE
  8
FIX
  6
CONTINUOUS
 62
    11
 10
-69.945829237579858
 20
0.0
 30
0.0
 40
7.0441691683918863
  0
LINE
  8
NOTE
  6
CONTINUOUS
 62
     4
 10
-69.945829237579858
 20
-26.02181772244208
 30
0.0
 11
-69.945829237579858
 21
26.02181772244208
 31
0.0
  0
LINE
  8
NOTE
  6
CONTINUOUS
 62
     4
 10
-43.924011515137749
 20
0.0
 30
0.0
 11
-95.967646960021909
 21
0.0000000000000284
 31
0.0
  0
TEXT
  8
NOTE
  6
CONTINUOUS
 62
     4
 10
142.25035519483211
 20
57.07725143514746
 30
0.0
 40
64.0
  1
2-φ4×10
 41
0.9
  0
LINE
  8
NOTE
  6
CONTINUOUS
 62
     4
 10
76.10311955087127
 20
0.8193388520101337
 30
0.0
 11
69.945735111388331
 21
0.0000000000000284
 31
0.0
  0
LINE
  8
NOTE
  6
CONTINUOUS
 62
     4
 10
69.945735111388331
 20
0.0000000000000284
 30
0.0
 11
74.868511322141558
 21
3.788267898240917
 31
0.0
  0
LINE
  8
NOTE
  6
CONTINUOUS
 62
     4
 10
69.945735111388331
 20
0.0000000000000284
 30
0.0
 11
81.025895761624497
 21
4.6076067502510236
 31
0.0
  0
LINE
  8
NOTE
  6
CONTINUOUS
 62
     4
 10
81.025895761624497
 20
4.6076067502510236
 30
0.0
 11
130.25035519483211
 21
25.077251435147449
 31
0.0
  0
LINE
  8
NOTE
  6
CONTINUOUS
 62
     4
 10
130.25035519483211
 20
25.077251435147449
 30
0.0
 11
549.4084666972185
 21
25.077251435147449
 31
0.0
  0
LINE
  8
SIZE
  6
CONTINUOUS
 62
    30
 10
-47.504089243498584
 20
46.5
 30
0.0
 11
-47.504089243498584
 21
333.64626670493732
 31
0.0
  0
LINE
  8
SIZE
  6
CONTINUOUS
 62
    30
 10
47.504089243498584
 20
46.5
 30
0.0
 11
47.504089243498584
 21
333.64626670493732
 31
0.0
  0
LINE
  8
SIZE
  6
CONTINUOUS
 62
    30
 10
35.504089243498591
 20
313.64626670493732
 30
0.0
 11
-35.504089243498591
 21
313.64626670493732
 31
0.0
  0
LINE
  8
SIZE
  6
CONTINUOUS
 62
    30
 10
-47.504089243498584
 20
313.64626670493732
 30
0.0
 11
-272.89067462489652
 21
313.64626670493732
 31
0.0
  0
CIRCLE
  8
SIZE
  6
CONTINUOUS
 62
    30
 10
47.504089243498584
 20
313.64626670493732
 30
0.0
 40
6.0
  0
LINE
  8
SIZE
  6
CONTINUOUS
 62
    30
 10
47.504089243498584
 20
313.64626670493732
 30
0.0
 11
35.504089243498591
 21
313.64626670493732
 31
0.0
  0
CIRCLE
  8
SIZE
  6
CONTINUOUS
 62
    30
 10
-47.504089243498584
 20
313.64626670493732
 30
0.0
 40
6.0
  0
LINE
  8
SIZE
  6
CONTINUOUS
 62
    30
 10
-47.504089243498584
 20
313.64626670493732
 30
0.0
 11
-35.504089243498591
 21
313.64626670493732
 31
0.0
  0
TEXT
  8
SIZE
  6
CONTINUOUS
 62
    30
 10
-258.03924605346799
 20
349.31293337160378
 30
0.0
 40
64.0
  1
φ95
 41
0.9
 72
     1
 11
-171.09067462489659
 21
349.31293337160378
 31
0.0
  0
LINE
  8
SIZE
  6
CONTINUOUS
 62
    30
 10
-22.849725809598571
 20
94.400000000000077
 30
0.0
 11
-22.849725809598571
 21
177.64579757223279
 31
0.0
  0
LINE
  8
SIZE
  6
CONTINUOUS
 62
    30
 10
22.84972580959862
 20
94.400000000000077
 30
0.0
 11
22.849725809598681
 21
177.64579757223279
 31
0.0
  0
LINE
  8
SIZE
  6
CONTINUOUS
 62
    30
 10
34.84972580959861
 20
157.64579757223279
 30
0.0
 11
46.849725809598617
 21
157.64579757223279
 31
0.0
  0
LINE
  8
SIZE
  6
CONTINUOUS
 62
    30
 10
-34.849725809598567
 20
157.64579757223279
 30
0.0
 11
-284.20506228435391
 21
157.64579757223279
 31
0.0
  0
LINE
  8
SIZE
  6
CONTINUOUS
 62
    30
 10
22.849725809598681
 20
157.64579757223279
 30
0.0
 11
-22.849725809598571
 21
157.64579757223279
 31
0.0
  0
CIRCLE
  8
SIZE
  6
CONTINUOUS
 62
    30
 10
22.849725809598681
 20
157.64579757223279
 30
0.0
 40
6.0
  0
LINE
  8
SIZE
  6
CONTINUOUS
 62
    30
 10
22.849725809598681
 20
157.64579757223279
 30
0.0
 11
34.849725809598681
 21
157.64579757223279
 31
0.0
  0
CIRCLE
  8
SIZE
  6
CONTINUOUS
 62
    30
 10
-22.849725809598571
 20
157.64579757223279
 30
0.0
 40
6.0
  0
LINE
  8
SIZE
  6
CONTINUOUS
 62
    30
 10
-22.849725809598571
 20
157.64579757223279
 30
0.0
 11
-34.849725809598567
 21
157.64579757223279
 31
0.0
  0
TEXT
  8
SIZE
  6
CONTINUOUS
 62
    30
 10
-269.35363371292522
 20
193.31246423889959
 30
0.0
 40
64.0
  1
φ46
 41
0.9
 72
     1
 11
-183.77649085578241
 21
193.31246423889959
 31
0.0
  0
LINE
  8
SIZE
  6
CONTINUOUS
 62
    30
 10
79.98982931301579
 20
-20.0
 30
0.0
 11
79.98982931301579
 21
-201.8404935140675
 31
0.0
  0
LINE
  8
SIZE
  6
CONTINUOUS
 62
    30
 10
-80.000196303499933
 20
-20.0
 30
0.0
 11
-80.000196303499933
 21
-201.8404935140675
 31
0.0
  0
LINE
  8
SIZE
  6
CONTINUOUS
 62
    30
 10
-68.000196303499933
 20
-181.8404935140675
 30
0.0
 11
67.98982931301579
 21
-181.8404935140675
 31
0.0
  0
LINE
  8
SIZE
  6
CONTINUOUS
 62
    30
 10
79.98982931301579
 20
-181.8404935140675
 30
0.0
 11
351.94103200518572
 21
-181.8404935140675
 31
0.0
  0
CIRCLE
  8
SIZE
  6
CONTINUOUS
 62
    30
 10
-80.000196303499933
 20
-181.8404935140675
 30
0.0
 40
6.0
  0
LINE
  8
SIZE
  6
CONTINUOUS
 62
    30
 10
-80.000196303499933
 20
-181.8404935140675
 30
0.0
 11
-68.000196303499933
 21
-181.8404935140675
 31
0.0
  0
CIRCLE
  8
SIZE
  6
CONTINUOUS
 62
    30
 10
79.98982931301579
 20
-181.8404935140675
 30
0.0
 40
6.0
  0
LINE
  8
SIZE
  6
CONTINUOUS
 62
    30
 10
79.98982931301579
 20
-181.8404935140675
 30
0.0
 11
67.98982931301579
 21
-181.8404935140675
 31
0.0
  0
TEXT
  8
SIZE
  6
CONTINUOUS
 62
    30
 10
119.30674629089989
 20
-146.17382684740079
 30
0.0
 40
64.0
  1
φ160
 41
0.9
 72
     1
 11
228.1981748623285
 21
-146.17382684740079
 31
0.0
  0
LINE
  8
SIZE
  6
CONTINUOUS
 62
    30
 10
69.945735111388331
 20
46.021817722442037
 30
0.0
 11
69.945735111388458
 21
471.89058764985009
 31
0.0
  0
LINE
  8
SIZE
  6
CONTINUOUS
 62
    30
 10
-69.945829237579858
 20
46.021817722442037
 30
0.0
 11
-69.945829237579801
 21
471.89058764985009
 31
0.0
  0
LINE
  8
SIZE
  6
CONTINUOUS
 62
    30
 10
57.945735111388437
 20
451.89058764985009
 30
0.0
 11
-57.945829237579787
 21
451.89058764985009
 31
0.0
  0
CIRCLE
  8
SIZE
  6
CONTINUOUS
 62
    30
 10
69.945735111388458
 20
451.89058764985009
 30
0.0
 40
6.0
  0
LINE
  8
SIZE
  6
CONTINUOUS
 62
    30
 10
69.945735111388458
 20
451.89058764985009
 30
0.0
 11
57.945735111388437
 21
451.89058764985009
 31
0.0
  0
CIRCLE
  8
SIZE
  6
CONTINUOUS
 62
    30
 10
-69.945829237579801
 20
451.89058764985009
 30
0.0
 40
6.0
  0
LINE
  8
SIZE
  6
CONTINUOUS
 62
    30
 10
-69.945829237579801
 20
451.89058764985009
 30
0.0
 11
-57.945829237579787
 21
451.89058764985009
 31
0.0
  0
TEXT
  8
SIZE
  6
CONTINUOUS
 62
    30
 10
-68.571475634524305
 20
476.89058764985009
 30
0.0
 40
64.0
  1
140
 41
0.9
 72
     1
 11
-0.0000470630957352
 21
476.89058764985009
 31
0.0
  0
LINE
  8
SIZE
  6
CONTINUOUS
 62
    30
 10
-115.9676469600219
 20
0.0000000000000284
 30
0.0
 11
-170.61946277524021
 21
0.0000000000000284
 31
0.0
  0
LINE
  8
SIZE
  6
CONTINUOUS
 62
    30
 10
-79.662329240699947
 20
-28.029877221499991
 30
0.0
 11
-170.61946277524021
 21
-28.029877221499959
 31
0.0
  0
LINE
  8
SIZE
  6
CONTINUOUS
 62
    30
 10
-150.61946277524021
 20
12.00000000000003
 30
0.0
 11
-150.61946277524021
 21
24.000000000000028
 31
0.0
  0
LINE
  8
SIZE
  6
CONTINUOUS
 62
    30
 10
-150.61946277524021
 20
-40.029877221499973
 30
0.0
 11
-150.61946277524029
 21
-202.08728457764201
 31
0.0
  0
LINE
  8
SIZE
  6
CONTINUOUS
 62
    30
 10
-150.61946277524021
 20
0.0000000000000284
 30
0.0
 11
-150.61946277524021
 21
-28.029877221499959
 31
0.0
  0
CIRCLE
  8
SIZE
  6
CONTINUOUS
 62
    30
 10
-150.61946277524021
 20
0.0000000000000284
 30
0.0
 40
6.0
  0
LINE
  8
SIZE
  6
CONTINUOUS
 62
    30
 10
-150.61946277524021
 20
0.0000000000000284
 30
0.0
 11
-150.61946277524021
 21
12.00000000000003
 31
0.0
  0
CIRCLE
  8
SIZE
  6
CONTINUOUS
 62
    30
 10
-150.61946277524021
 20
-28.029877221499959
 30
0.0
 40
6.0
  0
LINE
  8
SIZE
  6
CONTINUOUS
 62
    30
 10
-150.61946277524021
 20
-28.029877221499959
 30
0.0
 11
-150.61946277524021
 21
-40.029877221499973
 31
0.0
  0
TEXT
  8
SIZE
  6
CONTINUOUS
 62
    30
 10
-175.61946277524021
 20
-177.08728457764201
 30
0.0
 40
64.0
  1
28
 50
90.0
 41
0.9
 72
     1
 11
-175.61946277524021
 21
-130.4587131490706
 31
0.0
  0
LINE
  8
SIZE
  6
CONTINUOUS
 62
    30
 10
-115.9676469600219
 20
0.0000000000000284
 30
0.0
 11
-291.28298809060823
 21
0.0000000000000853
 31
0.0
  0
LINE
  8
SIZE
  6
CONTINUOUS
 62
    30
 10
-66.813808977898574
 20
48.799999999999933
 30
0.0
 11
-291.28298809060823
 21
48.800000000000011
 31
0.0
  0
LINE
  8
SIZE
  6
CONTINUOUS
 62
    30
 10
-271.28298809060828
 20
60.800000000000011
 30
0.0
 11
-271.28298809060828
 21
72.800000000000026
 31
0.0
  0
LINE
  8
SIZE
  6
CONTINUOUS
 62
    30
 10
-271.28298809060828
 20
-11.99999999999994
 30
0.0
 11
-271.2829880906084
 21
-210.02005044983571
 31
0.0
  0
LINE
  8
SIZE
  6
CONTINUOUS
 62
    30
 10
-271.28298809060828
 20
48.800000000000011
 30
0.0
 11
-271.28298809060828
 21
0.0000000000000568
 31
0.0
  0
CIRCLE
  8
SIZE
  6
CONTINUOUS
 62
    30
 10
-271.28298809060828
 20
48.800000000000011
 30
0.0
 40
6.0
  0
LINE
  8
SIZE
  6
CONTINUOUS
 62
    30
 10
-271.28298809060828
 20
48.800000000000011
 30
0.0
 11
-271.28298809060828
 21
60.800000000000011
 31
0.0
  0
CIRCLE
  8
SIZE
  6
CONTINUOUS
 62
    30
 10
-271.28298809060828
 20
0.0000000000000568
 30
0.0
 40
6.0
  0
LINE
  8
SIZE
  6
CONTINUOUS
 62
    30
 10
-271.28298809060828
 20
0.0000000000000568
 30
0.0
 11
-271.28298809060828
 21
-11.99999999999994
 31
0.0
  0
TEXT
  8
SIZE
  6
CONTINUOUS
 62
    30
 10
-296.28298809060823
 20
-185.02005044983591
 30
0.0
 40
64.0
  1
49
 50
90.0
 41
0.9
 72
     1
 11
-296.28298809060823
 21
-139.76290759269301
 31
0.0
  0
LINE
  8
SIZE
  6
CONTINUOUS
 62
    30
 10
-115.9676469600219
 20
0.0000000000000284
 30
0.0
 11
-392.79516282935492
 21
0.0000000000000853
 31
0.0
  0
LINE
  8
SIZE
  6
CONTINUOUS
 62
    30
 10
-40.249591358498613
 20
77.0
 30
0.0
 11
-392.79516282935492
 21
77.000000000000099
 31
0.0
  0
LINE
  8
SIZE
  6
CONTINUOUS
 62
    30
 10
-372.79516282935492
 20
12.000000000000091
 30
0.0
 11
-372.79516282935492
 21
65.000000000000099
 31
0.0
  0
CIRCLE
  8
SIZE
  6
CONTINUOUS
 62
    30
 10
-372.79516282935492
 20
0.0000000000000853
 30
0.0
 40
6.0
  0
LINE
  8
SIZE
  6
CONTINUOUS
 62
    30
 10
-372.79516282935492
 20
0.0000000000000853
 30
0.0
 11
-372.79516282935492
 21
12.000000000000091
 31
0.0
  0
CIRCLE
  8
SIZE
  6
CONTINUOUS
 62
    30
 10
-372.79516282935492
 20
77.000000000000099
 30
0.0
 40
6.0
  0
LINE
  8
SIZE
  6
CONTINUOUS
 62
    30
 10
-372.79516282935492
 20
77.000000000000099
 30
0.0
 11
-372.79516282935492
 21
65.000000000000099
 31
0.0
  0
TEXT
  8
SIZE
  6
CONTINUOUS
 62
    30
 10
-397.79516282935492
 20
-8.1285714285713837
 30
0.0
 40
64.0
  1
77
 50
90.0
 41
0.9
 72
     1
 11
-397.79516282935492
 21
38.50000000000005
 31
0.0
  0
CIRCLE
  8
ARRANGE
  6
CONTINUOUS
 62
     1
 10
0.0
 20
0.0
 30
0.0
 40
40.0
  0
POINT
  8
ARRANGE
  6
CONTINUOUS
 62
     1
 10
0.0
 20
0.0
 30
0.0
  0
ARC
  8
DETAIL
  6
CONTINUOUS
 62
     5
 10
46.813824486498561
 20
48.299999999999933
 30
0.0
 40
0.499999999999998
 50
0.4999998792085156
 51
89.999986426802039
  0
LINE
  8
DETAIL
  6
CONTINUOUS
 62
     5
 10
47.313805447998661
 20
48.304363266699973
 30
0.0
 11
47.504099999999987
 21
0.0
 31
0.0
  0
LINE
  8
DETAIL
  6
CONTINUOUS
 62
     5
 10
31.299725809598609
 20
51.0
 30
0.0
 11
31.299725809598609
 21
48.799999999999933
 31
0.0
  0
ARC
  8
DETAIL
  6
CONTINUOUS
 62
     5
 10
23.349725809598571
 20
51.5
 30
0.0
 40
0.5
 50
180.0
 51
260.99999999999488
  0
ARC
  8
DETAIL
  6
CONTINUOUS
 62
     5
 10
20.249725809598662
 20
74.400000000000091
 30
0.0
 40
2.599999999999993
 50
0.0
 51
90.0
  0
LINE
  8
DETAIL
  6
CONTINUOUS
 62
     5
 10
22.849725809598571
 20
74.400000000000091
 30
0.0
 11
22.849725809598571
 21
51.5
 31
0.0
  0
LINE
  8
DETAIL
  6
CONTINUOUS
 62
     5
 10
-46.813808977898582
 20
48.799999999999933
 30
0.0
 11
46.813808977898589
 21
48.799999999999933
 31
0.0
  0
ARC
  8
DETAIL
  6
CONTINUOUS
 62
     5
 10
-46.813824486498568
 20
48.299999999999933
 30
0.0
 40
0.499999999999998
 50
90.000013573197961
 51
179.5000001207915
  0
LINE
  8
DETAIL
  6
CONTINUOUS
 62
     5
 10
-31.299725809598609
 20
51.0
 30
0.0
 11
-31.299725809598609
 21
48.799999999999933
 31
0.0
  0
ARC
  8
DETAIL
  6
CONTINUOUS
 62
     5
 10
-23.349725809598571
 20
51.5
 30
0.0
 40
0.5
 50
279.00000000000512
 51
0.0
  0
ARC
  8
DETAIL
  6
CONTINUOUS
 62
     5
 10
-20.249725809598669
 20
74.400000000000091
 30
0.0
 40
2.599999999999993
 50
90.0
 51
180.0
  0
LINE
  8
DETAIL
  6
CONTINUOUS
 62
     5
 10
-22.849725809598571
 20
74.400000000000091
 30
0.0
 11
-22.849725809598571
 21
51.5
 31
0.0
  0
LINE
  8
DETAIL
  6
CONTINUOUS
 62
     5
 10
-20.249591358498488
 20
77.0
 30
0.0
 11
20.249591358498488
 21
77.0
 31
0.0
  0
LINE
  8
DETAIL
  6
CONTINUOUS
 62
     5
 10
-31.299725809598609
 20
50.400000000000091
 30
0.0
 11
31.299725809598609
 21
50.400000000000091
 31
0.0
  0
LINE
  8
DETAIL
  6
CONTINUOUS
 62
     5
 10
-31.299725809598609
 20
49.600000000000144
 30
0.0
 11
31.299725809598609
 21
49.600000000000144
 31
0.0
  0
LINE
  8
DETAIL
  6
CONTINUOUS
 62
     5
 10
-31.299725809598609
 20
51.0
 30
0.0
 11
31.299725809598609
 21
51.0
 31
0.0
  0
LINE
  8
OUTLINE
  6
CONTINUOUS
 62
     3
 10
46.813767289898578
 20
48.799999999999933
 30
0.0
 11
31.299725809598609
 21
48.799999999999933
 31
0.0
  0
ARC
  8
OUTLINE
  6
CONTINUOUS
 62
     3
 10
46.813782798498551
 20
48.299999999999933
 30
0.0
 40
0.499999999999998
 50
0.4999998792085156
 51
89.999986426802039
  0
LINE
  8
OUTLINE
  6
CONTINUOUS
 62
     3
 10
47.313763759998658
 20
48.304363266699973
 30
0.0
 11
47.504099999999987
 21
0.0
 31
0.0
  0
LINE
  8
OUTLINE
  6
CONTINUOUS
 62
     3
 10
31.299725809598609
 20
51.0
 30
0.0
 11
31.299725809598609
 21
48.799999999999933
 31
0.0
  0
ARC
  8
OUTLINE
  6
CONTINUOUS
 62
     3
 10
23.34968412159856
 20
51.5
 30
0.0
 40
0.5
 50
180.0
 51
260.99999999999488
  0
ARC
  8
OUTLINE
  6
CONTINUOUS
 62
     3
 10
20.249684121598651
 20
74.400000000000091
 30
0.0
 40
2.599999999999993
 50
0.0
 51
90.0
  0
LINE
  8
OUTLINE
  6
CONTINUOUS
 62
     3
 10
22.84968412159856
 20
74.400000000000091
 30
0.0
 11
22.84968412159856
 21
51.5
 31
0.0
  0
LINE
  8
OUTLINE
  6
CONTINUOUS
 62
     3
 10
-46.813850665898599
 20
48.799999999999933
 30
0.0
 11
-31.299725809598609
 21
48.799999999999933
 31
0.0
  0
ARC
  8
OUTLINE
  6
CONTINUOUS
 62
     3
 10
-46.813866174498571
 20
48.299999999999933
 30
0.0
 40
0.499999999999998
 50
90.000013573197961
 51
179.5000001207915
  0
LINE
  8
OUTLINE
  6
CONTINUOUS
 62
     3
 10
-31.299767497598619
 20
51.0
 30
0.0
 11
-31.299725809598609
 21
48.799999999999933
 31
0.0
  0
ARC
  8
OUTLINE
  6
CONTINUOUS
 62
     3
 10
-23.349767497598581
 20
51.5
 30
0.0
 40
0.5
 50
279.00000000000512
 51
0.0
  0
ARC
  8
OUTLINE
  6
CONTINUOUS
 62
     3
 10
-20.249767497598441
 20
74.400000000000091
 30
0.0
 40
2.599999999999993
 50
90.0
 51
180.0
  0
LINE
  8
OUTLINE
  6
CONTINUOUS
 62
     3
 10
-22.849767497598581
 20
74.400000000000091
 30
0.0
 11
-22.849767497598581
 21
51.5
 31
0.0
  0
LINE
  8
OUTLINE
  6
CONTINUOUS
 62
     3
 10
-20.24963304649873
 20
77.0
 30
0.0
 11
20.249549670498709
 21
77.0
 31
0.0
  0
LINE
  8
OUTLINE
  6
CONTINUOUS
 62
     3
 10
-31.299725809598609
 20
51.0
 30
0.0
 11
31.299725809598609
 21
51.0
 31
0.0
  0
LINE
  8
DETAIL
  6
CONTINUOUS
 62
     5
 10
-80.000196303499933
 20
0.0
 30
0.0
 11
-79.77636962549991
 21
-12.82302179769999
 31
0.0
  0
ARC
  8
DETAIL
  6
CONTINUOUS
 62
     5
 10
-64.778654198099957
 20
-12.06123570119996
 30
0.0
 40
15.00000000000003
 50
181.0000000000995
 51
260.59471888030328
  0
LINE
  8
DETAIL
  6
CONTINUOUS
 62
     5
 10
-67.229907649999859
 20
-26.859592248899961
 30
0.0
 11
-59.809452174400121
 21
-28.019253140599972
 31
0.0
  0
LINE
  8
DETAIL
  6
CONTINUOUS
 62
     5
 10
-59.809452174400121
 20
-28.019253140599972
 30
0.0
 11
-59.664072359499848
 21
-28.029877221499991
 31
0.0
  0
LINE
  8
DETAIL
  6
CONTINUOUS
 62
     5
 10
79.781158435499947
 20
-12.026178609400059
 30
0.0
 11
79.989829313015889
 21
0.0
 31
0.0
  0
LINE
  8
DETAIL
  6
CONTINUOUS
 62
     5
 10
79.781158435499947
 20
-12.026178609400059
 30
0.0
 11
79.775977018400226
 21
-12.32302179769999
 31
0.0
  0
LINE
  8
DETAIL
  6
CONTINUOUS
 62
     5
 10
79.989829313015889
 20
0.0
 30
0.0
 11
-80.000032113900033
 21
0.0
 31
0.0
  0
ARC
  8
DETAIL
  6
CONTINUOUS
 62
     5
 10
64.77826159110009
 20
-12.06123570119996
 30
0.0
 40
15.00000000000005
 50
279.40528111969672
 51
358.99999999990052
  0
LINE
  8
DETAIL
  6
CONTINUOUS
 62
     5
 10
59.662055680600133
 20
-28.029877221499991
 30
0.0
 11
-59.662329240699819
 21
-28.029877221499991
 31
0.0
  0
LINE
  8
DETAIL
  6
CONTINUOUS
 62
     5
 10
67.229515042899948
 20
-26.859592248899961
 30
0.0
 11
59.809059564300007
 21
-28.01925314109997
 31
0.0
  0
LINE
  8
DETAIL
  6
CONTINUOUS
 62
     5
 10
59.809059564300007
 20
-28.01925314109997
 30
0.0
 11
59.663679752400178
 21
-28.029877221499991
 31
0.0
  0
LINE
  8
OUTLINE
  6
CONTINUOUS
 62
     3
 10
-80.000196303499933
 20
0.0
 30
0.0
 11
-79.77636962549991
 21
-12.82302179769999
 31
0.0
  0
ARC
  8
OUTLINE
  6
CONTINUOUS
 62
     3
 10
-64.778654198099957
 20
-12.06123570119996
 30
0.0
 40
15.00000000000003
 50
181.0000000000995
 51
260.59471888030328
  0
LINE
  8
OUTLINE
  6
CONTINUOUS
 62
     3
 10
-67.229907649999859
 20
-26.859592248899961
 30
0.0
 11
-59.809452174400121
 21
-28.019253140599972
 31
0.0
  0
LINE
  8
OUTLINE
  6
CONTINUOUS
 62
     3
 10
-59.809452174400121
 20
-28.019253140599972
 30
0.0
 11
-59.664072359499848
 21
-28.029877221499991
 31
0.0
  0
LINE
  8
OUTLINE
  6
CONTINUOUS
 62
     3
 10
79.781158435499947
 20
-12.026178609400059
 30
0.0
 11
79.989829313015889
 21
0.0
 31
0.0
  0
LINE
  8
OUTLINE
  6
CONTINUOUS
 62
     3
 10
79.781158435499947
 20
-12.026178609400059
 30
0.0
 11
79.775977018400226
 21
-12.32302179769999
 31
0.0
  0
LINE
  8
OUTLINE
  6
CONTINUOUS
 62
     3
 10
79.989829313015889
 20
0.0
 30
0.0
 11
-80.000032113900033
 21
0.0
 31
0.0
  0
ARC
  8
OUTLINE
  6
CONTINUOUS
 62
     3
 10
64.77826159110009
 20
-12.06123570119996
 30
0.0
 40
15.00000000000005
 50
279.40528111969672
 51
358.99999999990052
  0
LINE
  8
OUTLINE
  6
CONTINUOUS
 62
     3
 10
59.662055680600133
 20
-28.029877221499991
 30
0.0
 11
-59.662329240699819
 21
-28.029877221499991
 31
0.0
  0
LINE
  8
OUTLINE
  6
CONTINUOUS
 62
     3
 10
67.229515042899948
 20
-26.859592248899961
 30
0.0
 11
59.809059564300007
 21
-28.01925314109997
 31
0.0
  0
LINE
  8
OUTLINE
  6
CONTINUOUS
 62
     3
 10
59.809059564300007
 20
-28.01925314109997
 30
0.0
 11
59.663679752400178
 21
-28.029877221499991
 31
0.0
  0
LINE
  8
DETAIL
  6
CONTINUOUS
 62
     5
 10
-47.313805447998661
 20
48.304363266699973
 30
0.0
 11
-47.504100000000001
 21
0.0
 31
0.0
  0
LINE
  8
OUTLINE
  6
CONTINUOUS
 62
     3
 10
-47.313763759998658
 20
48.304363266699973
 30
0.0
 11
-47.504100000000001
 21
0.0
 31
0.0
  0
ENDSEC
  0
EOF
