  0
SECTION
  2
HEADER
  9
$ACADVER
  1
AC1009
  9
$DWGCODEPAGE
  3
dos932
  9
$INSBASE
 10
0.0
 20
0.0
 30
0.0
  9
$EXTMIN
 10
-547.98383213525358
 20
-217.2571190189777
 30
0.0
  9
$EXTMAX
 10
786.06999901476684
 20
830.17247672472672
 30
50.0
  9
$LIMMIN
 10
-2970.0
 20
-2100.0
  9
$LIMMAX
 10
2970.0
 20
2100.0
  9
$ORTHOMODE
 70
     1
  9
$REGENMODE
 70
     1
  9
$FILLMODE
 70
     1
  9
$QTEXTMODE
 70
     0
  9
$MIRRTEXT
 70
     0
  9
$LTSCALE
 40
20.0
  9
$ATTMODE
 70
     1
  9
$TEXTSIZE
 40
64.0
  9
$TRACEWID
 40
0.05
  9
$TEXTSTYLE
  7
STANDARD
  9
$CLAYER
  8
SIZE
  9
$CELTYPE
  6
CONTINUOUS
  9
$CECOLOR
 62
     7
  9
$DIMSCALE
 40
1.0
  9
$DIMASZ
 40
12.0
  9
$DIMEXO
 40
20.0
  9
$DIMDLI
 40
200.0
  9
$DIMRND
 40
0.0
  9
$DIMDLE
 40
0.0
  9
$DIMEXE
 40
20.0
  9
$DIMTP
 40
0.0
  9
$DIMTM
 40
0.0
  9
$DIMTXT
 40
64.0
  9
$DIMCEN
 40
0.09
  9
$DIMTSZ
 40
0.0
  9
$DIMTOL
 70
     0
  9
$DIMLIM
 70
     0
  9
$DIMTIH
 70
     0
  9
$DIMTOH
 70
     0
  9
$DIMSE1
 70
     0
  9
$DIMSE2
 70
     0
  9
$DIMTAD
 70
     1
  9
$DIMZIN
 70
     8
  9
$DIMBLK
  1

  9
$DIMASO
 70
     1
  9
$DIMSHO
 70
     0
  9
$DIMPOST
  1

  9
$DIMAPOST
  1

  9
$DIMALT
 70
     0
  9
$DIMALTD
 70
     2
  9
$DIMALTF
 40
25.399999999999999
  9
$DIMLFAC
 40
1.0
  9
$DIMTOFL
 70
     1
  9
$DIMTVP
 40
0.0
  9
$DIMTIX
 70
     1
  9
$DIMSOXD
 70
     0
  9
$DIMSAH
 70
     0
  9
$DIMBLK1
  1

  9
$DIMBLK2
  1

  9
$DIMSTYLE
  2
STANDARD
  9
$DIMCLRD
 70
     7
  9
$DIMCLRE
 70
     7
  9
$DIMCLRT
 70
     7
  9
$DIMTFAC
 40
1.0
  9
$DIMGAP
 40
25.0
  9
$LUNITS
 70
     2
  9
$LUPREC
 70
     4
  9
$SKETCHINC
 40
0.1
  9
$FILLETRAD
 40
3.0
  9
$AUNITS
 70
     1
  9
$AUPREC
 70
     3
  9
$MENU
  1
ACAD
  9
$ELEVATION
 40
0.0
  9
$PELEVATION
 40
0.0
  9
$THICKNESS
 40
50.0
  9
$LIMCHECK
 70
     0
  9
$CHAMFERA
 40
0.0
  9
$CHAMFERB
 40
0.0
  9
$SKPOLY
 70
     0
  9
$TDCREATE
 40
2453019.623009259
  9
$TDUPDATE
 40
2459356.646160451
  9
$TDINDWG
 40
1.7405468981
  9
$TDUSRTIMER
 40
1.7405468981
  9
$USRTIMER
 70
     1
  9
$ANGBASE
 50
0.0
  9
$ANGDIR
 70
     0
  9
$PDMODE
 70
     3
  9
$PDSIZE
 40
-2.0
  9
$PLINEWID
 40
0.0
  9
$SPLFRAME
 70
     0
  9
$SPLINETYPE
 70
     6
  9
$SPLINESEGS
 70
     8
  9
$SURFTAB1
 70
     6
  9
$SURFTAB2
 70
     6
  9
$SURFTYPE
 70
     6
  9
$SURFU
 70
     6
  9
$SURFV
 70
     6
  9
$UCSNAME
  2

  9
$UCSORG
 10
0.0
 20
0.0
 30
0.0
  9
$UCSXDIR
 10
1.0
 20
0.0
 30
0.0
  9
$UCSYDIR
 10
0.0
 20
1.0
 30
0.0
  9
$PUCSNAME
  2

  9
$PUCSORG
 10
0.0
 20
0.0
 30
0.0
  9
$PUCSXDIR
 10
1.0
 20
0.0
 30
0.0
  9
$PUCSYDIR
 10
0.0
 20
1.0
 30
0.0
  9
$USERI1
 70
     0
  9
$USERI2
 70
     0
  9
$USERI3
 70
     0
  9
$USERI4
 70
     0
  9
$USERI5
 70
     0
  9
$USERR1
 40
20.0
  9
$USERR2
 40
0.0
  9
$USERR3
 40
0.0
  9
$USERR4
 40
0.0
  9
$USERR5
 40
0.0
  9
$WORLDVIEW
 70
     1
  9
$SHADEDGE
 70
     3
  9
$SHADEDIF
 70
    70
  9
$TILEMODE
 70
     1
  9
$MAXACTVP
 70
    48
  9
$PINSBASE
 10
0.0
 20
0.0
 30
0.0
  9
$PLIMCHECK
 70
     0
  9
$PEXTMIN
 10
-100000000000000000000.0
 20
-100000000000000000000.0
 30
-100000000000000000000.0
  9
$PEXTMAX
 10
100000000000000000000.0
 20
100000000000000000000.0
 30
100000000000000000000.0
  9
$PLIMMIN
 10
0.0
 20
0.0
  9
$PLIMMAX
 10
12.0
 20
9.0
  9
$UNITMODE
 70
     0
  9
$VISRETAIN
 70
     0
  9
$PLINEGEN
 70
     0
  9
$PSLTSCALE
 70
     0
  9
$TREEDEPTH
 70
  3020
  9
$ATTDIA
 70
     0
  9
$ATTREQ
 70
     1
  9
$BLIPMODE
 70
     1
  9
$COORDS
 70
     1
  9
$DRAGMODE
 70
     2
  9
$OSMODE
 70
     0
  9
$HANDLING
 70
     0
  9
$HANDSEED
  5
332
  0
ENDSEC
  0
SECTION
  2
TABLES
  0
TABLE
  2
LTYPE
 70
     2
  0
LTYPE
  2
CONTINUOUS
 70
     0
  3
実線
 72
    65
 73
     0
 40
0.0
  0
LTYPE
  2
DASHDOT
 70
     0
  3
____ _ ____ _ ____ _ ____ _ ____ _ ____ _ ____
 72
    65
 73
     4
 40
5.5
 49
4.0
 49
-0.6
 49
0.3
 49
-0.6
  0
ENDTAB
  0
TABLE
  2
LAYER
 70
    12
  0
LAYER
  2
SIZE
 70
     0
 62
    30
  6
CONTINUOUS
  0
LAYER
  2
BASIS
 70
     0
 62
     6
  6
DASHDOT
  0
LAYER
  2
OUTLINE
 70
     0
 62
     3
  6
CONTINUOUS
  0
LAYER
  2
DETAIL
 70
     0
 62
     5
  6
CONTINUOUS
  0
LAYER
  2
ARRANGE
 70
     4
 62
     1
  6
CONTINUOUS
  0
LAYER
  2
DEFPOINTS
 70
     0
 62
     7
  6
CONTINUOUS
  0
LAYER
  2
ETC
 70
     0
 62
    61
  6
CONTINUOUS
  0
LAYER
  2
FIX
 70
     0
 62
    11
  6
CONTINUOUS
  0
LAYER
  2
NOTE
 70
     0
 62
     4
  6
CONTINUOUS
  0
LAYER
  2
0
 70
    64
 62
     7
  6
CONTINUOUS
  0
LAYER
  2
SERVICESPACE
 70
    64
 62
     2
  6
DASHDOT
  0
LAYER
  2
SYMBOLLINE
 70
    64
 62
    15
  6
CONTINUOUS
  0
ENDTAB
  0
TABLE
  2
STYLE
 70
     1
  0
STYLE
  2
STANDARD
 70
     0
 40
64.0
 41
0.9
 50
0.0
 71
     0
 42
64.0
  3
SIMPLEX.shx
  4
BIGFONT.shx
  0
ENDTAB
  0
TABLE
  2
APPID
 70
    18
  0
APPID
  2
ACAD
 70
     0
  0
APPID
  2
ACADANNOTATIVE
 70
     0
  0
APPID
  2
AUTOCAD_POSTSCRIPT_FIGURE
 70
     0
  0
APPID
  2
ACAD_EXEMPT_FROM_CAD_STANDARDS
 70
     0
  0
APPID
  2
ACAD_PSEXT
 70
     0
  0
APPID
  2
ACAUTHENVIRON
 70
     0
  0
APPID
  2
GENIUS_GENOENT_13
 70
     0
  0
APPID
  2
GENIUS_GENCFG_13
 70
     0
  0
APPID
  2
GENIUS_GENCFG0_13
 70
     0
  0
APPID
  2
GENIUS_GENCFG1_13
 70
     0
  0
APPID
  2
GENIUS_GENCFG2_13
 70
     0
  0
APPID
  2
GENIUS_GENCFG3_13
 70
     0
  0
APPID
  2
GENIUS_GENCFG4_13
 70
     0
  0
APPID
  2
GENIUS_GEVCFG0_13
 70
     0
  0
APPID
  2
CONTENTBLOCKICON
 70
     0
  0
APPID
  2
CONTENTBLOCKDESCRIPTION
 70
     0
  0
APPID
  2
ACAD_NAV_VCDISPLAY
 70
     0
  0
APPID
  2
ACAD_MLEADERVER
 70
     0
  0
ENDTAB
  0
TABLE
  2
DIMSTYLE
 70
     1
  0
DIMSTYLE
  2
STANDARD
 70
     0
  3

  4

  5

  6

  7

 40
1.0
 41
12.0
 42
20.0
 43
200.0
 44
20.0
 45
0.0
 46
0.0
 47
0.0
 48
0.0
140
64.0
141
0.09
142
0.0
143
25.399999999999999
144
1.0
145
0.0
146
1.0
147
25.0
 71
     0
 72
     0
 73
     0
 74
     0
 75
     0
 76
     0
 77
     1
 78
     8
170
     0
171
     2
172
     1
173
     0
174
     1
175
     0
176
     7
177
     7
178
     7
  0
ENDTAB
  0
TABLE
  2
VIEW
 70
     1
  0
VIEW
  2
ALL
 70
     0
 40
4282.6198079999986
 10
0.0
 20
41.309904000000003
 41
5940.0
 11
0.0
 21
0.0
 31
1.0
 12
0.0
 22
0.0
 32
0.0
 42
50.0
 43
0.0
 44
0.0
 50
0.0
 71
     0
  0
ENDTAB
  0
TABLE
  2
UCS
 70
     0
  0
ENDTAB
  0
TABLE
  2
VPORT
 70
     1
  0
VPORT
  2
*ACTIVE
 70
     0
 10
0.0
 20
0.0
 11
1.0
 21
1.0
 12
361.80316865912408
 22
306.45767885287449
 13
0.0
 23
0.0
 14
1.0
 24
1.0
 15
0.0
 25
0.0
 16
0.0
 26
0.0
 36
1.0
 17
0.0
 27
0.0
 37
0.0
 40
1055.8202200086739
 41
1.767337807606264
 42
50.0
 43
0.0
 44
0.0
 50
0.0
 51
0.0
 71
     0
 72
  1000
 73
     1
 74
     0
 75
     0
 76
     0
 77
     0
 78
     0
  0
ENDTAB
  0
ENDSEC
  0
SECTION
  2
BLOCKS
  0
ENDSEC
  0
SECTION
  2
ENTITIES
  0
TEXT
  8
ETC
  6
CONTINUOUS
 62
    61
 10
306.06999901476678
 20
718.22607831837956
 30
0.0
 40
64.0
  1
V-08PE7_1
 41
0.9
  0
TEXT
  8
ETC
  6
CONTINUOUS
 62
    61
 10
301.88400501476639
 20
600.27076830354827
 30
0.0
 40
64.0
  1
換気扇
 41
0.9
  0
CIRCLE
  8
ARRANGE
  6
CONTINUOUS
 62
     1
 10
0.0
 20
0.0
 30
0.0
 40
40.0
  0
POINT
  8
ARRANGE
  6
CONTINUOUS
 62
     1
 10
0.0
 20
0.0
 30
0.0
 39
50.0
  0
LINE
  8
BASIS
  6
DASHDOT
 62
     6
 10
0.0
 20
-109.2854010143142
 30
0.0
 11
0.0
 21
109.2854010143142
 31
0.0
  0
LINE
  8
BASIS
  6
DASHDOT
 62
     6
 10
125.4561247050906
 20
0.0
 30
0.0
 11
-125.4561247050906
 21
0.0
 31
0.0
  0
TEXT
  8
ETC
  6
CONTINUOUS
 62
    61
 10
352.58540326332229
 20
492.12199541732292
 30
0.0
 40
40.0
  1
V-08PE7
 41
0.9
  0
TEXT
  8
ETC
  6
CONTINUOUS
 62
    61
 10
352.58540326332229
 20
426.12199541732292
 30
0.0
 40
40.0
  1
V-08PE7-BE
 41
0.9
  0
LINE
  8
NOTE
  6
CONTINUOUS
 62
     4
 10
34.730923000000082
 20
39.948408981022233
 30
0.0
 11
32.69998899999996
 21
0.0000009810221968
 31
0.0
  0
LINE
  8
NOTE
  6
CONTINUOUS
 62
     4
 10
32.69998899999996
 20
0.0000009810221968
 30
0.0
 11
54.433034000000127
 21
33.580869981022197
 31
0.0
  0
TEXT
  8
NOTE
  6
CONTINUOUS
 62
     4
 10
143.94719200000009
 20
382.10447898102228
 30
0.0
 40
64.0
  1
EL
 41
0.9
  0
LINE
  8
NOTE
  6
CONTINUOUS
 62
     4
 10
139.464011
 20
372.00419498102218
 30
0.0
 11
236.18080400000011
 21
372.00419498102218
 31
0.0
  0
TEXT
  8
NOTE
  6
CONTINUOUS
 62
     4
 10
-541.69244142216087
 20
78.642613555608136
 30
0.0
 40
64.0
  1
2-φ4×10
 41
0.9
  0
LINE
  8
NOTE
  6
CONTINUOUS
 62
     4
 10
-118.262152
 20
11.6622379810222
 30
0.0
 11
-80.00000099999987
 21
-0.0000010189777981
 31
0.0
  0
LINE
  8
NOTE
  6
CONTINUOUS
 62
     4
 10
-80.00000099999987
 20
-0.0000010189777981
 30
0.0
 11
-107.30487600000011
 21
29.230869981022181
 31
0.0
  0
LINE
  8
NOTE
  6
CONTINUOUS
 62
     4
 10
139.464011
 20
372.00419498102218
 30
0.0
 11
32.69998899999996
 21
-0.0000000189778007
 31
0.0
  0
LINE
  8
NOTE
  6
CONTINUOUS
 62
     4
 10
-547.98383213525358
 20
51.229682981022208
 30
0.0
 11
-159.5842440000001
 21
51.229682981022208
 31
0.0
  0
LINE
  8
NOTE
  6
CONTINUOUS
 62
     4
 10
-159.5842440000001
 20
51.229682981022208
 30
0.0
 11
-80.00000099999987
 21
-0.0000010189777981
 31
0.0
  0
LINE
  8
BASIS
  6
DASHDOT
 62
     6
 10
0.0
 20
-80.813238018977813
 30
0.0
 11
0.0
 21
80.806137981022218
 31
0.0
  0
LINE
  8
BASIS
  6
DASHDOT
 62
     6
 10
123.75393699999999
 20
0.0000029810221918
 30
0.0
 11
-125.329624
 21
-0.0000030189777931
 31
0.0
  0
LINE
  8
DETAIL
  6
CONTINUOUS
 62
     5
 10
-74.880498000000003
 20
-49.999976018977797
 30
0.0
 11
74.880498000000003
 21
-49.999976018977797
 31
0.0
  0
LINE
  8
DETAIL
  6
CONTINUOUS
 62
     5
 10
29.01704999999993
 20
-47.567612018977798
 30
0.0
 11
-74.880499999999984
 21
-47.567612018977798
 31
0.0
  0
LINE
  8
DETAIL
  6
CONTINUOUS
 62
     5
 10
74.877733000000035
 20
-44.690455018977786
 30
0.0
 11
-74.877733000000035
 21
-44.690455018977786
 31
0.0
  0
LINE
  8
DETAIL
  6
CONTINUOUS
 62
     5
 10
-87.523819000000003
 20
-37.040312018977772
 30
0.0
 11
87.523826999999983
 21
-37.040312018977772
 31
0.0
  0
LINE
  8
DETAIL
  6
CONTINUOUS
 62
     5
 10
88.20335799999998
 20
-34.635644018977807
 30
0.0
 11
-88.20335799999998
 21
-34.635644018977807
 31
0.0
  0
LINE
  8
DETAIL
  6
CONTINUOUS
 62
     5
 10
88.207726999999963
 20
-34.135070018977792
 30
0.0
 11
-88.207726999999963
 21
-34.135070018977792
 31
0.0
  0
LINE
  8
DETAIL
  6
CONTINUOUS
 62
     5
 10
89.702870999999959
 20
-0.0000000189778007
 30
0.0
 11
-89.702870999999959
 21
-0.0000000189778007
 31
0.0
  0
LINE
  8
DETAIL
  6
CONTINUOUS
 62
     5
 10
90.002858999999944
 20
-0.3026180189777961
 30
0.0
 11
89.653777999999861
 21
-40.310497018977792
 31
0.0
  0
ARC
  8
DETAIL
  6
CONTINUOUS
 62
     5
 10
89.702860999999984
 20
-0.300000018977812
 30
0.0
 40
0.3
 50
359.50001600000178
 51
90.0
  0
ARC
  8
DETAIL
  6
CONTINUOUS
 62
     5
 10
-10.17280000000005
 20
-0.2000000189777893
 30
0.0
 40
0.2
 50
0.4999999999980886
 51
90.0
  0
LINE
  8
DETAIL
  6
CONTINUOUS
 62
     5
 10
-10.8945389999999
 20
-0.0057480189778403
 30
0.0
 11
-10.965848999999929
 21
-0.0000000189778007
 31
0.0
  0
LINE
  8
DETAIL
  6
CONTINUOUS
 62
     5
 10
-10.965848999999929
 20
-0.0000000189778007
 30
0.0
 11
-10.886833000000021
 21
-0.0056240189778123
 31
0.0
  0
LINE
  8
DETAIL
  6
CONTINUOUS
 62
     5
 10
79.60721599999988
 20
-48.216849018977832
 30
0.0
 11
81.980659999999929
 21
-47.189598018977783
 31
0.0
  0
LINE
  8
DETAIL
  6
CONTINUOUS
 62
     5
 10
81.905537000000095
 20
-45.001146018977813
 30
0.0
 11
79.589625000000083
 21
-45.926664018977817
 31
0.0
  0
LINE
  8
DETAIL
  6
CONTINUOUS
 62
     5
 10
81.655993999999978
 20
-41.862817018977807
 30
0.0
 11
79.412536000000031
 21
-42.885937018977813
 31
0.0
  0
LINE
  8
DETAIL
  6
CONTINUOUS
 62
     5
 10
86.623403999999937
 20
-44.907295018977777
 30
0.0
 11
88.73061400000006
 21
-43.744479018977813
 31
0.0
  0
LINE
  8
DETAIL
  6
CONTINUOUS
 62
     5
 10
84.206043000000122
 20
-43.99954101897783
 30
0.0
 11
81.905537000000095
 21
-45.001146018977813
 31
0.0
  0
LINE
  8
DETAIL
  6
CONTINUOUS
 62
     5
 10
88.185662999999963
 20
-36.663316018977817
 30
0.0
 11
88.983646000000135
 21
-36.668273018977793
 31
0.0
  0
LINE
  8
DETAIL
  6
CONTINUOUS
 62
     5
 10
88.20335799999998
 20
-34.635644018977807
 30
0.0
 11
88.349637000000044
 21
-34.636581018977779
 31
0.0
  0
LINE
  8
DETAIL
  6
CONTINUOUS
 62
     5
 10
88.207726999999963
 20
-34.135070018977792
 30
0.0
 11
88.337684999999965
 21
-34.13581101897779
 31
0.0
  0
LINE
  8
DETAIL
  6
CONTINUOUS
 62
     5
 10
88.254664000000034
 20
-38.326339018977812
 30
0.0
 11
88.592416999999841
 21
-38.135088018977797
 31
0.0
  0
LINE
  8
DETAIL
  6
CONTINUOUS
 62
     5
 10
88.746278999999959
 20
-41.765792018977827
 30
0.0
 11
86.487263999999868
 21
-42.921421018977817
 31
0.0
  0
LINE
  8
DETAIL
  6
CONTINUOUS
 62
     5
 10
89.637248
 20
-42.197490018977817
 30
0.0
 11
89.653605999999868
 21
-40.323037018977793
 31
0.0
  0
LINE
  8
DETAIL
  6
CONTINUOUS
 62
     5
 10
89.60608999999998
 20
-40.653118018977807
 30
0.0
 11
89.592266000000109
 21
-40.696664018977792
 31
0.0
  0
LINE
  8
DETAIL
  6
CONTINUOUS
 62
     5
 10
89.582257000000013
 20
-40.737519018977828
 30
0.0
 11
89.592266000000109
 21
-40.696664018977792
 31
0.0
  0
ARC
  8
DETAIL
  6
CONTINUOUS
 62
     5
 10
87.837316000000101
 20
-42.181783018977796
 30
0.0
 40
1.8
 50
299.7539449999951
 51
359.50000000000188
  0
LINE
  8
DETAIL
  6
CONTINUOUS
 62
     5
 10
89.694441999999981
 20
-34.812002018977807
 30
0.0
 11
89.701594999999998
 21
-34.831127018977838
 31
0.0
  0
LINE
  8
DETAIL
  6
CONTINUOUS
 62
     5
 10
89.672992000000022
 20
-34.79317901897781
 30
0.0
 11
89.694441999999981
 21
-34.812002018977807
 31
0.0
  0
LINE
  8
DETAIL
  6
CONTINUOUS
 62
     5
 10
89.63695400000006
 20
-34.774543018977788
 30
0.0
 11
89.672992000000022
 21
-34.79317901897781
 31
0.0
  0
LINE
  8
DETAIL
  6
CONTINUOUS
 62
     5
 10
89.587203000000045
 20
-34.756441018977803
 30
0.0
 11
89.63695400000006
 21
-34.774543018977788
 31
0.0
  0
LINE
  8
DETAIL
  6
CONTINUOUS
 62
     5
 10
89.52443500000004
 20
-34.739174018977792
 30
0.0
 11
89.587203000000045
 21
-34.756441018977803
 31
0.0
  0
LINE
  8
DETAIL
  6
CONTINUOUS
 62
     5
 10
89.448898000000113
 20
-34.722767018977777
 30
0.0
 11
89.52443500000004
 21
-34.739174018977792
 31
0.0
  0
LINE
  8
DETAIL
  6
CONTINUOUS
 62
     5
 10
89.360574000000042
 20
-34.707265018977807
 30
0.0
 11
89.448898000000113
 21
-34.722767018977777
 31
0.0
  0
LINE
  8
DETAIL
  6
CONTINUOUS
 62
     5
 10
89.260952000000088
 20
-34.692916018977769
 30
0.0
 11
89.360574000000042
 21
-34.707265018977807
 31
0.0
  0
LINE
  8
DETAIL
  6
CONTINUOUS
 62
     5
 10
89.150963000000033
 20
-34.679946018977773
 30
0.0
 11
89.260952000000088
 21
-34.692916018977769
 31
0.0
  0
LINE
  8
DETAIL
  6
CONTINUOUS
 62
     5
 10
89.032270000000139
 20
-34.668462018977777
 30
0.0
 11
89.150963000000033
 21
-34.679946018977773
 31
0.0
  0
LINE
  8
DETAIL
  6
CONTINUOUS
 62
     5
 10
88.906754000000092
 20
-34.658650018977767
 30
0.0
 11
89.032270000000139
 21
-34.668462018977777
 31
0.0
  0
LINE
  8
DETAIL
  6
CONTINUOUS
 62
     5
 10
88.774688999999867
 20
-34.650503018977822
 30
0.0
 11
88.906754000000092
 21
-34.658650018977767
 31
0.0
  0
LINE
  8
DETAIL
  6
CONTINUOUS
 62
     5
 10
88.636195999999927
 20
-34.644047018977801
 30
0.0
 11
88.774688999999867
 21
-34.650503018977822
 31
0.0
  0
LINE
  8
DETAIL
  6
CONTINUOUS
 62
     5
 10
88.493618999999867
 20
-34.639371018977783
 30
0.0
 11
88.636195999999927
 21
-34.644047018977801
 31
0.0
  0
LINE
  8
DETAIL
  6
CONTINUOUS
 62
     5
 10
88.349637000000044
 20
-34.636581018977779
 30
0.0
 11
88.493618999999867
 21
-34.639371018977783
 31
0.0
  0
LINE
  8
DETAIL
  6
CONTINUOUS
 62
     5
 10
89.700338000000102
 20
-34.313489018977798
 30
0.0
 11
89.70596399999998
 21
-34.330563018977777
 31
0.0
  0
LINE
  8
DETAIL
  6
CONTINUOUS
 62
     5
 10
89.683191999999963
 20
-34.296651018977798
 30
0.0
 11
89.700338000000102
 21
-34.313489018977798
 31
0.0
  0
LINE
  8
DETAIL
  6
CONTINUOUS
 62
     5
 10
89.654594999999958
 20
-34.279952018977781
 30
0.0
 11
89.683191999999963
 21
-34.296651018977798
 31
0.0
  0
LINE
  8
DETAIL
  6
CONTINUOUS
 62
     5
 10
89.614892999999938
 20
-34.263651018977782
 30
0.0
 11
89.654594999999958
 21
-34.279952018977781
 31
0.0
  0
LINE
  8
DETAIL
  6
CONTINUOUS
 62
     5
 10
89.564783000000034
 20
-34.24797001897781
 30
0.0
 11
89.614892999999938
 21
-34.263651018977782
 31
0.0
  0
LINE
  8
DETAIL
  6
CONTINUOUS
 62
     5
 10
89.504527999999937
 20
-34.232934018977801
 30
0.0
 11
89.564783000000034
 21
-34.24797001897781
 31
0.0
  0
LINE
  8
DETAIL
  6
CONTINUOUS
 62
     5
 10
89.434404000000072
 20
-34.218604018977828
 30
0.0
 11
89.504527999999937
 21
-34.232934018977801
 31
0.0
  0
LINE
  8
DETAIL
  6
CONTINUOUS
 62
     5
 10
89.354802000000063
 20
-34.205078018977822
 30
0.0
 11
89.434404000000072
 21
-34.218604018977828
 31
0.0
  0
LINE
  8
DETAIL
  6
CONTINUOUS
 62
     5
 10
89.26578399999994
 20
-34.192417018977778
 30
0.0
 11
89.354802000000063
 21
-34.205078018977822
 31
0.0
  0
LINE
  8
DETAIL
  6
CONTINUOUS
 62
     5
 10
89.168665000000132
 20
-34.180798018977782
 30
0.0
 11
89.26578399999994
 21
-34.192417018977778
 31
0.0
  0
LINE
  8
DETAIL
  6
CONTINUOUS
 62
     5
 10
89.065102999999908
 20
-34.170429018977813
 30
0.0
 11
89.168665000000132
 21
-34.180798018977782
 31
0.0
  0
LINE
  8
DETAIL
  6
CONTINUOUS
 62
     5
 10
88.955394000000069
 20
-34.161298018977789
 30
0.0
 11
89.065102999999908
 21
-34.170429018977813
 31
0.0
  0
LINE
  8
DETAIL
  6
CONTINUOUS
 62
     5
 10
88.840128000000036
 20
-34.153445018977827
 30
0.0
 11
88.955394000000069
 21
-34.161298018977789
 31
0.0
  0
LINE
  8
DETAIL
  6
CONTINUOUS
 62
     5
 10
88.719910000000013
 20
-34.146920018977823
 30
0.0
 11
88.840128000000036
 21
-34.153445018977827
 31
0.0
  0
LINE
  8
DETAIL
  6
CONTINUOUS
 62
     5
 10
88.594982000000059
 20
-34.141767018977824
 30
0.0
 11
88.719910000000013
 21
-34.146920018977823
 31
0.0
  0
LINE
  8
DETAIL
  6
CONTINUOUS
 62
     5
 10
88.467028999999911
 20
-34.138039018977793
 30
0.0
 11
88.594982000000059
 21
-34.141767018977824
 31
0.0
  0
LINE
  8
DETAIL
  6
CONTINUOUS
 62
     5
 10
88.337684999999965
 20
-34.13581101897779
 30
0.0
 11
88.467028999999911
 21
-34.138039018977793
 31
0.0
  0
LINE
  8
DETAIL
  6
CONTINUOUS
 62
     5
 10
88.983646000000135
 20
-36.668273018977793
 30
0.0
 11
89.35832500000015
 21
-36.668621018977831
 31
0.0
  0
LINE
  8
DETAIL
  6
CONTINUOUS
 62
     5
 10
89.35832500000015
 20
-36.668621018977831
 30
0.0
 11
89.537029999999959
 21
-36.667698018977767
 31
0.0
  0
LINE
  8
DETAIL
  6
CONTINUOUS
 62
     5
 10
89.676163000000102
 20
-36.664699018977792
 30
0.0
 11
89.685606000000007
 21
-36.663316018977817
 31
0.0
  0
LINE
  8
DETAIL
  6
CONTINUOUS
 62
     5
 10
89.647977999999966
 20
-36.665900018977773
 30
0.0
 11
89.676163000000102
 21
-36.664699018977792
 31
0.0
  0
LINE
  8
DETAIL
  6
CONTINUOUS
 62
     5
 10
89.601404999999872
 20
-36.666904018977782
 30
0.0
 11
89.647977999999966
 21
-36.665900018977773
 31
0.0
  0
LINE
  8
DETAIL
  6
CONTINUOUS
 62
     5
 10
89.537029999999959
 20
-36.667698018977767
 30
0.0
 11
89.601404999999872
 21
-36.666904018977782
 31
0.0
  0
LINE
  8
DETAIL
  6
CONTINUOUS
 62
     5
 10
88.592416999999841
 20
-38.135088018977797
 30
0.0
 11
88.929153999999926
 21
-37.942247018977817
 31
0.0
  0
LINE
  8
DETAIL
  6
CONTINUOUS
 62
     5
 10
88.746278999999959
 20
-41.765792018977827
 30
0.0
 11
88.898787999999968
 21
-41.673756018977841
 31
0.0
  0
LINE
  8
DETAIL
  6
CONTINUOUS
 62
     5
 10
88.898787999999968
 20
-41.673756018977841
 30
0.0
 11
89.038227000000006
 21
-41.56944001897778
 31
0.0
  0
LINE
  8
DETAIL
  6
CONTINUOUS
 62
     5
 10
89.652532999999963
 20
-40.357721018977777
 30
0.0
 11
89.653777999999861
 21
-40.310540018977797
 31
0.0
  0
LINE
  8
DETAIL
  6
CONTINUOUS
 62
     5
 10
89.52814799999986
 20
-40.893481018977823
 30
0.0
 11
89.582257000000013
 21
-40.737519018977828
 31
0.0
  0
LINE
  8
DETAIL
  6
CONTINUOUS
 62
     5
 10
89.459264999999959
 20
-41.044145018977829
 30
0.0
 11
89.52814799999986
 21
-40.893481018977823
 31
0.0
  0
LINE
  8
DETAIL
  6
CONTINUOUS
 62
     5
 10
89.375960999999961
 20
-41.187879018977817
 30
0.0
 11
89.459264999999959
 21
-41.044145018977829
 31
0.0
  0
LINE
  8
DETAIL
  6
CONTINUOUS
 62
     5
 10
89.278054999999981
 20
-41.323969018977827
 30
0.0
 11
89.375960999999961
 21
-41.187879018977817
 31
0.0
  0
LINE
  8
DETAIL
  6
CONTINUOUS
 62
     5
 10
89.165062000000034
 20
-41.451921018977778
 30
0.0
 11
89.278054999999981
 21
-41.323969018977827
 31
0.0
  0
LINE
  8
DETAIL
  6
CONTINUOUS
 62
     5
 10
89.038227000000006
 20
-41.56944001897778
 30
0.0
 11
89.165062000000034
 21
-41.451921018977778
 31
0.0
  0
LINE
  8
DETAIL
  6
CONTINUOUS
 62
     5
 10
89.060813000000039
 20
-37.858437018977767
 30
0.0
 11
88.929153999999926
 21
-37.942247018977817
 31
0.0
  0
LINE
  8
DETAIL
  6
CONTINUOUS
 62
     5
 10
89.182951000000003
 20
-37.761483018977792
 30
0.0
 11
89.060813000000039
 21
-37.858437018977767
 31
0.0
  0
LINE
  8
DETAIL
  6
CONTINUOUS
 62
     5
 10
89.294237999999964
 20
-37.652437018977757
 30
0.0
 11
89.182951000000003
 21
-37.761483018977792
 31
0.0
  0
LINE
  8
DETAIL
  6
CONTINUOUS
 62
     5
 10
89.39346399999998
 20
-37.532488018977787
 30
0.0
 11
89.294237999999964
 21
-37.652437018977757
 31
0.0
  0
LINE
  8
DETAIL
  6
CONTINUOUS
 62
     5
 10
89.479549000000134
 20
-37.402940018977787
 30
0.0
 11
89.39346399999998
 21
-37.532488018977787
 31
0.0
  0
LINE
  8
DETAIL
  6
CONTINUOUS
 62
     5
 10
89.551555999999891
 20
-37.265202018977782
 30
0.0
 11
89.479549000000134
 21
-37.402940018977787
 31
0.0
  0
LINE
  8
DETAIL
  6
CONTINUOUS
 62
     5
 10
89.608702999999863
 20
-37.120773018977793
 30
0.0
 11
89.551555999999891
 21
-37.265202018977782
 31
0.0
  0
LINE
  8
DETAIL
  6
CONTINUOUS
 62
     5
 10
89.650365999999863
 20
-36.971225018977798
 30
0.0
 11
89.608702999999863
 21
-37.120773018977793
 31
0.0
  0
LINE
  8
DETAIL
  6
CONTINUOUS
 62
     5
 10
89.676093999999921
 20
-36.818184018977767
 30
0.0
 11
89.650365999999863
 21
-36.971225018977798
 31
0.0
  0
LINE
  8
DETAIL
  6
CONTINUOUS
 62
     5
 10
89.685606000000007
 20
-36.663316018977817
 30
0.0
 11
89.676093999999921
 21
-36.818184018977767
 31
0.0
  0
LINE
  8
DETAIL
  6
CONTINUOUS
 62
     5
 10
89.631135000000071
 20
-40.544149018977812
 30
0.0
 11
89.60608999999998
 21
-40.653118018977807
 31
0.0
  0
LINE
  8
DETAIL
  6
CONTINUOUS
 62
     5
 10
89.647405000000148
 20
-40.429703018977811
 30
0.0
 11
89.631135000000071
 21
-40.544149018977812
 31
0.0
  0
LINE
  8
DETAIL
  6
CONTINUOUS
 62
     5
 10
89.653777999999861
 20
-40.310497018977792
 30
0.0
 11
89.647405000000148
 21
-40.429703018977811
 31
0.0
  0
LINE
  8
DETAIL
  6
CONTINUOUS
 62
     5
 10
87.523826999999983
 20
-37.040312018977772
 30
0.0
 11
87.85519100000009
 21
-36.852628018977782
 31
0.0
  0
LINE
  8
DETAIL
  6
CONTINUOUS
 62
     5
 10
87.85519100000009
 20
-36.852628018977782
 30
0.0
 11
88.185662999999963
 21
-36.663313018977817
 31
0.0
  0
LINE
  8
DETAIL
  6
CONTINUOUS
 62
     5
 10
86.487263999999868
 20
-42.921421018977817
 30
0.0
 11
84.206043000000122
 21
-43.99954101897783
 31
0.0
  0
LINE
  8
DETAIL
  6
CONTINUOUS
 62
     5
 10
83.879813000000013
 20
-40.761562018977827
 30
0.0
 11
81.655993999999978
 21
-41.862817018977807
 31
0.0
  0
LINE
  8
DETAIL
  6
CONTINUOUS
 62
     5
 10
86.080066999999872
 20
-39.582811018977793
 30
0.0
 11
83.879813000000013
 21
-40.761562018977827
 31
0.0
  0
LINE
  8
DETAIL
  6
CONTINUOUS
 62
     5
 10
88.254664000000034
 20
-38.326339018977812
 30
0.0
 11
86.080066999999872
 21
-39.582811018977793
 31
0.0
  0
LINE
  8
DETAIL
  6
CONTINUOUS
 62
     5
 10
84.320213999999851
 20
-46.086052018977803
 30
0.0
 11
86.623403999999937
 21
-44.907295018977777
 31
0.0
  0
LINE
  8
DETAIL
  6
CONTINUOUS
 62
     5
 10
81.980659999999929
 20
-47.189598018977783
 30
0.0
 11
84.320213999999851
 21
-46.086052018977803
 31
0.0
  0
LINE
  8
DETAIL
  6
CONTINUOUS
 62
     5
 10
74.880499999999984
 20
-47.567612018977798
 30
0.0
 11
29.01704999999993
 21
-47.567612018977798
 31
0.0
  0
LINE
  8
DETAIL
  6
CONTINUOUS
 62
     5
 10
77.153374999999869
 20
-43.830473018977777
 30
0.0
 11
74.880498000000003
 21
-44.696875018977778
 31
0.0
  0
LINE
  8
DETAIL
  6
CONTINUOUS
 62
     5
 10
79.412536000000031
 20
-42.885937018977813
 30
0.0
 11
77.153374999999869
 21
-43.830473018977777
 31
0.0
  0
LINE
  8
DETAIL
  6
CONTINUOUS
 62
     5
 10
74.880498000000003
 20
-44.696853018977833
 30
0.0
 11
74.88049599999998
 21
-47.567612018977798
 31
0.0
  0
LINE
  8
DETAIL
  6
CONTINUOUS
 62
     5
 10
74.880384999999933
 20
-44.695769018977778
 30
0.0
 11
74.880498000000003
 21
-44.696853018977833
 31
0.0
  0
LINE
  8
DETAIL
  6
CONTINUOUS
 62
     5
 10
74.880135999999979
 20
-44.694692018977833
 30
0.0
 11
74.880384999999933
 21
-44.695769018977778
 31
0.0
  0
LINE
  8
DETAIL
  6
CONTINUOUS
 62
     5
 10
74.879754000000034
 20
-44.693622018977813
 30
0.0
 11
74.880135999999979
 21
-44.694692018977833
 31
0.0
  0
LINE
  8
DETAIL
  6
CONTINUOUS
 62
     5
 10
74.879230000000007
 20
-44.692560018977829
 30
0.0
 11
74.879754000000034
 21
-44.693622018977813
 31
0.0
  0
LINE
  8
DETAIL
  6
CONTINUOUS
 62
     5
 10
74.878556000000103
 20
-44.691504018977817
 30
0.0
 11
74.879230000000007
 21
-44.692560018977829
 31
0.0
  0
LINE
  8
DETAIL
  6
CONTINUOUS
 62
     5
 10
74.877733000000035
 20
-44.690455018977786
 30
0.0
 11
74.878556000000103
 21
-44.691504018977817
 31
0.0
  0
LINE
  8
DETAIL
  6
CONTINUOUS
 62
     5
 10
74.925658999999982
 20
-47.552163018977822
 30
0.0
 11
74.880499999999984
 21
-47.567612018977798
 31
0.0
  0
LINE
  8
DETAIL
  6
CONTINUOUS
 62
     5
 10
77.202350999999908
 20
-49.166718018977797
 30
0.0
 11
79.60721599999988
 21
-48.216849018977832
 31
0.0
  0
LINE
  8
DETAIL
  6
CONTINUOUS
 62
     5
 10
74.880498999999872
 20
-49.999976018977797
 30
0.0
 11
77.202350999999908
 21
-49.166718018977797
 31
0.0
  0
LINE
  8
DETAIL
  6
CONTINUOUS
 62
     5
 10
74.877733000000035
 20
-44.690455018977786
 30
0.0
 11
74.855741999999978
 21
-44.655565018977811
 31
0.0
  0
LINE
  8
DETAIL
  6
CONTINUOUS
 62
     5
 10
77.262119999999882
 20
-46.776629018977808
 30
0.0
 11
74.925658999999982
 21
-47.552163018977822
 31
0.0
  0
LINE
  8
DETAIL
  6
CONTINUOUS
 62
     5
 10
79.589625000000083
 20
-45.926664018977817
 30
0.0
 11
77.262119999999882
 21
-46.776629018977808
 31
0.0
  0
LINE
  8
DETAIL
  6
CONTINUOUS
 62
     5
 10
74.880498000000003
 20
-49.999976018977797
 30
0.0
 11
74.880499999999984
 21
-47.567612018977798
 31
0.0
  0
LINE
  8
DETAIL
  6
CONTINUOUS
 62
     5
 10
-89.65375399999995
 20
-40.312928018977793
 30
0.0
 11
-90.002858999999944
 21
-0.3026180189777961
 31
0.0
  0
ARC
  8
DETAIL
  6
CONTINUOUS
 62
     5
 10
-89.702860999999984
 20
-0.300000018977812
 30
0.0
 40
0.3
 50
90.0
 51
180.49998399999819
  0
LINE
  8
DETAIL
  6
CONTINUOUS
 62
     5
 10
-89.997154000000137
 20
-0.3028330189777648
 30
0.0
 11
-90.002858999999944
 21
-0.3026180189777961
 31
0.0
  0
LINE
  8
DETAIL
  6
CONTINUOUS
 62
     5
 10
-84.320214000000064
 20
-46.086052018977803
 30
0.0
 11
-81.980659999999929
 21
-47.189598018977783
 31
0.0
  0
LINE
  8
DETAIL
  6
CONTINUOUS
 62
     5
 10
-84.206043000000122
 20
-43.99954101897783
 30
0.0
 11
-81.905537000000095
 21
-45.001146018977813
 31
0.0
  0
LINE
  8
DETAIL
  6
CONTINUOUS
 62
     5
 10
-83.879756000000029
 20
-40.761591018977811
 30
0.0
 11
-86.080044000000044
 21
-39.582824018977817
 31
0.0
  0
LINE
  8
DETAIL
  6
CONTINUOUS
 62
     5
 10
-74.880498000000003
 20
-44.696875018977778
 30
0.0
 11
-77.153315000000021
 21
-43.830497018977788
 31
0.0
  0
LINE
  8
DETAIL
  6
CONTINUOUS
 62
     5
 10
-81.65591100000006
 20
-41.862856018977773
 30
0.0
 11
-83.879756000000029
 21
-40.761591018977811
 31
0.0
  0
LINE
  8
DETAIL
  6
CONTINUOUS
 62
     5
 10
-79.412446000000031
 20
-42.885976018977829
 30
0.0
 11
-81.65591100000006
 21
-41.862856018977773
 31
0.0
  0
LINE
  8
DETAIL
  6
CONTINUOUS
 62
     5
 10
-77.153315000000021
 20
-43.830497018977788
 30
0.0
 11
-79.412446000000031
 21
-42.885976018977829
 31
0.0
  0
LINE
  8
DETAIL
  6
CONTINUOUS
 62
     5
 10
-77.202350999999908
 20
-49.166718018977797
 30
0.0
 11
-74.880498999999872
 21
-49.999976018977797
 31
0.0
  0
LINE
  8
DETAIL
  6
CONTINUOUS
 62
     5
 10
-77.262119999999882
 20
-46.776629018977808
 30
0.0
 11
-74.925658999999982
 21
-47.552163018977822
 31
0.0
  0
LINE
  8
DETAIL
  6
CONTINUOUS
 62
     5
 10
-74.88049599999998
 20
-47.393333018977778
 30
0.0
 11
-74.880498000000003
 21
-44.696853018977833
 31
0.0
  0
LINE
  8
DETAIL
  6
CONTINUOUS
 62
     5
 10
-74.880498000000003
 20
-49.999976018977797
 30
0.0
 11
-74.880499999999984
 21
-47.567612018977798
 31
0.0
  0
LINE
  8
DETAIL
  6
CONTINUOUS
 62
     5
 10
-74.925658999999982
 20
-47.552163018977822
 30
0.0
 11
-74.880499999999984
 21
-47.567612018977798
 31
0.0
  0
LINE
  8
DETAIL
  6
CONTINUOUS
 62
     5
 10
-74.880384999999933
 20
-44.695769018977778
 30
0.0
 11
-74.880498000000003
 21
-44.696853018977833
 31
0.0
  0
LINE
  8
DETAIL
  6
CONTINUOUS
 62
     5
 10
-74.880134999999882
 20
-44.694692018977833
 30
0.0
 11
-74.880384999999933
 21
-44.695769018977778
 31
0.0
  0
LINE
  8
DETAIL
  6
CONTINUOUS
 62
     5
 10
-74.879752999999937
 20
-44.693622018977813
 30
0.0
 11
-74.880134999999882
 21
-44.694692018977833
 31
0.0
  0
LINE
  8
DETAIL
  6
CONTINUOUS
 62
     5
 10
-74.879229000000123
 20
-44.692560018977829
 30
0.0
 11
-74.879752999999937
 21
-44.693622018977813
 31
0.0
  0
LINE
  8
DETAIL
  6
CONTINUOUS
 62
     5
 10
-74.878555000000006
 20
-44.691504018977817
 30
0.0
 11
-74.879229000000123
 21
-44.692560018977829
 31
0.0
  0
LINE
  8
DETAIL
  6
CONTINUOUS
 62
     5
 10
-74.877733000000035
 20
-44.690455018977786
 30
0.0
 11
-74.878555000000006
 21
-44.691504018977817
 31
0.0
  0
LINE
  8
DETAIL
  6
CONTINUOUS
 62
     5
 10
-79.60721599999988
 20
-48.216849018977832
 30
0.0
 11
-77.202350999999908
 21
-49.166718018977797
 31
0.0
  0
LINE
  8
DETAIL
  6
CONTINUOUS
 62
     5
 10
-81.980659999999929
 20
-47.189598018977783
 30
0.0
 11
-79.60721599999988
 21
-48.216849018977832
 31
0.0
  0
LINE
  8
DETAIL
  6
CONTINUOUS
 62
     5
 10
-79.589625000000083
 20
-45.926664018977817
 30
0.0
 11
-77.262119999999882
 21
-46.776629018977808
 31
0.0
  0
LINE
  8
DETAIL
  6
CONTINUOUS
 62
     5
 10
-81.905537000000095
 20
-45.001146018977813
 30
0.0
 11
-79.589625000000083
 21
-45.926664018977817
 31
0.0
  0
LINE
  8
DETAIL
  6
CONTINUOUS
 62
     5
 10
-88.73061400000006
 20
-43.744479018977813
 30
0.0
 11
-86.623403999999937
 21
-44.907295018977777
 31
0.0
  0
LINE
  8
DETAIL
  6
CONTINUOUS
 62
     5
 10
-89.623454000000038
 20
-40.582274018977778
 30
0.0
 11
-89.590998000000127
 21
-40.704229018977792
 31
0.0
  0
ARC
  8
DETAIL
  6
CONTINUOUS
 62
     5
 10
-87.837316000000101
 20
-42.181783018977796
 30
0.0
 40
1.8
 50
180.4999999999981
 51
240.24605500000499
  0
LINE
  8
DETAIL
  6
CONTINUOUS
 62
     5
 10
-88.337684999999965
 20
-34.13581101897779
 30
0.0
 11
-88.207726999999963
 21
-34.135070018977792
 31
0.0
  0
LINE
  8
DETAIL
  6
CONTINUOUS
 62
     5
 10
-88.467028999999911
 20
-34.138039018977793
 30
0.0
 11
-88.337684999999965
 21
-34.13581101897779
 31
0.0
  0
LINE
  8
DETAIL
  6
CONTINUOUS
 62
     5
 10
-88.594982000000059
 20
-34.141767018977824
 30
0.0
 11
-88.467028999999911
 21
-34.138039018977793
 31
0.0
  0
LINE
  8
DETAIL
  6
CONTINUOUS
 62
     5
 10
-88.719910000000013
 20
-34.146920018977823
 30
0.0
 11
-88.594982000000059
 21
-34.141767018977824
 31
0.0
  0
LINE
  8
DETAIL
  6
CONTINUOUS
 62
     5
 10
-88.840128000000036
 20
-34.153445018977827
 30
0.0
 11
-88.719910000000013
 21
-34.146920018977823
 31
0.0
  0
LINE
  8
DETAIL
  6
CONTINUOUS
 62
     5
 10
-88.955394000000069
 20
-34.161298018977789
 30
0.0
 11
-88.840128000000036
 21
-34.153445018977827
 31
0.0
  0
LINE
  8
DETAIL
  6
CONTINUOUS
 62
     5
 10
-89.065102999999908
 20
-34.170429018977813
 30
0.0
 11
-88.955394000000069
 21
-34.161298018977789
 31
0.0
  0
LINE
  8
DETAIL
  6
CONTINUOUS
 62
     5
 10
-89.168665000000132
 20
-34.180798018977782
 30
0.0
 11
-89.065102999999908
 21
-34.170429018977813
 31
0.0
  0
LINE
  8
DETAIL
  6
CONTINUOUS
 62
     5
 10
-89.26578399999994
 20
-34.192417018977778
 30
0.0
 11
-89.168665000000132
 21
-34.180798018977782
 31
0.0
  0
LINE
  8
DETAIL
  6
CONTINUOUS
 62
     5
 10
-89.354802000000063
 20
-34.205078018977822
 30
0.0
 11
-89.26578399999994
 21
-34.192417018977778
 31
0.0
  0
LINE
  8
DETAIL
  6
CONTINUOUS
 62
     5
 10
-89.434404000000072
 20
-34.218604018977828
 30
0.0
 11
-89.354802000000063
 21
-34.205078018977822
 31
0.0
  0
LINE
  8
DETAIL
  6
CONTINUOUS
 62
     5
 10
-89.504527999999937
 20
-34.232934018977801
 30
0.0
 11
-89.434404000000072
 21
-34.218604018977828
 31
0.0
  0
LINE
  8
DETAIL
  6
CONTINUOUS
 62
     5
 10
-89.564783000000034
 20
-34.24797001897781
 30
0.0
 11
-89.504527999999937
 21
-34.232934018977801
 31
0.0
  0
LINE
  8
DETAIL
  6
CONTINUOUS
 62
     5
 10
-89.614892999999938
 20
-34.263651018977782
 30
0.0
 11
-89.564783000000034
 21
-34.24797001897781
 31
0.0
  0
LINE
  8
DETAIL
  6
CONTINUOUS
 62
     5
 10
-89.654594999999958
 20
-34.279952018977781
 30
0.0
 11
-89.614892999999938
 21
-34.263651018977782
 31
0.0
  0
LINE
  8
DETAIL
  6
CONTINUOUS
 62
     5
 10
-89.683191999999963
 20
-34.296651018977798
 30
0.0
 11
-89.654594999999958
 21
-34.279952018977781
 31
0.0
  0
LINE
  8
DETAIL
  6
CONTINUOUS
 62
     5
 10
-89.700338000000102
 20
-34.313489018977798
 30
0.0
 11
-89.683191999999963
 21
-34.296651018977798
 31
0.0
  0
LINE
  8
DETAIL
  6
CONTINUOUS
 62
     5
 10
-89.70596399999998
 20
-34.330563018977777
 30
0.0
 11
-89.700338000000102
 21
-34.313489018977798
 31
0.0
  0
LINE
  8
DETAIL
  6
CONTINUOUS
 62
     5
 10
-89.637248
 20
-42.197490018977817
 30
0.0
 11
-89.652912000000015
 21
-40.402583018977793
 31
0.0
  0
LINE
  8
DETAIL
  6
CONTINUOUS
 62
     5
 10
-89.653755000000032
 20
-40.313008018977783
 30
0.0
 11
-89.652532999999963
 21
-40.357722018977768
 31
0.0
  0
LINE
  8
DETAIL
  6
CONTINUOUS
 62
     5
 10
-89.061032000000054
 20
-37.858271018977803
 30
0.0
 11
-88.929153999999926
 21
-37.942247018977817
 31
0.0
  0
LINE
  8
DETAIL
  6
CONTINUOUS
 62
     5
 10
-89.181806999999949
 20
-37.762504018977843
 30
0.0
 11
-89.061032000000054
 21
-37.858271018977803
 31
0.0
  0
LINE
  8
DETAIL
  6
CONTINUOUS
 62
     5
 10
-89.293008999999984
 20
-37.653749018977813
 30
0.0
 11
-89.181806999999949
 21
-37.762504018977843
 31
0.0
  0
LINE
  8
DETAIL
  6
CONTINUOUS
 62
     5
 10
-89.392618999999968
 20
-37.533612018977813
 30
0.0
 11
-89.293008999999984
 21
-37.653749018977813
 31
0.0
  0
LINE
  8
DETAIL
  6
CONTINUOUS
 62
     5
 10
-89.478873000000021
 20
-37.40406001897783
 30
0.0
 11
-89.392618999999968
 21
-37.533612018977813
 31
0.0
  0
LINE
  8
DETAIL
  6
CONTINUOUS
 62
     5
 10
-89.551233000000138
 20
-37.265912018977829
 30
0.0
 11
-89.478873000000021
 21
-37.40406001897783
 31
0.0
  0
LINE
  8
DETAIL
  6
CONTINUOUS
 62
     5
 10
-89.608474000000115
 20
-37.121453018977768
 30
0.0
 11
-89.551233000000138
 21
-37.265912018977829
 31
0.0
  0
LINE
  8
DETAIL
  6
CONTINUOUS
 62
     5
 10
-89.650276000000062
 20
-36.97162801897781
 30
0.0
 11
-89.608474000000115
 21
-37.121453018977768
 31
0.0
  0
LINE
  8
DETAIL
  6
CONTINUOUS
 62
     5
 10
-89.676073999999957
 20
-36.818450018977792
 30
0.0
 11
-89.650276000000062
 21
-36.97162801897781
 31
0.0
  0
LINE
  8
DETAIL
  6
CONTINUOUS
 62
     5
 10
-89.685606000000007
 20
-36.663316018977817
 30
0.0
 11
-89.676073999999957
 21
-36.818450018977792
 31
0.0
  0
LINE
  8
DETAIL
  6
CONTINUOUS
 62
     5
 10
-89.645181999999963
 20
-40.450599018977812
 30
0.0
 11
-89.623454000000038
 21
-40.582274018977778
 31
0.0
  0
LINE
  8
DETAIL
  6
CONTINUOUS
 62
     5
 10
-89.65375399999995
 20
-40.312928018977793
 30
0.0
 11
-89.645181999999963
 21
-40.450599018977812
 31
0.0
  0
LINE
  8
DETAIL
  6
CONTINUOUS
 62
     5
 10
-88.349637000000044
 20
-34.636581018977779
 30
0.0
 11
-88.20335799999998
 21
-34.635644018977807
 31
0.0
  0
LINE
  8
DETAIL
  6
CONTINUOUS
 62
     5
 10
-88.493618999999867
 20
-34.639371018977783
 30
0.0
 11
-88.349637000000044
 21
-34.636581018977779
 31
0.0
  0
LINE
  8
DETAIL
  6
CONTINUOUS
 62
     5
 10
-88.636195999999927
 20
-34.644047018977801
 30
0.0
 11
-88.493618999999867
 21
-34.639371018977783
 31
0.0
  0
LINE
  8
DETAIL
  6
CONTINUOUS
 62
     5
 10
-88.774688999999867
 20
-34.650503018977822
 30
0.0
 11
-88.636195999999927
 21
-34.644047018977801
 31
0.0
  0
LINE
  8
DETAIL
  6
CONTINUOUS
 62
     5
 10
-88.906754000000092
 20
-34.658650018977767
 30
0.0
 11
-88.774688999999867
 21
-34.650503018977822
 31
0.0
  0
LINE
  8
DETAIL
  6
CONTINUOUS
 62
     5
 10
-89.032269999999926
 20
-34.668462018977777
 30
0.0
 11
-88.906754000000092
 21
-34.658650018977767
 31
0.0
  0
LINE
  8
DETAIL
  6
CONTINUOUS
 62
     5
 10
-89.150963000000033
 20
-34.679946018977773
 30
0.0
 11
-89.032269999999926
 21
-34.668462018977777
 31
0.0
  0
LINE
  8
DETAIL
  6
CONTINUOUS
 62
     5
 10
-89.260952000000088
 20
-34.692916018977769
 30
0.0
 11
-89.150963000000033
 21
-34.679946018977773
 31
0.0
  0
LINE
  8
DETAIL
  6
CONTINUOUS
 62
     5
 10
-89.360574000000042
 20
-34.707265018977807
 30
0.0
 11
-89.260952000000088
 21
-34.692916018977769
 31
0.0
  0
LINE
  8
DETAIL
  6
CONTINUOUS
 62
     5
 10
-89.448898000000113
 20
-34.722767018977777
 30
0.0
 11
-89.360574000000042
 21
-34.707265018977807
 31
0.0
  0
LINE
  8
DETAIL
  6
CONTINUOUS
 62
     5
 10
-89.52443500000004
 20
-34.739174018977792
 30
0.0
 11
-89.448898000000113
 21
-34.722767018977777
 31
0.0
  0
LINE
  8
DETAIL
  6
CONTINUOUS
 62
     5
 10
-89.587203000000045
 20
-34.756441018977803
 30
0.0
 11
-89.52443500000004
 21
-34.739174018977792
 31
0.0
  0
LINE
  8
DETAIL
  6
CONTINUOUS
 62
     5
 10
-89.63695400000006
 20
-34.774543018977788
 30
0.0
 11
-89.587203000000045
 21
-34.756441018977803
 31
0.0
  0
LINE
  8
DETAIL
  6
CONTINUOUS
 62
     5
 10
-89.672992000000022
 20
-34.79317901897781
 30
0.0
 11
-89.63695400000006
 21
-34.774543018977788
 31
0.0
  0
LINE
  8
DETAIL
  6
CONTINUOUS
 62
     5
 10
-89.694441999999981
 20
-34.812002018977807
 30
0.0
 11
-89.672992000000022
 21
-34.79317901897781
 31
0.0
  0
LINE
  8
DETAIL
  6
CONTINUOUS
 62
     5
 10
-89.701594999999998
 20
-34.831127018977838
 30
0.0
 11
-89.694441999999981
 21
-34.812002018977807
 31
0.0
  0
LINE
  8
DETAIL
  6
CONTINUOUS
 62
     5
 10
-89.582257000000013
 20
-40.737519018977828
 30
0.0
 11
-89.593939999999961
 21
-40.68983001897783
 31
0.0
  0
LINE
  8
DETAIL
  6
CONTINUOUS
 62
     5
 10
-89.52814799999986
 20
-40.893481018977823
 30
0.0
 11
-89.582257000000013
 21
-40.737519018977828
 31
0.0
  0
LINE
  8
DETAIL
  6
CONTINUOUS
 62
     5
 10
-89.459264999999959
 20
-41.044145018977829
 30
0.0
 11
-89.52814799999986
 21
-40.893481018977823
 31
0.0
  0
LINE
  8
DETAIL
  6
CONTINUOUS
 62
     5
 10
-89.375960999999961
 20
-41.187879018977817
 30
0.0
 11
-89.459264999999959
 21
-41.044145018977829
 31
0.0
  0
LINE
  8
DETAIL
  6
CONTINUOUS
 62
     5
 10
-89.278054999999981
 20
-41.323969018977827
 30
0.0
 11
-89.375960999999961
 21
-41.187879018977817
 31
0.0
  0
LINE
  8
DETAIL
  6
CONTINUOUS
 62
     5
 10
-89.165062000000034
 20
-41.451921018977778
 30
0.0
 11
-89.278054999999981
 21
-41.323969018977827
 31
0.0
  0
LINE
  8
DETAIL
  6
CONTINUOUS
 62
     5
 10
-89.038227000000006
 20
-41.56944001897778
 30
0.0
 11
-89.165062000000034
 21
-41.451921018977778
 31
0.0
  0
LINE
  8
DETAIL
  6
CONTINUOUS
 62
     5
 10
-88.898787999999968
 20
-41.673756018977841
 30
0.0
 11
-89.038227000000006
 21
-41.56944001897778
 31
0.0
  0
LINE
  8
DETAIL
  6
CONTINUOUS
 62
     5
 10
-88.746278999999959
 20
-41.765792018977827
 30
0.0
 11
-88.898787999999968
 21
-41.673756018977841
 31
0.0
  0
LINE
  8
DETAIL
  6
CONTINUOUS
 62
     5
 10
-88.185662999999963
 20
-36.663292018977813
 30
0.0
 11
-87.855184999999892
 21
-36.852631018977767
 31
0.0
  0
LINE
  8
DETAIL
  6
CONTINUOUS
 62
     5
 10
-88.929153999999926
 20
-37.942248018977807
 30
0.0
 11
-88.592415000000059
 21
-38.135090018977792
 31
0.0
  0
LINE
  8
DETAIL
  6
CONTINUOUS
 62
     5
 10
-87.855184999999892
 20
-36.852631018977767
 30
0.0
 11
-87.523819000000003
 21
-37.040312018977772
 31
0.0
  0
LINE
  8
DETAIL
  6
CONTINUOUS
 62
     5
 10
-88.592415000000059
 20
-38.135090018977792
 30
0.0
 11
-88.254685999999978
 21
-38.326327018977793
 31
0.0
  0
LINE
  8
DETAIL
  6
CONTINUOUS
 62
     5
 10
-86.487263999999868
 20
-42.921421018977817
 30
0.0
 11
-84.206043000000122
 21
-43.99954101897783
 31
0.0
  0
LINE
  8
DETAIL
  6
CONTINUOUS
 62
     5
 10
-88.746278999999959
 20
-41.765792018977827
 30
0.0
 11
-86.487263999999868
 21
-42.921421018977817
 31
0.0
  0
LINE
  8
DETAIL
  6
CONTINUOUS
 62
     5
 10
-86.080044000000044
 20
-39.582824018977817
 30
0.0
 11
-88.254685999999978
 21
-38.326327018977793
 31
0.0
  0
LINE
  8
DETAIL
  6
CONTINUOUS
 62
     5
 10
-89.537029999999959
 20
-36.667698018977767
 30
0.0
 11
-89.358324999999923
 21
-36.668621018977831
 31
0.0
  0
LINE
  8
DETAIL
  6
CONTINUOUS
 62
     5
 10
-89.601404999999872
 20
-36.666904018977782
 30
0.0
 11
-89.537029999999959
 21
-36.667698018977767
 31
0.0
  0
LINE
  8
DETAIL
  6
CONTINUOUS
 62
     5
 10
-89.647977999999966
 20
-36.665900018977773
 30
0.0
 11
-89.601404999999872
 21
-36.666904018977782
 31
0.0
  0
LINE
  8
DETAIL
  6
CONTINUOUS
 62
     5
 10
-89.676163000000102
 20
-36.664699018977792
 30
0.0
 11
-89.647977999999966
 21
-36.665900018977773
 31
0.0
  0
LINE
  8
DETAIL
  6
CONTINUOUS
 62
     5
 10
-89.685606000000007
 20
-36.663316018977817
 30
0.0
 11
-89.676163000000102
 21
-36.664699018977792
 31
0.0
  0
LINE
  8
DETAIL
  6
CONTINUOUS
 62
     5
 10
-89.358324999999923
 20
-36.668621018977831
 30
0.0
 11
-88.983646000000135
 21
-36.668273018977793
 31
0.0
  0
LINE
  8
DETAIL
  6
CONTINUOUS
 62
     5
 10
-88.983646000000135
 20
-36.668273018977793
 30
0.0
 11
-88.185662999999963
 21
-36.663316018977817
 31
0.0
  0
LINE
  8
DETAIL
  6
CONTINUOUS
 62
     5
 10
-86.623403999999937
 20
-44.907295018977777
 30
0.0
 11
-84.320214000000064
 21
-46.086052018977803
 31
0.0
  0
LINE
  8
DETAIL
  6
CONTINUOUS
 62
     5
 10
-47.141478000000021
 20
31.587113981022181
 30
0.0
 11
-47.338514999999923
 21
18.500754981022229
 31
0.0
  0
LINE
  8
DETAIL
  6
CONTINUOUS
 62
     5
 10
-47.338514999999923
 20
18.500754981022229
 30
0.0
 11
-47.5
 21
-0.003550018977819
 31
0.0
  0
LINE
  8
DETAIL
  6
CONTINUOUS
 62
     5
 10
-23.0
 20
36.498191981022217
 30
0.0
 11
-23.0
 21
61.39819198102218
 31
0.0
  0
LINE
  8
DETAIL
  6
CONTINUOUS
 62
     5
 10
-20.400000000000091
 20
63.998191981022217
 30
0.0
 11
0.0
 21
63.999999981022214
 31
0.0
  0
ARC
  8
DETAIL
  6
CONTINUOUS
 62
     5
 10
-20.400000000000091
 20
61.39819198102218
 30
0.0
 40
2.6000000000000001
 50
90.0
 51
180.0
  0
LINE
  8
DETAIL
  6
CONTINUOUS
 62
     5
 10
-46.339527999999973
 20
35.547327981022192
 30
0.0
 11
-46.528657000000067
 21
33.030094981022224
 31
0.0
  0
LINE
  8
DETAIL
  6
CONTINUOUS
 62
     5
 10
-46.528657000000067
 20
33.030094981022224
 30
0.0
 11
-47.097868000000069
 21
31.786364981022189
 31
0.0
  0
LINE
  8
DETAIL
  6
CONTINUOUS
 62
     5
 10
-47.113045999999933
 20
31.748358981022189
 30
0.0
 11
-47.097868000000069
 21
31.786364981022189
 31
0.0
  0
LINE
  8
DETAIL
  6
CONTINUOUS
 62
     5
 10
-47.125089000000123
 20
31.709144981022231
 30
0.0
 11
-47.113045999999933
 21
31.748358981022189
 31
0.0
  0
LINE
  8
DETAIL
  6
CONTINUOUS
 62
     5
 10
-47.133884000000073
 20
31.66904198102219
 30
0.0
 11
-47.125089000000123
 21
31.709144981022231
 31
0.0
  0
LINE
  8
DETAIL
  6
CONTINUOUS
 62
     5
 10
-47.139357999999888
 20
31.6283529810222
 30
0.0
 11
-47.133884000000073
 21
31.66904198102219
 31
0.0
  0
LINE
  8
DETAIL
  6
CONTINUOUS
 62
     5
 10
-47.141478000000021
 20
31.587113981022181
 30
0.0
 11
-47.139357999999888
 21
31.6283529810222
 31
0.0
  0
LINE
  8
DETAIL
  6
CONTINUOUS
 62
     5
 10
-47.139370999999983
 20
31.587359981022189
 30
0.0
 11
-47.141478000000021
 21
31.587113981022181
 31
0.0
  0
LINE
  8
DETAIL
  6
CONTINUOUS
 62
     5
 10
-46.336631000000118
 20
35.606899981022202
 30
0.0
 11
-46.339528999999857
 21
35.547279981022207
 31
0.0
  0
LINE
  8
DETAIL
  6
CONTINUOUS
 62
     5
 10
-46.330430999999862
 20
35.663306981022217
 30
0.0
 11
-46.336631000000118
 21
35.606899981022202
 31
0.0
  0
LINE
  8
DETAIL
  6
CONTINUOUS
 62
     5
 10
-46.320169999999962
 20
35.72245398102217
 30
0.0
 11
-46.330430999999862
 21
35.663306981022217
 31
0.0
  0
LINE
  8
DETAIL
  6
CONTINUOUS
 62
     5
 10
-46.304129999999986
 20
35.787582981022183
 30
0.0
 11
-46.320169999999962
 21
35.72245398102217
 31
0.0
  0
LINE
  8
DETAIL
  6
CONTINUOUS
 62
     5
 10
-46.286039000000073
 20
35.84351098102217
 30
0.0
 11
-46.304129999999986
 21
35.787582981022183
 31
0.0
  0
LINE
  8
DETAIL
  6
CONTINUOUS
 62
     5
 10
-46.339531000000079
 20
35.547184981022212
 30
0.0
 11
-46.338616000000002
 21
35.558805981022203
 31
0.0
  0
LINE
  8
DETAIL
  6
CONTINUOUS
 62
     5
 10
-45.37349399999993
 20
36.496432981022217
 30
0.0
 11
0.0
 21
36.499999981022214
 31
0.0
  0
LINE
  8
DETAIL
  6
CONTINUOUS
 62
     5
 10
-46.25880600000005
 20
35.911154981022207
 30
0.0
 11
-46.286031000000087
 21
35.843514981022217
 31
0.0
  0
LINE
  8
DETAIL
  6
CONTINUOUS
 62
     5
 10
-46.210786000000112
 20
36.005535981022213
 30
0.0
 11
-46.25880600000005
 21
35.911154981022207
 31
0.0
  0
LINE
  8
DETAIL
  6
CONTINUOUS
 62
     5
 10
-46.153331999999857
 20
36.094091981022189
 30
0.0
 11
-46.210786000000112
 21
36.005535981022213
 31
0.0
  0
LINE
  8
DETAIL
  6
CONTINUOUS
 62
     5
 10
-46.087121999999901
 20
36.17584898102217
 30
0.0
 11
-46.153331999999857
 21
36.094091981022189
 31
0.0
  0
LINE
  8
DETAIL
  6
CONTINUOUS
 62
     5
 10
-46.012901999999933
 20
36.249871981022167
 30
0.0
 11
-46.087121999999901
 21
36.17584898102217
 31
0.0
  0
LINE
  8
DETAIL
  6
CONTINUOUS
 62
     5
 10
-45.931547000000137
 20
36.315357981022203
 30
0.0
 11
-46.012901999999933
 21
36.249871981022167
 31
0.0
  0
LINE
  8
DETAIL
  6
CONTINUOUS
 62
     5
 10
-45.843973999999903
 20
36.371556981022202
 30
0.0
 11
-45.931547000000137
 21
36.315357981022203
 31
0.0
  0
LINE
  8
DETAIL
  6
CONTINUOUS
 62
     5
 10
-45.751225999999853
 20
36.417870981022183
 30
0.0
 11
-45.843973999999903
 21
36.371556981022202
 31
0.0
  0
LINE
  8
DETAIL
  6
CONTINUOUS
 62
     5
 10
-45.654330999999956
 20
36.453805981022192
 30
0.0
 11
-45.751225999999853
 21
36.417870981022183
 31
0.0
  0
LINE
  8
DETAIL
  6
CONTINUOUS
 62
     5
 10
-45.554349000000002
 20
36.47898598102222
 30
0.0
 11
-45.654330999999956
 21
36.453805981022192
 31
0.0
  0
LINE
  8
DETAIL
  6
CONTINUOUS
 62
     5
 10
-45.452359999999999
 20
36.493144981022233
 30
0.0
 11
-45.554349000000002
 21
36.47898598102222
 31
0.0
  0
LINE
  8
DETAIL
  6
CONTINUOUS
 62
     5
 10
-45.37349399999993
 20
36.496432981022217
 30
0.0
 11
-45.452359999999999
 21
36.493144981022233
 31
0.0
  0
LINE
  8
OUTLINE
  6
CONTINUOUS
 62
     3
 10
-74.880498000000003
 20
-49.999976018977797
 30
0.0
 11
74.880498000000003
 21
-49.999976018977797
 31
0.0
  0
LINE
  8
OUTLINE
  6
CONTINUOUS
 62
     3
 10
89.702870999999959
 20
-0.0000000189778007
 30
0.0
 11
-89.702870999999959
 21
-0.0000000189778007
 31
0.0
  0
LINE
  8
OUTLINE
  6
CONTINUOUS
 62
     3
 10
90.002858999999944
 20
-0.3026180189777961
 30
0.0
 11
89.653777999999861
 21
-40.310497018977792
 31
0.0
  0
ARC
  8
OUTLINE
  6
CONTINUOUS
 62
     3
 10
89.702860999999984
 20
-0.300000018977812
 30
0.0
 40
0.3
 50
359.50001600000178
 51
90.0
  0
LINE
  8
OUTLINE
  6
CONTINUOUS
 62
     3
 10
79.60721599999988
 20
-48.216849018977832
 30
0.0
 11
81.980659999999929
 21
-47.189598018977783
 31
0.0
  0
LINE
  8
OUTLINE
  6
CONTINUOUS
 62
     3
 10
86.623403999999937
 20
-44.907295018977777
 30
0.0
 11
88.73061400000006
 21
-43.744479018977813
 31
0.0
  0
LINE
  8
OUTLINE
  6
CONTINUOUS
 62
     3
 10
89.637248
 20
-42.197490018977817
 30
0.0
 11
89.653605999999868
 21
-40.323037018977793
 31
0.0
  0
ARC
  8
OUTLINE
  6
CONTINUOUS
 62
     3
 10
87.837316000000101
 20
-42.181783018977796
 30
0.0
 40
1.8
 50
299.7539449999951
 51
359.50000000000188
  0
LINE
  8
OUTLINE
  6
CONTINUOUS
 62
     3
 10
84.320213999999851
 20
-46.086052018977803
 30
0.0
 11
86.623403999999937
 21
-44.907295018977777
 31
0.0
  0
LINE
  8
OUTLINE
  6
CONTINUOUS
 62
     3
 10
81.980659999999929
 20
-47.189598018977783
 30
0.0
 11
84.320213999999851
 21
-46.086052018977803
 31
0.0
  0
LINE
  8
OUTLINE
  6
CONTINUOUS
 62
     3
 10
77.202350999999908
 20
-49.166718018977797
 30
0.0
 11
79.60721599999988
 21
-48.216849018977832
 31
0.0
  0
LINE
  8
OUTLINE
  6
CONTINUOUS
 62
     3
 10
74.880498999999872
 20
-49.999976018977797
 30
0.0
 11
77.202350999999908
 21
-49.166718018977797
 31
0.0
  0
LINE
  8
OUTLINE
  6
CONTINUOUS
 62
     3
 10
-89.65375399999995
 20
-40.312928018977793
 30
0.0
 11
-90.002858999999944
 21
-0.3026180189777961
 31
0.0
  0
ARC
  8
OUTLINE
  6
CONTINUOUS
 62
     3
 10
-89.702860999999984
 20
-0.300000018977812
 30
0.0
 40
0.3
 50
90.0
 51
180.49998399999819
  0
LINE
  8
OUTLINE
  6
CONTINUOUS
 62
     3
 10
-89.997154000000137
 20
-0.3028330189777648
 30
0.0
 11
-90.002858999999944
 21
-0.3026180189777961
 31
0.0
  0
LINE
  8
OUTLINE
  6
CONTINUOUS
 62
     3
 10
-84.320214000000064
 20
-46.086052018977803
 30
0.0
 11
-81.980659999999929
 21
-47.189598018977783
 31
0.0
  0
LINE
  8
OUTLINE
  6
CONTINUOUS
 62
     3
 10
-77.202350999999908
 20
-49.166718018977797
 30
0.0
 11
-74.880498999999872
 21
-49.999976018977797
 31
0.0
  0
LINE
  8
OUTLINE
  6
CONTINUOUS
 62
     3
 10
-79.60721599999988
 20
-48.216849018977832
 30
0.0
 11
-77.202350999999908
 21
-49.166718018977797
 31
0.0
  0
LINE
  8
OUTLINE
  6
CONTINUOUS
 62
     3
 10
-81.980659999999929
 20
-47.189598018977783
 30
0.0
 11
-79.60721599999988
 21
-48.216849018977832
 31
0.0
  0
LINE
  8
OUTLINE
  6
CONTINUOUS
 62
     3
 10
-88.73061400000006
 20
-43.744479018977813
 30
0.0
 11
-86.623403999999937
 21
-44.907295018977777
 31
0.0
  0
ARC
  8
OUTLINE
  6
CONTINUOUS
 62
     3
 10
-87.837316000000101
 20
-42.181783018977796
 30
0.0
 40
1.8
 50
180.4999999999981
 51
240.24605500000499
  0
LINE
  8
OUTLINE
  6
CONTINUOUS
 62
     3
 10
-89.637248
 20
-42.197490018977817
 30
0.0
 11
-89.652912000000015
 21
-40.402583018977793
 31
0.0
  0
LINE
  8
OUTLINE
  6
CONTINUOUS
 62
     3
 10
-86.623403999999937
 20
-44.907295018977777
 30
0.0
 11
-84.320214000000064
 21
-46.086052018977803
 31
0.0
  0
LINE
  8
OUTLINE
  6
CONTINUOUS
 62
     3
 10
-47.141478000000021
 20
31.587113981022181
 30
0.0
 11
-47.338514999999923
 21
18.500754981022229
 31
0.0
  0
LINE
  8
OUTLINE
  6
CONTINUOUS
 62
     3
 10
-47.338514999999923
 20
18.500754981022229
 30
0.0
 11
-47.5
 21
-0.003550018977819
 31
0.0
  0
LINE
  8
OUTLINE
  6
CONTINUOUS
 62
     3
 10
-23.0
 20
36.498191981022217
 30
0.0
 11
-23.0
 21
61.39819198102218
 31
0.0
  0
LINE
  8
OUTLINE
  6
CONTINUOUS
 62
     3
 10
-20.400000000000091
 20
63.998191981022217
 30
0.0
 11
0.0
 21
63.999999981022214
 31
0.0
  0
ARC
  8
OUTLINE
  6
CONTINUOUS
 62
     3
 10
-20.400000000000091
 20
61.39819198102218
 30
0.0
 40
2.6000000000000001
 50
90.0
 51
180.0
  0
LINE
  8
OUTLINE
  6
CONTINUOUS
 62
     3
 10
-46.339527999999973
 20
35.547327981022192
 30
0.0
 11
-46.528657000000067
 21
33.030094981022224
 31
0.0
  0
LINE
  8
OUTLINE
  6
CONTINUOUS
 62
     3
 10
-46.528657000000067
 20
33.030094981022224
 30
0.0
 11
-47.097868000000069
 21
31.786364981022189
 31
0.0
  0
LINE
  8
OUTLINE
  6
CONTINUOUS
 62
     3
 10
-47.113045999999933
 20
31.748358981022189
 30
0.0
 11
-47.097868000000069
 21
31.786364981022189
 31
0.0
  0
LINE
  8
OUTLINE
  6
CONTINUOUS
 62
     3
 10
-47.125089000000123
 20
31.709144981022231
 30
0.0
 11
-47.113045999999933
 21
31.748358981022189
 31
0.0
  0
LINE
  8
OUTLINE
  6
CONTINUOUS
 62
     3
 10
-47.133884000000073
 20
31.66904198102219
 30
0.0
 11
-47.125089000000123
 21
31.709144981022231
 31
0.0
  0
LINE
  8
OUTLINE
  6
CONTINUOUS
 62
     3
 10
-47.139357999999888
 20
31.6283529810222
 30
0.0
 11
-47.133884000000073
 21
31.66904198102219
 31
0.0
  0
LINE
  8
OUTLINE
  6
CONTINUOUS
 62
     3
 10
-47.141478000000021
 20
31.587113981022181
 30
0.0
 11
-47.139357999999888
 21
31.6283529810222
 31
0.0
  0
LINE
  8
OUTLINE
  6
CONTINUOUS
 62
     3
 10
-47.139370999999983
 20
31.587359981022189
 30
0.0
 11
-47.141478000000021
 21
31.587113981022181
 31
0.0
  0
LINE
  8
OUTLINE
  6
CONTINUOUS
 62
     3
 10
-46.336631000000118
 20
35.606899981022202
 30
0.0
 11
-46.339528999999857
 21
35.547279981022207
 31
0.0
  0
LINE
  8
OUTLINE
  6
CONTINUOUS
 62
     3
 10
-46.330430999999862
 20
35.663306981022217
 30
0.0
 11
-46.336631000000118
 21
35.606899981022202
 31
0.0
  0
LINE
  8
OUTLINE
  6
CONTINUOUS
 62
     3
 10
-46.320169999999962
 20
35.72245398102217
 30
0.0
 11
-46.330430999999862
 21
35.663306981022217
 31
0.0
  0
LINE
  8
OUTLINE
  6
CONTINUOUS
 62
     3
 10
-46.304129999999986
 20
35.787582981022183
 30
0.0
 11
-46.320169999999962
 21
35.72245398102217
 31
0.0
  0
LINE
  8
OUTLINE
  6
CONTINUOUS
 62
     3
 10
-46.286039000000073
 20
35.84351098102217
 30
0.0
 11
-46.304129999999986
 21
35.787582981022183
 31
0.0
  0
LINE
  8
OUTLINE
  6
CONTINUOUS
 62
     3
 10
-46.339531000000079
 20
35.547184981022212
 30
0.0
 11
-46.338616000000002
 21
35.558805981022203
 31
0.0
  0
LINE
  8
OUTLINE
  6
CONTINUOUS
 62
     3
 10
-45.37349399999993
 20
36.496432981022217
 30
0.0
 11
0.0
 21
36.499999981022214
 31
0.0
  0
LINE
  8
OUTLINE
  6
CONTINUOUS
 62
     3
 10
-46.25880600000005
 20
35.911154981022207
 30
0.0
 11
-46.286031000000087
 21
35.843514981022217
 31
0.0
  0
LINE
  8
OUTLINE
  6
CONTINUOUS
 62
     3
 10
-46.210786000000112
 20
36.005535981022213
 30
0.0
 11
-46.25880600000005
 21
35.911154981022207
 31
0.0
  0
LINE
  8
OUTLINE
  6
CONTINUOUS
 62
     3
 10
-46.153331999999857
 20
36.094091981022189
 30
0.0
 11
-46.210786000000112
 21
36.005535981022213
 31
0.0
  0
LINE
  8
OUTLINE
  6
CONTINUOUS
 62
     3
 10
-46.087121999999901
 20
36.17584898102217
 30
0.0
 11
-46.153331999999857
 21
36.094091981022189
 31
0.0
  0
LINE
  8
OUTLINE
  6
CONTINUOUS
 62
     3
 10
-46.012901999999933
 20
36.249871981022167
 30
0.0
 11
-46.087121999999901
 21
36.17584898102217
 31
0.0
  0
LINE
  8
OUTLINE
  6
CONTINUOUS
 62
     3
 10
-45.931547000000137
 20
36.315357981022203
 30
0.0
 11
-46.012901999999933
 21
36.249871981022167
 31
0.0
  0
LINE
  8
OUTLINE
  6
CONTINUOUS
 62
     3
 10
-45.843973999999903
 20
36.371556981022202
 30
0.0
 11
-45.931547000000137
 21
36.315357981022203
 31
0.0
  0
LINE
  8
OUTLINE
  6
CONTINUOUS
 62
     3
 10
-45.751225999999853
 20
36.417870981022183
 30
0.0
 11
-45.843973999999903
 21
36.371556981022202
 31
0.0
  0
LINE
  8
OUTLINE
  6
CONTINUOUS
 62
     3
 10
-45.654330999999956
 20
36.453805981022192
 30
0.0
 11
-45.751225999999853
 21
36.417870981022183
 31
0.0
  0
LINE
  8
OUTLINE
  6
CONTINUOUS
 62
     3
 10
-45.554349000000002
 20
36.47898598102222
 30
0.0
 11
-45.654330999999956
 21
36.453805981022192
 31
0.0
  0
LINE
  8
OUTLINE
  6
CONTINUOUS
 62
     3
 10
-45.452359999999999
 20
36.493144981022233
 30
0.0
 11
-45.554349000000002
 21
36.47898598102222
 31
0.0
  0
LINE
  8
OUTLINE
  6
CONTINUOUS
 62
     3
 10
-45.37349399999993
 20
36.496432981022217
 30
0.0
 11
-45.452359999999999
 21
36.493144981022233
 31
0.0
  0
LINE
  8
NOTE
  6
CONTINUOUS
 62
     4
 10
32.699990000000071
 20
-19.9999990189778
 30
0.0
 11
32.699990000000071
 21
20.0000009810222
 31
0.0
  0
LINE
  8
NOTE
  6
CONTINUOUS
 62
     4
 10
-80.0
 20
-20.000002018977799
 30
0.0
 11
-80.0
 21
19.999997981022201
 31
0.0
  0
LINE
  8
NOTE
  6
CONTINUOUS
 62
     4
 10
-100.0
 20
-0.0000020189777956
 30
0.0
 11
-60.0
 21
-0.0000020189777956
 31
0.0
  0
LINE
  8
NOTE
  6
CONTINUOUS
 62
     4
 10
80.0
 20
-20.000002018977799
 30
0.0
 11
80.0
 21
19.999997981022201
 31
0.0
  0
LINE
  8
NOTE
  6
CONTINUOUS
 62
     4
 10
60.0
 20
-0.0000020189777956
 30
0.0
 11
100.0
 21
-0.0000020189777956
 31
0.0
  0
LINE
  8
SIZE
  6
CONTINUOUS
 62
    30
 10
-89.997154000000137
 20
19.697166981022239
 30
0.0
 11
-89.997154000000137
 21
761.17247672472672
 31
0.0
  0
LINE
  8
SIZE
  6
CONTINUOUS
 62
    30
 10
90.002858999999944
 20
19.6973819810222
 30
0.0
 11
90.002858999999944
 21
761.17247672472672
 31
0.0
  0
LINE
  8
SIZE
  6
CONTINUOUS
 62
    30
 10
-101.99715400000009
 20
741.17247672472672
 30
0.0
 11
-113.99715400000009
 21
741.17247672472672
 31
0.0
  0
LINE
  8
SIZE
  6
CONTINUOUS
 62
    30
 10
102.0028589999999
 20
741.17247672472672
 30
0.0
 11
114.0028590000002
 21
741.17247672472672
 31
0.0
  0
LINE
  8
SIZE
  6
CONTINUOUS
 62
    30
 10
-89.997154000000137
 20
741.17247672472672
 30
0.0
 11
90.002858999999944
 21
741.17247672472672
 31
0.0
  0
CIRCLE
  8
SIZE
  6
CONTINUOUS
 62
    30
 10
-89.997154000000137
 20
741.17247672472672
 30
0.0
 40
6.0
  0
LINE
  8
SIZE
  6
CONTINUOUS
 62
    30
 10
-89.997154000000137
 20
741.17247672472672
 30
0.0
 11
-101.99715400000009
 21
741.17247672472672
 31
0.0
  0
CIRCLE
  8
SIZE
  6
CONTINUOUS
 62
    30
 10
90.002858999999944
 20
741.17247672472672
 30
0.0
 40
6.0
  0
LINE
  8
SIZE
  6
CONTINUOUS
 62
    30
 10
90.002858999999944
 20
741.17247672472672
 30
0.0
 11
102.0028589999999
 21
741.17247672472672
 31
0.0
  0
TEXT
  8
SIZE
  6
CONTINUOUS
 62
    30
 10
-68.568575571428596
 20
766.17247672472672
 30
0.0
 40
64.0
  1
180
 41
0.9
 72
     1
 11
0.0028529999999591
 21
766.17247672472672
 31
0.0
  0
POINT
  8
DEFPOINTS
  6
CONTINUOUS
 62
    30
 10
-89.997154000000137
 20
-0.3028330189777648
 30
0.0
  0
POINT
  8
DEFPOINTS
  6
CONTINUOUS
 62
    30
 10
90.002858999999944
 20
-0.3026180189777961
 30
0.0
  0
POINT
  8
DEFPOINTS
  6
CONTINUOUS
 62
    30
 10
90.002858999999944
 20
741.17247672472672
 30
0.0
  0
LINE
  8
SIZE
  6
CONTINUOUS
 62
    30
 10
143.75393700000001
 20
0.0000029810221918
 30
0.0
 11
410.44417199999998
 21
0.0000029810221918
 31
0.0
  0
LINE
  8
SIZE
  6
CONTINUOUS
 62
    30
 10
85.568653137549063
 20
-49.999976018977797
 30
0.0
 11
410.44417199999998
 21
-49.999976018977797
 31
0.0
  0
LINE
  8
SIZE
  6
CONTINUOUS
 62
    30
 10
390.44417199999998
 20
12.00000298102219
 30
0.0
 11
390.44417199999998
 21
24.000002981022192
 31
0.0
  0
LINE
  8
SIZE
  6
CONTINUOUS
 62
    30
 10
390.44417199999998
 20
-61.999976018977797
 30
0.0
 11
390.44417199999998
 21
-217.2571190189777
 31
0.0
  0
LINE
  8
SIZE
  6
CONTINUOUS
 62
    30
 10
390.44417199999998
 20
0.0000029810221918
 30
0.0
 11
390.44417199999998
 21
-49.999976018977797
 31
0.0
  0
CIRCLE
  8
SIZE
  6
CONTINUOUS
 62
    30
 10
390.44417199999998
 20
0.0000029810221918
 30
0.0
 40
6.0
  0
LINE
  8
SIZE
  6
CONTINUOUS
 62
    30
 10
390.44417199999998
 20
0.0000029810221918
 30
0.0
 11
390.44417199999998
 21
12.00000298102219
 31
0.0
  0
CIRCLE
  8
SIZE
  6
CONTINUOUS
 62
    30
 10
390.44417199999998
 20
-49.999976018977797
 30
0.0
 40
6.0
  0
LINE
  8
SIZE
  6
CONTINUOUS
 62
    30
 10
390.44417199999998
 20
-49.999976018977797
 30
0.0
 11
390.44417199999998
 21
-61.999976018977797
 31
0.0
  0
TEXT
  8
SIZE
  6
CONTINUOUS
 62
    30
 10
365.44417199999998
 20
-192.25711844754929
 30
0.0
 40
64.0
  1
50
 50
90.0
 41
0.9
 72
     1
 11
365.44417199999998
 21
-145.6285470189778
 31
0.0
  0
POINT
  8
DEFPOINTS
  6
CONTINUOUS
 62
    30
 10
123.75393699999999
 20
0.0000029810221918
 30
0.0
  0
POINT
  8
DEFPOINTS
  6
CONTINUOUS
 62
    30
 10
0.0
 20
-49.999976018977797
 30
0.0
  0
POINT
  8
DEFPOINTS
  6
CONTINUOUS
 62
    30
 10
390.44417199999998
 20
-49.999976018977797
 30
0.0
  0
LINE
  8
SIZE
  6
CONTINUOUS
 62
    30
 10
-80.0
 20
39.999997981022197
 30
0.0
 11
-80.0
 21
638.97383772472665
 31
0.0
  0
LINE
  8
SIZE
  6
CONTINUOUS
 62
    30
 10
80.0
 20
39.999997981022197
 30
0.0
 11
80.0
 21
638.97383772472665
 31
0.0
  0
LINE
  8
SIZE
  6
CONTINUOUS
 62
    30
 10
-92.0
 20
618.97383772472665
 30
0.0
 11
-104.0
 21
618.97383772472665
 31
0.0
  0
LINE
  8
SIZE
  6
CONTINUOUS
 62
    30
 10
92.0
 20
618.97383772472665
 30
0.0
 11
104.0
 21
618.97383772472665
 31
0.0
  0
LINE
  8
SIZE
  6
CONTINUOUS
 62
    30
 10
-80.0
 20
618.97383772472665
 30
0.0
 11
80.0
 21
618.97383772472665
 31
0.0
  0
CIRCLE
  8
SIZE
  6
CONTINUOUS
 62
    30
 10
-80.0
 20
618.97383772472665
 30
0.0
 40
6.0
  0
LINE
  8
SIZE
  6
CONTINUOUS
 62
    30
 10
-80.0
 20
618.97383772472665
 30
0.0
 11
-92.0
 21
618.97383772472665
 31
0.0
  0
CIRCLE
  8
SIZE
  6
CONTINUOUS
 62
    30
 10
80.0
 20
618.97383772472665
 30
0.0
 40
6.0
  0
LINE
  8
SIZE
  6
CONTINUOUS
 62
    30
 10
80.0
 20
618.97383772472665
 30
0.0
 11
92.0
 21
618.97383772472665
 31
0.0
  0
TEXT
  8
SIZE
  6
CONTINUOUS
 62
    30
 10
-68.571428571428555
 20
643.97383772472665
 30
0.0
 40
64.0
  1
160
 41
0.9
 72
     1
 11
0.0
 21
643.97383772472665
 31
0.0
  0
POINT
  8
DEFPOINTS
  6
CONTINUOUS
 62
    30
 10
-80.0
 20
19.999997981022201
 30
0.0
  0
POINT
  8
DEFPOINTS
  6
CONTINUOUS
 62
    30
 10
80.0
 20
19.999997981022201
 30
0.0
  0
POINT
  8
DEFPOINTS
  6
CONTINUOUS
 62
    30
 10
80.0
 20
618.97383772472665
 30
0.0
  0
LINE
  8
DETAIL
  6
CONTINUOUS
 62
     5
 10
47.141478000000021
 20
31.587113981022181
 30
0.0
 11
47.338514999999923
 21
18.500754981022229
 31
0.0
  0
LINE
  8
DETAIL
  6
CONTINUOUS
 62
     5
 10
47.338514999999923
 20
18.500754981022229
 30
0.0
 11
47.5
 21
-0.003550018977819
 31
0.0
  0
LINE
  8
DETAIL
  6
CONTINUOUS
 62
     5
 10
23.0
 20
36.498191981022217
 30
0.0
 11
23.0
 21
61.39819198102218
 31
0.0
  0
LINE
  8
DETAIL
  6
CONTINUOUS
 62
     5
 10
20.400000000000091
 20
63.998191981022217
 30
0.0
 11
0.0
 21
63.999999981022214
 31
0.0
  0
ARC
  8
DETAIL
  6
CONTINUOUS
 62
     5
 10
20.400000000000091
 20
61.39819198102218
 30
0.0
 40
2.6000000000000001
 50
0.0
 51
90.0
  0
LINE
  8
DETAIL
  6
CONTINUOUS
 62
     5
 10
46.339527999999973
 20
35.547327981022192
 30
0.0
 11
46.528656999999853
 21
33.030094981022224
 31
0.0
  0
LINE
  8
DETAIL
  6
CONTINUOUS
 62
     5
 10
46.528656999999853
 20
33.030094981022224
 30
0.0
 11
47.097867999999828
 21
31.786364981022189
 31
0.0
  0
LINE
  8
DETAIL
  6
CONTINUOUS
 62
     5
 10
47.113045999999933
 20
31.748358981022189
 30
0.0
 11
47.097867999999828
 21
31.786364981022189
 31
0.0
  0
LINE
  8
DETAIL
  6
CONTINUOUS
 62
     5
 10
47.125089000000123
 20
31.709144981022231
 30
0.0
 11
47.113045999999933
 21
31.748358981022189
 31
0.0
  0
LINE
  8
DETAIL
  6
CONTINUOUS
 62
     5
 10
47.133883999999853
 20
31.66904198102219
 30
0.0
 11
47.125089000000123
 21
31.709144981022231
 31
0.0
  0
LINE
  8
DETAIL
  6
CONTINUOUS
 62
     5
 10
47.139357999999888
 20
31.6283529810222
 30
0.0
 11
47.133883999999853
 21
31.66904198102219
 31
0.0
  0
LINE
  8
DETAIL
  6
CONTINUOUS
 62
     5
 10
47.141478000000021
 20
31.587113981022181
 30
0.0
 11
47.139357999999888
 21
31.6283529810222
 31
0.0
  0
LINE
  8
DETAIL
  6
CONTINUOUS
 62
     5
 10
47.139370999999983
 20
31.587359981022189
 30
0.0
 11
47.141478000000021
 21
31.587113981022181
 31
0.0
  0
LINE
  8
DETAIL
  6
CONTINUOUS
 62
     5
 10
46.336631000000118
 20
35.606899981022202
 30
0.0
 11
46.339528999999857
 21
35.547279981022207
 31
0.0
  0
LINE
  8
DETAIL
  6
CONTINUOUS
 62
     5
 10
46.330430999999862
 20
35.663306981022217
 30
0.0
 11
46.336631000000118
 21
35.606899981022202
 31
0.0
  0
LINE
  8
DETAIL
  6
CONTINUOUS
 62
     5
 10
46.320169999999962
 20
35.72245398102217
 30
0.0
 11
46.330430999999862
 21
35.663306981022217
 31
0.0
  0
LINE
  8
DETAIL
  6
CONTINUOUS
 62
     5
 10
46.304129999999986
 20
35.787582981022183
 30
0.0
 11
46.320169999999962
 21
35.72245398102217
 31
0.0
  0
LINE
  8
DETAIL
  6
CONTINUOUS
 62
     5
 10
46.286039000000073
 20
35.84351098102217
 30
0.0
 11
46.304129999999986
 21
35.787582981022183
 31
0.0
  0
LINE
  8
DETAIL
  6
CONTINUOUS
 62
     5
 10
46.339531000000079
 20
35.547184981022212
 30
0.0
 11
46.338616000000002
 21
35.558805981022203
 31
0.0
  0
LINE
  8
DETAIL
  6
CONTINUOUS
 62
     5
 10
45.37349399999993
 20
36.496432981022217
 30
0.0
 11
0.0
 21
36.499999981022214
 31
0.0
  0
LINE
  8
DETAIL
  6
CONTINUOUS
 62
     5
 10
46.25880600000005
 20
35.911154981022207
 30
0.0
 11
46.286031000000087
 21
35.843514981022217
 31
0.0
  0
LINE
  8
DETAIL
  6
CONTINUOUS
 62
     5
 10
46.210786000000112
 20
36.005535981022213
 30
0.0
 11
46.25880600000005
 21
35.911154981022207
 31
0.0
  0
LINE
  8
DETAIL
  6
CONTINUOUS
 62
     5
 10
46.153331999999857
 20
36.094091981022189
 30
0.0
 11
46.210786000000112
 21
36.005535981022213
 31
0.0
  0
LINE
  8
DETAIL
  6
CONTINUOUS
 62
     5
 10
46.087121999999901
 20
36.17584898102217
 30
0.0
 11
46.153331999999857
 21
36.094091981022189
 31
0.0
  0
LINE
  8
DETAIL
  6
CONTINUOUS
 62
     5
 10
46.012901999999933
 20
36.249871981022167
 30
0.0
 11
46.087121999999901
 21
36.17584898102217
 31
0.0
  0
LINE
  8
DETAIL
  6
CONTINUOUS
 62
     5
 10
45.931547000000137
 20
36.315357981022203
 30
0.0
 11
46.012901999999933
 21
36.249871981022167
 31
0.0
  0
LINE
  8
DETAIL
  6
CONTINUOUS
 62
     5
 10
45.843973999999903
 20
36.371556981022202
 30
0.0
 11
45.931547000000137
 21
36.315357981022203
 31
0.0
  0
LINE
  8
DETAIL
  6
CONTINUOUS
 62
     5
 10
45.751225999999853
 20
36.417870981022183
 30
0.0
 11
45.843973999999903
 21
36.371556981022202
 31
0.0
  0
LINE
  8
DETAIL
  6
CONTINUOUS
 62
     5
 10
45.654330999999956
 20
36.453805981022192
 30
0.0
 11
45.751225999999853
 21
36.417870981022183
 31
0.0
  0
LINE
  8
DETAIL
  6
CONTINUOUS
 62
     5
 10
45.554349000000002
 20
36.47898598102222
 30
0.0
 11
45.654330999999956
 21
36.453805981022192
 31
0.0
  0
LINE
  8
DETAIL
  6
CONTINUOUS
 62
     5
 10
45.452359999999999
 20
36.493144981022233
 30
0.0
 11
45.554349000000002
 21
36.47898598102222
 31
0.0
  0
LINE
  8
DETAIL
  6
CONTINUOUS
 62
     5
 10
45.37349399999993
 20
36.496432981022217
 30
0.0
 11
45.452359999999999
 21
36.493144981022233
 31
0.0
  0
LINE
  8
OUTLINE
  6
CONTINUOUS
 62
     3
 10
47.141478000000021
 20
31.587113981022181
 30
0.0
 11
47.338514999999923
 21
18.500754981022229
 31
0.0
  0
LINE
  8
OUTLINE
  6
CONTINUOUS
 62
     3
 10
47.338514999999923
 20
18.500754981022229
 30
0.0
 11
47.5
 21
-0.003550018977819
 31
0.0
  0
LINE
  8
OUTLINE
  6
CONTINUOUS
 62
     3
 10
23.0
 20
36.498191981022217
 30
0.0
 11
23.0
 21
61.39819198102218
 31
0.0
  0
LINE
  8
OUTLINE
  6
CONTINUOUS
 62
     3
 10
20.400000000000091
 20
63.998191981022217
 30
0.0
 11
0.0
 21
63.999999981022214
 31
0.0
  0
ARC
  8
OUTLINE
  6
CONTINUOUS
 62
     3
 10
20.400000000000091
 20
61.39819198102218
 30
0.0
 40
2.6000000000000001
 50
0.0
 51
90.0
  0
LINE
  8
OUTLINE
  6
CONTINUOUS
 62
     3
 10
46.339527999999973
 20
35.547327981022192
 30
0.0
 11
46.528656999999853
 21
33.030094981022224
 31
0.0
  0
LINE
  8
OUTLINE
  6
CONTINUOUS
 62
     3
 10
46.528656999999853
 20
33.030094981022224
 30
0.0
 11
47.097867999999828
 21
31.786364981022189
 31
0.0
  0
LINE
  8
OUTLINE
  6
CONTINUOUS
 62
     3
 10
47.113045999999933
 20
31.748358981022189
 30
0.0
 11
47.097867999999828
 21
31.786364981022189
 31
0.0
  0
LINE
  8
OUTLINE
  6
CONTINUOUS
 62
     3
 10
47.125089000000123
 20
31.709144981022231
 30
0.0
 11
47.113045999999933
 21
31.748358981022189
 31
0.0
  0
LINE
  8
OUTLINE
  6
CONTINUOUS
 62
     3
 10
47.133883999999853
 20
31.66904198102219
 30
0.0
 11
47.125089000000123
 21
31.709144981022231
 31
0.0
  0
LINE
  8
OUTLINE
  6
CONTINUOUS
 62
     3
 10
47.139357999999888
 20
31.6283529810222
 30
0.0
 11
47.133883999999853
 21
31.66904198102219
 31
0.0
  0
LINE
  8
OUTLINE
  6
CONTINUOUS
 62
     3
 10
47.141478000000021
 20
31.587113981022181
 30
0.0
 11
47.139357999999888
 21
31.6283529810222
 31
0.0
  0
LINE
  8
OUTLINE
  6
CONTINUOUS
 62
     3
 10
47.139370999999983
 20
31.587359981022189
 30
0.0
 11
47.141478000000021
 21
31.587113981022181
 31
0.0
  0
LINE
  8
OUTLINE
  6
CONTINUOUS
 62
     3
 10
46.336631000000118
 20
35.606899981022202
 30
0.0
 11
46.339528999999857
 21
35.547279981022207
 31
0.0
  0
LINE
  8
OUTLINE
  6
CONTINUOUS
 62
     3
 10
46.330430999999862
 20
35.663306981022217
 30
0.0
 11
46.336631000000118
 21
35.606899981022202
 31
0.0
  0
LINE
  8
OUTLINE
  6
CONTINUOUS
 62
     3
 10
46.320169999999962
 20
35.72245398102217
 30
0.0
 11
46.330430999999862
 21
35.663306981022217
 31
0.0
  0
LINE
  8
OUTLINE
  6
CONTINUOUS
 62
     3
 10
46.304129999999986
 20
35.787582981022183
 30
0.0
 11
46.320169999999962
 21
35.72245398102217
 31
0.0
  0
LINE
  8
OUTLINE
  6
CONTINUOUS
 62
     3
 10
46.286039000000073
 20
35.84351098102217
 30
0.0
 11
46.304129999999986
 21
35.787582981022183
 31
0.0
  0
LINE
  8
OUTLINE
  6
CONTINUOUS
 62
     3
 10
46.339531000000079
 20
35.547184981022212
 30
0.0
 11
46.338616000000002
 21
35.558805981022203
 31
0.0
  0
LINE
  8
OUTLINE
  6
CONTINUOUS
 62
     3
 10
45.37349399999993
 20
36.496432981022217
 30
0.0
 11
0.0
 21
36.499999981022214
 31
0.0
  0
LINE
  8
OUTLINE
  6
CONTINUOUS
 62
     3
 10
46.25880600000005
 20
35.911154981022207
 30
0.0
 11
46.286031000000087
 21
35.843514981022217
 31
0.0
  0
LINE
  8
OUTLINE
  6
CONTINUOUS
 62
     3
 10
46.210786000000112
 20
36.005535981022213
 30
0.0
 11
46.25880600000005
 21
35.911154981022207
 31
0.0
  0
LINE
  8
OUTLINE
  6
CONTINUOUS
 62
     3
 10
46.153331999999857
 20
36.094091981022189
 30
0.0
 11
46.210786000000112
 21
36.005535981022213
 31
0.0
  0
LINE
  8
OUTLINE
  6
CONTINUOUS
 62
     3
 10
46.087121999999901
 20
36.17584898102217
 30
0.0
 11
46.153331999999857
 21
36.094091981022189
 31
0.0
  0
LINE
  8
OUTLINE
  6
CONTINUOUS
 62
     3
 10
46.012901999999933
 20
36.249871981022167
 30
0.0
 11
46.087121999999901
 21
36.17584898102217
 31
0.0
  0
LINE
  8
OUTLINE
  6
CONTINUOUS
 62
     3
 10
45.931547000000137
 20
36.315357981022203
 30
0.0
 11
46.012901999999933
 21
36.249871981022167
 31
0.0
  0
LINE
  8
OUTLINE
  6
CONTINUOUS
 62
     3
 10
45.843973999999903
 20
36.371556981022202
 30
0.0
 11
45.931547000000137
 21
36.315357981022203
 31
0.0
  0
LINE
  8
OUTLINE
  6
CONTINUOUS
 62
     3
 10
45.751225999999853
 20
36.417870981022183
 30
0.0
 11
45.843973999999903
 21
36.371556981022202
 31
0.0
  0
LINE
  8
OUTLINE
  6
CONTINUOUS
 62
     3
 10
45.654330999999956
 20
36.453805981022192
 30
0.0
 11
45.751225999999853
 21
36.417870981022183
 31
0.0
  0
LINE
  8
OUTLINE
  6
CONTINUOUS
 62
     3
 10
45.554349000000002
 20
36.47898598102222
 30
0.0
 11
45.654330999999956
 21
36.453805981022192
 31
0.0
  0
LINE
  8
OUTLINE
  6
CONTINUOUS
 62
     3
 10
45.452359999999999
 20
36.493144981022233
 30
0.0
 11
45.554349000000002
 21
36.47898598102222
 31
0.0
  0
LINE
  8
OUTLINE
  6
CONTINUOUS
 62
     3
 10
45.37349399999993
 20
36.496432981022217
 30
0.0
 11
45.452359999999999
 21
36.493144981022233
 31
0.0
  0
POINT
  8
DEFPOINTS
  6
CONTINUOUS
 62
    30
 10
0.0
 20
36.499999981022214
 30
0.0
  0
POINT
  8
DEFPOINTS
  6
CONTINUOUS
 62
    30
 10
123.75393699999999
 20
0.0000029810221918
 30
0.0
  0
LINE
  8
SIZE
  6
CONTINUOUS
 62
    30
 10
25.795353969331249
 20
63.999999981022214
 30
0.0
 11
410.44417199999998
 21
63.999999981022214
 31
0.0
  0
LINE
  8
SIZE
  6
CONTINUOUS
 62
    30
 10
143.75393700000001
 20
0.0000029810221918
 30
0.0
 11
410.44417199999998
 21
0.0000029810221918
 31
0.0
  0
LINE
  8
SIZE
  6
CONTINUOUS
 62
    30
 10
390.44417199999998
 20
-11.99999701897781
 30
0.0
 11
390.44417199999998
 21
-23.999997018977808
 31
0.0
  0
LINE
  8
SIZE
  6
CONTINUOUS
 62
    30
 10
390.44417199999998
 20
75.999999981022199
 30
0.0
 11
390.44417199999998
 21
233.9999999810222
 31
0.0
  0
LINE
  8
SIZE
  6
CONTINUOUS
 62
    30
 10
390.44417199999998
 20
0.0000029810221918
 30
0.0
 11
390.44417199999998
 21
63.999999981022214
 31
0.0
  0
CIRCLE
  8
SIZE
  6
CONTINUOUS
 62
    30
 10
390.44417199999998
 20
0.0000029810221918
 30
0.0
 40
6.0
  0
LINE
  8
SIZE
  6
CONTINUOUS
 62
    30
 10
390.44417199999998
 20
0.0000029810221918
 30
0.0
 11
390.44417199999998
 21
-11.99999701897781
 31
0.0
  0
CIRCLE
  8
SIZE
  6
CONTINUOUS
 62
    30
 10
390.44417199999998
 20
63.999999981022214
 30
0.0
 40
6.0
  0
LINE
  8
SIZE
  6
CONTINUOUS
 62
    30
 10
390.44417199999998
 20
63.999999981022214
 30
0.0
 11
390.44417199999998
 21
75.999999981022199
 31
0.0
  0
TEXT
  8
SIZE
  6
CONTINUOUS
 62
    30
 10
365.44417199999998
 20
112.9999999810222
 30
0.0
 40
64.0
  1
64
 50
90.0
 41
0.9
 72
     1
 11
365.44417199999998
 21
160.9999999810222
 31
0.0
  0
POINT
  8
DEFPOINTS
  6
CONTINUOUS
 62
    30
 10
0.0
 20
63.999999981022214
 30
0.0
  0
POINT
  8
DEFPOINTS
  6
CONTINUOUS
 62
    30
 10
123.75393699999999
 20
0.0000029810221918
 30
0.0
  0
POINT
  8
DEFPOINTS
  6
CONTINUOUS
 62
    30
 10
390.44417199999998
 20
0.0000029810221918
 30
0.0
  0
LINE
  8
SIZE
  6
CONTINUOUS
 62
    30
 10
-47.5
 20
19.996449981022181
 30
0.0
 11
-47.5
 21
496.56189072472671
 31
0.0
  0
LINE
  8
SIZE
  6
CONTINUOUS
 62
    30
 10
47.499968999999957
 20
19.999999981022199
 30
0.0
 11
47.499968999999957
 21
496.56189072472671
 31
0.0
  0
LINE
  8
SIZE
  6
CONTINUOUS
 62
    30
 10
35.499968999999957
 20
476.56189072472671
 30
0.0
 11
-35.5
 21
476.56189072472671
 31
0.0
  0
LINE
  8
SIZE
  6
CONTINUOUS
 62
    30
 10
-47.5
 20
476.56189072472671
 30
0.0
 11
-282.63009499999998
 21
476.56189072472671
 31
0.0
  0
CIRCLE
  8
SIZE
  6
CONTINUOUS
 62
    30
 10
47.499968999999957
 20
476.56189072472671
 30
0.0
 40
6.0
  0
LINE
  8
SIZE
  6
CONTINUOUS
 62
    30
 10
47.499968999999957
 20
476.56189072472671
 30
0.0
 11
35.499968999999957
 21
476.56189072472671
 31
0.0
  0
CIRCLE
  8
SIZE
  6
CONTINUOUS
 62
    30
 10
-47.5
 20
476.56189072472671
 30
0.0
 40
6.0
  0
LINE
  8
SIZE
  6
CONTINUOUS
 62
    30
 10
-47.5
 20
476.56189072472671
 30
0.0
 11
-35.5
 21
476.56189072472671
 31
0.0
  0
TEXT
  8
SIZE
  6
CONTINUOUS
 62
    30
 10
-271.89295242857139
 20
501.56189072472671
 30
0.0
 40
64.0
  1
φ95
 41
0.9
 72
     1
 11
-184.94438099999999
 21
501.56189072472671
 31
0.0
  0
POINT
  8
DEFPOINTS
  6
CONTINUOUS
 62
    30
 10
-47.5
 20
-0.003550018977819
 30
0.0
  0
POINT
  8
DEFPOINTS
  6
CONTINUOUS
 62
    30
 10
47.499968999999957
 20
-0.0000000189778007
 30
0.0
  0
POINT
  8
DEFPOINTS
  6
CONTINUOUS
 62
    30
 10
47.499968999999957
 20
476.56189072472671
 30
0.0
  0
LINE
  8
SIZE
  6
CONTINUOUS
 62
    30
 10
-23.0
 20
65.498191981022217
 30
0.0
 11
-23.0
 21
376.20082572472671
 31
0.0
  0
LINE
  8
SIZE
  6
CONTINUOUS
 62
    30
 10
23.0
 20
65.498191981022217
 30
0.0
 11
23.0
 21
376.20082572472671
 31
0.0
  0
LINE
  8
SIZE
  6
CONTINUOUS
 62
    30
 10
35.0
 20
356.20082572472671
 30
0.0
 11
47.0
 21
356.20082572472671
 31
0.0
  0
LINE
  8
SIZE
  6
CONTINUOUS
 62
    30
 10
-35.0
 20
356.20082572472671
 30
0.0
 11
-286.77376299999992
 21
356.20082572472671
 31
0.0
  0
LINE
  8
SIZE
  6
CONTINUOUS
 62
    30
 10
23.0
 20
356.20082572472671
 30
0.0
 11
-23.0
 21
356.20082572472671
 31
0.0
  0
CIRCLE
  8
SIZE
  6
CONTINUOUS
 62
    30
 10
23.0
 20
356.20082572472671
 30
0.0
 40
6.0
  0
LINE
  8
SIZE
  6
CONTINUOUS
 62
    30
 10
23.0
 20
356.20082572472671
 30
0.0
 11
35.0
 21
356.20082572472671
 31
0.0
  0
CIRCLE
  8
SIZE
  6
CONTINUOUS
 62
    30
 10
-23.0
 20
356.20082572472671
 30
0.0
 40
6.0
  0
LINE
  8
SIZE
  6
CONTINUOUS
 62
    30
 10
-23.0
 20
356.20082572472671
 30
0.0
 11
-35.0
 21
356.20082572472671
 31
0.0
  0
TEXT
  8
SIZE
  6
CONTINUOUS
 62
    30
 10
-276.03662085714291
 20
381.20082572472671
 30
0.0
 40
64.0
  1
φ46
 41
0.9
 72
     1
 11
-190.45947799999999
 21
381.20082572472671
 31
0.0
  0
POINT
  8
DEFPOINTS
  6
CONTINUOUS
 62
    30
 10
-23.0
 20
36.498191981022217
 30
0.0
  0
POINT
  8
DEFPOINTS
  6
CONTINUOUS
 62
    30
 10
23.0
 20
36.498191981022217
 30
0.0
  0
POINT
  8
DEFPOINTS
  6
CONTINUOUS
 62
    30
 10
23.0
 20
356.20082572472671
 30
0.0
  0
LINE
  8
SIZE
  6
CONTINUOUS
 62
    30
 10
0.0000000000000012
 20
129.2854010143142
 30
0.0
 11
0.0000000000000087
 21
251.85297141415779
 31
0.0
  0
LINE
  8
SIZE
  6
CONTINUOUS
 62
    30
 10
32.699990000000071
 20
40.000000981022197
 30
0.0
 11
32.699990000000078
 21
251.85297141415779
 31
0.0
  0
LINE
  8
SIZE
  6
CONTINUOUS
 62
    30
 10
44.699990000000078
 20
231.85297141415779
 30
0.0
 11
56.699990000000078
 21
231.85297141415779
 31
0.0
  0
LINE
  8
SIZE
  6
CONTINUOUS
 62
    30
 10
-11.999999999999989
 20
231.85297141415779
 30
0.0
 11
-252.7622661210776
 21
231.85297141415779
 31
0.0
  0
LINE
  8
SIZE
  6
CONTINUOUS
 62
    30
 10
32.699990000000078
 20
231.85297141415779
 30
0.0
 11
0.0000000000000075
 21
231.85297141415779
 31
0.0
  0
CIRCLE
  8
SIZE
  6
CONTINUOUS
 62
    30
 10
32.699990000000078
 20
231.85297141415779
 30
0.0
 40
6.0
  0
LINE
  8
SIZE
  6
CONTINUOUS
 62
    30
 10
32.699990000000078
 20
231.85297141415779
 30
0.0
 11
44.699990000000078
 21
231.85297141415779
 31
0.0
  0
CIRCLE
  8
SIZE
  6
CONTINUOUS
 62
    30
 10
0.0000000000000075
 20
231.85297141415779
 30
0.0
 40
6.0
  0
LINE
  8
SIZE
  6
CONTINUOUS
 62
    30
 10
0.0000000000000075
 20
231.85297141415779
 30
0.0
 11
-11.999999999999989
 21
231.85297141415779
 31
0.0
  0
TEXT
  8
SIZE
  6
CONTINUOUS
 62
    30
 10
-227.7622661210776
 20
256.85297141415782
 30
0.0
 40
64.0
  1
33
 41
0.9
 72
     1
 11
-181.1336946925062
 21
256.85297141415782
 31
0.0
  0
POINT
  8
DEFPOINTS
  6
CONTINUOUS
 62
    30
 10
0.0
 20
109.2854010143142
 30
0.0
  0
POINT
  8
DEFPOINTS
  6
CONTINUOUS
 62
    30
 10
32.699990000000071
 20
20.0000009810222
 30
0.0
  0
POINT
  8
DEFPOINTS
  6
CONTINUOUS
 62
    30
 10
32.699990000000078
 20
231.85297141415779
 30
0.0
  0
LINE
  8
SIZE
  6
CONTINUOUS
 62
    30
 10
65.373493999999951
 20
36.496432981022217
 30
0.0
 11
273.39418143663812
 21
36.496432981022153
 31
0.0
  0
LINE
  8
SIZE
  6
CONTINUOUS
 62
    30
 10
145.45612470509059
 20
-0.0000000000000057
 30
0.0
 11
273.39418143663812
 21
-0.0000000000000419
 31
0.0
  0
LINE
  8
SIZE
  6
CONTINUOUS
 62
    30
 10
253.39418143663809
 20
-12.000000000000041
 30
0.0
 11
253.39418143663809
 21
-24.000000000000039
 31
0.0
  0
LINE
  8
SIZE
  6
CONTINUOUS
 62
    30
 10
253.39418143663809
 20
48.49643298102216
 30
0.0
 11
253.39418143663809
 21
202.3821472667365
 31
0.0
  0
LINE
  8
SIZE
  6
CONTINUOUS
 62
    30
 10
253.39418143663809
 20
-0.0000000000000362
 30
0.0
 11
253.39418143663809
 21
36.49643298102216
 31
0.0
  0
CIRCLE
  8
SIZE
  6
CONTINUOUS
 62
    30
 10
253.39418143663809
 20
-0.0000000000000362
 30
0.0
 40
6.0
  0
LINE
  8
SIZE
  6
CONTINUOUS
 62
    30
 10
253.39418143663809
 20
-0.0000000000000362
 30
0.0
 11
253.39418143663809
 21
-12.000000000000041
 31
0.0
  0
CIRCLE
  8
SIZE
  6
CONTINUOUS
 62
    30
 10
253.39418143663809
 20
36.49643298102216
 30
0.0
 40
6.0
  0
LINE
  8
SIZE
  6
CONTINUOUS
 62
    30
 10
253.39418143663809
 20
36.49643298102216
 30
0.0
 11
253.39418143663809
 21
48.49643298102216
 31
0.0
  0
TEXT
  8
SIZE
  6
CONTINUOUS
 62
    30
 10
228.39418143663809
 20
86.867861552450861
 30
0.0
 40
64.0
  1
36
 50
90.0
 41
0.9
 72
     1
 11
228.39418143663809
 21
132.12500440959371
 31
0.0
  0
POINT
  8
DEFPOINTS
  6
CONTINUOUS
 62
    30
 10
45.37349399999993
 20
36.496432981022217
 30
0.0
  0
POINT
  8
DEFPOINTS
  6
CONTINUOUS
 62
    30
 10
125.4561247050906
 20
0.0
 30
0.0
  0
POINT
  8
DEFPOINTS
  6
CONTINUOUS
 62
    30
 10
253.39418143663809
 20
-0.0000000000000362
 30
0.0
  0
CIRCLE
  8
FIX
  6
CONTINUOUS
 62
    11
 10
-80.0
 20
0.0
 30
0.0
 40
5.0
  0
CIRCLE
  8
FIX
  6
CONTINUOUS
 62
    11
 10
80.0
 20
0.0000019270641545
 30
0.0
 40
5.0
  0
ENDSEC
  0
EOF
