  0
SECTION
  2
HEADER
  9
$ACADVER
  1
AC1009
  9
$DWGCODEPAGE
  3
dos932
  9
$INSBASE
 10
0.0
 20
0.0
 30
0.0
  9
$EXTMIN
 10
-522.070296
 20
-455.337513
 30
-0.003052
  9
$EXTMAX
 10
779.026806
 20
490.585335
 30
50.003052
  9
$LIMMIN
 10
-2970.0
 20
-2100.0
  9
$LIMMAX
 10
2970.0
 20
2100.0
  9
$ORTHOMODE
 70
     1
  9
$REGENMODE
 70
     1
  9
$FILLMODE
 70
     1
  9
$QTEXTMODE
 70
     0
  9
$MIRRTEXT
 70
     0
  9
$DRAGMODE
 70
     2
  9
$LTSCALE
 40
5.0
  9
$OSMODE
 70
    37
  9
$ATTMODE
 70
     1
  9
$TEXTSIZE
 40
64.0
  9
$TRACEWID
 40
0.05
  9
$TEXTSTYLE
  7
STANDARD
  9
$CLAYER
  8
DETAIL
  9
$CELTYPE
  6
CONTINUOUS
  9
$CECOLOR
 62
     7
  9
$DIMSCALE
 40
1.0
  9
$DIMASZ
 40
12.0
  9
$DIMEXO
 40
20.0
  9
$DIMDLI
 40
200.0
  9
$DIMRND
 40
0.0
  9
$DIMDLE
 40
0.0
  9
$DIMEXE
 40
20.0
  9
$DIMTP
 40
0.0
  9
$DIMTM
 40
0.0
  9
$DIMTXT
 40
64.0
  9
$DIMCEN
 40
0.09
  9
$DIMTSZ
 40
0.0
  9
$DIMTOL
 70
     0
  9
$DIMLIM
 70
     0
  9
$DIMTIH
 70
     0
  9
$DIMTOH
 70
     0
  9
$DIMSE1
 70
     0
  9
$DIMSE2
 70
     0
  9
$DIMTAD
 70
     1
  9
$DIMZIN
 70
     8
  9
$DIMBLK
  1
DOT1
  9
$DIMASO
 70
     1
  9
$DIMSHO
 70
     0
  9
$DIMPOST
  1

  9
$DIMAPOST
  1

  9
$DIMALT
 70
     0
  9
$DIMALTD
 70
     2
  9
$DIMALTF
 40
25.4
  9
$DIMLFAC
 40
1.0
  9
$DIMTOFL
 70
     1
  9
$DIMTVP
 40
0.0
  9
$DIMTIX
 70
     1
  9
$DIMSOXD
 70
     0
  9
$DIMSAH
 70
     1
  9
$DIMBLK1
  1
ORIGIN
  9
$DIMBLK2
  1
ORIGIN
  9
$DIMSTYLE
  2
STANDARD
  9
$DIMCLRD
 70
     7
  9
$DIMCLRE
 70
     7
  9
$DIMCLRT
 70
     7
  9
$DIMTFAC
 40
1.0
  9
$DIMGAP
 40
25.0
  9
$LUNITS
 70
     2
  9
$LUPREC
 70
     4
  9
$SKETCHINC
 40
0.1
  9
$FILLETRAD
 40
3.0
  9
$AUNITS
 70
     1
  9
$AUPREC
 70
     3
  9
$MENU
  1
ACAD
  9
$ELEVATION
 40
0.0
  9
$PELEVATION
 40
0.0
  9
$THICKNESS
 40
50.0
  9
$LIMCHECK
 70
     0
  9
$CHAMFERA
 40
0.0
  9
$CHAMFERB
 40
0.0
  9
$SKPOLY
 70
     0
  9
$TDCREATE
 40
2453019.623010359
  9
$TDUPDATE
 40
2457485.582347442
  9
$TDINDWG
 40
1.2066481019
  9
$TDUSRTIMER
 40
1.2066481019
  9
$USRTIMER
 70
     1
  9
$ANGBASE
 50
0.0
  9
$ANGDIR
 70
     0
  9
$PDMODE
 70
     3
  9
$PDSIZE
 40
-2.0
  9
$PLINEWID
 40
0.0
  9
$COORDS
 70
     1
  9
$SPLFRAME
 70
     0
  9
$SPLINETYPE
 70
     6
  9
$SPLINESEGS
 70
     8
  9
$ATTDIA
 70
     0
  9
$ATTREQ
 70
     1
  9
$HANDLING
 70
     1
  9
$HANDSEED
  5
C4DB
  9
$SURFTAB1
 70
     6
  9
$SURFTAB2
 70
     6
  9
$SURFTYPE
 70
     6
  9
$SURFU
 70
     6
  9
$SURFV
 70
     6
  9
$UCSNAME
  2

  9
$UCSORG
 10
0.0
 20
0.0
 30
0.0
  9
$UCSXDIR
 10
1.0
 20
0.0
 30
0.0
  9
$UCSYDIR
 10
0.0
 20
1.0
 30
0.0
  9
$PUCSNAME
  2

  9
$PUCSORG
 10
0.0
 20
0.0
 30
0.0
  9
$PUCSXDIR
 10
1.0
 20
0.0
 30
0.0
  9
$PUCSYDIR
 10
0.0
 20
1.0
 30
0.0
  9
$USERI1
 70
     0
  9
$USERI2
 70
     0
  9
$USERI3
 70
     0
  9
$USERI4
 70
     0
  9
$USERI5
 70
     0
  9
$USERR1
 40
20.0
  9
$USERR2
 40
0.0
  9
$USERR3
 40
0.0
  9
$USERR4
 40
0.0
  9
$USERR5
 40
0.0
  9
$WORLDVIEW
 70
     1
  9
$SHADEDGE
 70
     3
  9
$SHADEDIF
 70
    70
  9
$TILEMODE
 70
     1
  9
$MAXACTVP
 70
    48
  9
$PLIMCHECK
 70
     0
  9
$PEXTMIN
 10
-1.000000000000000E+20
 20
-1.000000000000000E+20
 30
-1.000000000000000E+20
  9
$PEXTMAX
 10
1.000000000000000E+20
 20
1.000000000000000E+20
 30
1.000000000000000E+20
  9
$PLIMMIN
 10
0.0
 20
0.0
  9
$PLIMMAX
 10
12.0
 20
9.0
  9
$UNITMODE
 70
     0
  9
$VISRETAIN
 70
     0
  9
$PLINEGEN
 70
     0
  9
$PSLTSCALE
 70
     0
  0
ENDSEC
  0
SECTION
  2
TABLES
  0
TABLE
  2
VPORT
 70
     1
  0
VPORT
  2
*ACTIVE
 70
     0
 10
0.0
 20
0.0
 11
1.0
 21
1.0
 12
128.478255
 22
17.623911
 13
0.0
 23
0.0
 14
1.0
 24
1.0
 15
0.0
 25
0.0
 16
0.0
 26
0.0
 36
1.0
 17
0.0
 27
0.0
 37
0.0
 40
957.139324
 41
1.754455
 42
50.0
 43
0.0
 44
0.0
 50
0.0
 51
0.0
 71
     0
 72
  1000
 73
     1
 74
     0
 75
     0
 76
     0
 77
     0
 78
     0
  0
ENDTAB
  0
TABLE
  2
LTYPE
 70
     3
  0
LTYPE
  2
CONTINUOUS
 70
     0
  3
実線
 72
    65
 73
     0
 40
0.0
  0
LTYPE
  2
DASHDOT
 70
     0
  3
____ _ ____ _ ____ _ ____ _ ____ _ ____ _ ____
 72
    65
 73
     4
 40
5.5
 49
4.0
 49
-0.6
 49
0.3
 49
-0.6
  0
LTYPE
  2
DASHED
 70
     0
  3
-- -- -- -- -- -- -- -- -- -- -- -- -- -- --
 72
    65
 73
     2
 40
0.75
 49
0.5
 49
-0.25
  0
ENDTAB
  0
TABLE
  2
LAYER
 70
    12
  0
LAYER
  2
0
 70
     0
 62
     7
  6
CONTINUOUS
  0
LAYER
  2
BASIS
 70
     0
 62
     6
  6
DASHDOT
  0
LAYER
  2
OUTLINE
 70
     0
 62
     3
  6
CONTINUOUS
  0
LAYER
  2
DETAIL
 70
     0
 62
     5
  6
CONTINUOUS
  0
LAYER
  2
SIZE
 70
     0
 62
    30
  6
CONTINUOUS
  0
LAYER
  2
ARRANGE
 70
     0
 62
     1
  6
CONTINUOUS
  0
LAYER
  2
DEFPOINTS
 70
     0
 62
     7
  6
CONTINUOUS
  0
LAYER
  2
ETC
 70
     0
 62
    61
  6
CONTINUOUS
  0
LAYER
  2
FIX
 70
     0
 62
    11
  6
CONTINUOUS
  0
LAYER
  2
NOTE
 70
     0
 62
     4
  6
CONTINUOUS
  0
LAYER
  2
SERVICESPACE
 70
     0
 62
     2
  6
DASHDOT
  0
LAYER
  2
SYMBOLLINE
 70
     0
 62
    15
  6
CONTINUOUS
  0
ENDTAB
  0
TABLE
  2
STYLE
 70
     1
  0
STYLE
  2
STANDARD
 70
     0
 40
64.0
 41
0.9
 50
0.0
 71
     0
 42
64.0
  3
SIMPLEX.shx
  4
BIGFONT.shx
  0
ENDTAB
  0
TABLE
  2
VIEW
 70
     1
  0
VIEW
  2
ALL
 70
     0
 40
4282.619808
 10
0.0
 20
41.309904
 41
5940.0
 11
0.0
 21
0.0
 31
1.0
 12
0.0
 22
0.0
 32
0.0
 42
50.0
 43
0.0
 44
0.0
 50
0.0
 71
     0
  0
ENDTAB
  0
TABLE
  2
UCS
 70
     0
  0
ENDTAB
  0
TABLE
  2
APPID
 70
    15
  0
APPID
  2
ACAD
 70
     0
  0
APPID
  2
AUTOCAD_POSTSCRIPT_FIGURE
 70
     0
  0
APPID
  2
ACAD_EXEMPT_FROM_CAD_STAND
 70
     0
  0
APPID
  2
ACAD_PSEXT
 70
     0
  0
APPID
  2
ACAUTHENVIRON
 70
     0
  0
APPID
  2
GENIUS_GENOENT_13
 70
     0
  0
APPID
  2
GENIUS_GENCFG_13
 70
     0
  0
APPID
  2
GENIUS_GENCFG0_13
 70
     0
  0
APPID
  2
GENIUS_GENCFG1_13
 70
     0
  0
APPID
  2
GENIUS_GENCFG2_13
 70
     0
  0
APPID
  2
GENIUS_GENCFG3_13
 70
     0
  0
APPID
  2
GENIUS_GENCFG4_13
 70
     0
  0
APPID
  2
GENIUS_GEVCFG0_13
 70
     0
  0
APPID
  2
CONTENTBLOCKDESCRIPTION
 70
     0
  0
APPID
  2
CONTENTBLOCKICON
 70
     0
  0
ENDTAB
  0
TABLE
  2
DIMSTYLE
 70
     1
  0
DIMSTYLE
  2
STANDARD
 70
     0
  3

  4

  5

  6

  7

 40
1.0
 41
0.18
 42
0.0625
 43
0.38
 44
0.18
 45
0.0
 46
0.0
 47
0.0
 48
0.0
140
0.18
141
0.09
142
0.0
143
25.4
144
1.0
145
0.0
146
1.0
147
0.09
 71
     0
 72
     0
 73
     1
 74
     1
 75
     0
 76
     0
 77
     0
 78
     0
170
     0
171
     2
172
     0
173
     0
174
     0
175
     0
176
     7
177
     7
178
     7
  0
ENDTAB
  0
ENDSEC
  0
SECTION
  2
BLOCKS
  0
BLOCK
  8
0
  2
$MODEL_SPACE
 70
     0
 10
0.0
 20
0.0
 30
0.0
  3
$MODEL_SPACE
  1

  0
ENDBLK
  5
C4B3
  8
0
  0
BLOCK
 67
     1
  8
0
  2
$PAPER_SPACE
 70
     0
 10
0.0
 20
0.0
 30
0.0
  3
$PAPER_SPACE
  1

  0
ENDBLK
  5
C4B5
 67
     1
  8
0
  0
BLOCK
  8
0
  2
DOT1
 70
     0
 10
0.0
 20
0.0
 30
0.0
  3
DOT1
  1

  0
CIRCLE
  5
C181
  8
SIZE
  6
CONTINUOUS
 62
     7
 10
0.0
 20
0.0
 30
0.0
 40
3.0
  0
ENDBLK
  5
C182
  8
0
  0
BLOCK
  8
0
  2
_ORIGIN
 70
     0
 10
0.0
 20
0.0
 30
0.0
  3
_ORIGIN
  1

  0
CIRCLE
  5
C185
  8
0
  6
CONTINUOUS
 62
     7
 10
0.0
 20
0.0
 30
0.0
 40
0.5
  0
LINE
  5
C186
  8
0
  6
CONTINUOUS
 62
     7
 10
0.0
 20
0.0
 30
0.0
 11
-1.0
 21
0.0
 31
0.0
  0
ENDBLK
  5
C187
  8
0
  0
ENDSEC
  0
SECTION
  2
ENTITIES
  0
POINT
  5
C188
  8
ARRANGE
  6
CONTINUOUS
 62
     1
 39
50.0
 10
0.0
 20
-0.0136
 30
0.0
  0
LINE
  5
C189
  8
NOTE
  6
CONTINUOUS
 62
     4
 10
64.914415
 20
70.531299
 30
0.0
 11
56.524743
 21
31.421027
 31
0.0
  0
LINE
  5
C18A
  8
NOTE
  6
CONTINUOUS
 62
     4
 10
56.524743
 20
31.421027
 30
0.0
 11
83.345549
 21
61.09668000000001
 31
0.0
  0
TEXT
  5
C18B
  8
NOTE
  6
CONTINUOUS
 62
     4
 10
167.771946
 20
287.772497
 30
0.0
 40
64.0
  1
EL
 41
0.9
  0
LINE
  5
C18C
  8
NOTE
  6
CONTINUOUS
 62
     4
 39
50.0
 10
163.288765
 20
277.672214
 30
0.0
 11
260.005558
 21
277.672214
 31
0.0
  0
TEXT
  5
C18D
  8
NOTE
  6
CONTINUOUS
 62
     4
 10
-509.350218
 20
70.354833
 30
0.0
 40
64.0
  1
2-4×10
 41
0.9
  0
LINE
  5
C18E
  8
NOTE
  6
CONTINUOUS
 62
     4
 10
-118.370782
 20
14.658166
 30
0.0
 11
-80.108631
 21
2.995927
 31
0.0
  0
LINE
  5
C18F
  8
NOTE
  6
CONTINUOUS
 62
     4
 10
-80.108631
 20
2.995927
 30
0.0
 11
-107.413506
 21
32.226798
 31
0.0
  0
LINE
  5
C190
  8
NOTE
  6
CONTINUOUS
 62
     4
 39
50.0
 10
163.288765
 20
277.672214
 30
0.0
 11
56.524743
 21
31.421026
 31
0.0
  0
LINE
  5
C191
  8
NOTE
  6
CONTINUOUS
 62
     4
 39
50.0
 10
-521.972099
 20
54.225611
 30
0.0
 11
-159.692874
 21
54.225611
 31
0.0
  0
LINE
  5
C192
  8
NOTE
  6
CONTINUOUS
 62
     4
 39
50.0
 10
-159.692874
 20
54.225611
 30
0.0
 11
-80.108631
 21
2.995927
 31
0.0
  0
LINE
  5
C193
  8
BASIS
  6
DASHDOT
 62
     6
 39
50.0
 10
0.0
 20
-108.858891
 30
0.0
 11
0.0
 21
108.831691
 31
0.0
  0
TEXT
  5
C194
  8
ETC
  6
CONTINUOUS
 62
    61
 10
389.734181
 20
450.397458
 30
0.0
 40
40.0
  1
V-08PEAD5_2
 41
0.9
  0
TEXT
  5
C195
  8
ETC
  6
CONTINUOUS
 62
    61
 10
384.308337
 20
390.327342
 30
0.0
 40
40.0
  1
換気扇
 41
0.9
  0
TEXT
  5
C196
  8
ETC
  6
CONTINUOUS
 62
    61
 10
439.73015
 20
320.373264
 30
0.0
 40
40.0
  1
V-08PEAD5
 41
0.9
  0
LINE
  5
C197
  8
BASIS
  6
DASHDOT
 62
     6
 39
50.0
 10
124.54178
 20
-0.013597
 30
0.0
 11
-124.54178
 21
-0.013603
 31
0.0
  0
CIRCLE
  5
C198
  8
ARRANGE
  6
CONTINUOUS
 62
     1
 39
25.0
 10
0.0
 20
0.0
 30
0.0
 40
20.0
  0
ARC
  5
C199
  8
DETAIL
  6
CONTINUOUS
 62
     5
 10
-10.1728
 20
-0.2
 30
0.0
 40
0.2
 50
0.5000000000005914
 51
90.0
  0
LINE
  5
C19A
  8
DETAIL
  6
CONTINUOUS
 62
     5
 10
-10.894539
 20
-0.005748
 30
0.0
 11
-10.965849
 21
0.0
 31
0.0
  0
LINE
  5
C19B
  8
DETAIL
  6
CONTINUOUS
 62
     5
 10
-10.965849
 20
0.0
 30
0.0
 11
-10.886833
 21
-0.005624
 31
0.0
  0
LINE
  5
C19C
  8
NOTE
  6
CONTINUOUS
 62
     4
 10
56.524744
 20
11.434627
 30
0.0
 11
56.524744
 21
51.43462700000001
 31
0.0
  0
LINE
  5
C19D
  8
NOTE
  6
CONTINUOUS
 62
     4
 10
36.524744
 20
31.434627
 30
0.0
 11
76.524744
 21
31.434627
 31
0.0
  0
LINE
  5
C19E
  8
NOTE
  6
CONTINUOUS
 62
     4
 10
-80.10863
 20
-17.004074
 30
0.0
 11
-80.10863
 21
22.995926
 31
0.0
  0
LINE
  5
C19F
  8
NOTE
  6
CONTINUOUS
 62
     4
 10
-100.10863
 20
2.995926
 30
0.0
 11
-60.10863
 21
2.995926
 31
0.0
  0
LINE
  5
C1A0
  8
NOTE
  6
CONTINUOUS
 62
     4
 10
79.89137
 20
-17.004074
 30
0.0
 11
79.89137
 21
22.995926
 31
0.0
  0
LINE
  5
C1A1
  8
NOTE
  6
CONTINUOUS
 62
     4
 10
59.89137
 20
2.995926
 30
0.0
 11
99.89137
 21
2.995926
 31
0.0
  0
CIRCLE
  5
C1A2
  8
DETAIL
  6
DASHED
 62
     5
 10
0.0
 20
0.0
 30
0.0
 40
45.257906
  0
ARC
  5
C1A3
  8
DETAIL
  6
DASHED
 62
     5
 10
-0.00584
 20
0.054046
 30
0.0
 40
42.291004
 50
45.95071000000001
 51
115.64997
  0
ARC
  5
C1A4
  8
DETAIL
  6
DASHED
 62
     5
 10
14.017725
 20
26.293687
 30
0.0
 40
34.44509
 50
159.817754
 51
180.0
  0
LINE
  5
C1A5
  8
DETAIL
  6
CONTINUOUS
 62
     5
 10
-74.898159
 20
78.312537
 30
0.0
 11
-74.898159
 21
-67.807046
 31
0.0
  0
LINE
  5
C1A6
  8
DETAIL
  6
CONTINUOUS
 62
     5
 10
-89.999996
 20
-98.502099
 30
0.0
 11
-89.999996
 21
78.50205700000001
 31
0.0
  0
LINE
  5
C1A7
  8
DETAIL
  6
CONTINUOUS
 62
     5
 10
74.898159
 20
78.312537
 30
0.0
 11
74.898159
 21
-67.807046
 31
0.0
  0
LINE
  5
C1A8
  8
DETAIL
  6
CONTINUOUS
 62
     5
 10
89.999996
 20
78.50205700000001
 30
0.0
 11
89.999996
 21
-98.502099
 31
0.0
  0
LINE
  5
C1A9
  8
DETAIL
  6
CONTINUOUS
 62
     5
 10
-83.740986
 20
-96.896715
 30
0.0
 11
-81.997586
 21
-96.489696
 31
0.0
  0
LINE
  5
C1AA
  8
DETAIL
  6
CONTINUOUS
 62
     5
 10
82.008277
 20
-96.492088
 30
0.0
 11
83.749757
 21
-96.898838
 31
0.0
  0
LINE
  5
C1AB
  8
DETAIL
  6
CONTINUOUS
 62
     5
 10
-10.98254
 20
-100.000017
 30
0.0
 11
-88.502078
 21
-100.000017
 31
0.0
  0
LINE
  5
C1AC
  8
DETAIL
  6
CONTINUOUS
 62
     5
 10
-85.464191
 20
-97.333311
 30
0.0
 11
-83.740986
 21
-96.896715
 31
0.0
  0
LINE
  5
C1AD
  8
DETAIL
  6
CONTINUOUS
 62
     5
 10
-87.162679
 20
-97.798766
 30
0.0
 11
-85.464191
 21
-97.333311
 31
0.0
  0
LINE
  5
C1AE
  8
DETAIL
  6
CONTINUOUS
 62
     5
 10
-88.835238
 20
-98.29330999999999
 30
0.0
 11
-87.162679
 21
-97.798766
 31
0.0
  0
LINE
  5
C1AF
  8
DETAIL
  6
CONTINUOUS
 62
     5
 10
-89.992782
 20
-98.64878999999999
 30
0.0
 11
-89.999984
 21
-98.502099
 31
0.0
  0
LINE
  5
C1B0
  8
DETAIL
  6
CONTINUOUS
 62
     5
 10
-89.971237
 20
-98.794139
 30
0.0
 11
-89.992782
 21
-98.64878999999999
 31
0.0
  0
LINE
  5
C1B1
  8
DETAIL
  6
CONTINUOUS
 62
     5
 10
-89.935532
 20
-98.936751
 30
0.0
 11
-89.971237
 21
-98.794139
 31
0.0
  0
LINE
  5
C1B2
  8
DETAIL
  6
CONTINUOUS
 62
     5
 10
-89.885998
 20
-99.075229
 30
0.0
 11
-89.935532
 21
-98.936751
 31
0.0
  0
LINE
  5
C1B3
  8
DETAIL
  6
CONTINUOUS
 62
     5
 10
-89.8231
 20
-99.208224
 30
0.0
 11
-89.885998
 21
-99.075229
 31
0.0
  0
LINE
  5
C1B4
  8
DETAIL
  6
CONTINUOUS
 62
     5
 10
-89.747449
 20
-99.334423
 30
0.0
 11
-89.8231
 21
-99.208224
 31
0.0
  0
LINE
  5
C1B5
  8
DETAIL
  6
CONTINUOUS
 62
     5
 10
-89.659795
 20
-99.452574
 30
0.0
 11
-89.747449
 21
-99.334423
 31
0.0
  0
LINE
  5
C1B6
  8
DETAIL
  6
CONTINUOUS
 62
     5
 10
-89.560977
 20
-99.561555
 30
0.0
 11
-89.659795
 21
-99.452574
 31
0.0
  0
LINE
  5
C1B7
  8
DETAIL
  6
CONTINUOUS
 62
     5
 10
-89.451947
 20
-99.660314
 30
0.0
 11
-89.560977
 21
-99.561555
 31
0.0
  0
LINE
  5
C1B8
  8
DETAIL
  6
CONTINUOUS
 62
     5
 10
-89.333747
 20
-99.747907
 30
0.0
 11
-89.451947
 21
-99.660314
 31
0.0
  0
LINE
  5
C1B9
  8
DETAIL
  6
CONTINUOUS
 62
     5
 10
-89.207464
 20
-99.823516
 30
0.0
 11
-89.333747
 21
-99.747907
 31
0.0
  0
LINE
  5
C1BA
  8
DETAIL
  6
CONTINUOUS
 62
     5
 10
-89.074439
 20
-99.886337
 30
0.0
 11
-89.207464
 21
-99.823516
 31
0.0
  0
LINE
  5
C1BB
  8
DETAIL
  6
CONTINUOUS
 62
     5
 10
-88.936129
 20
-99.935735
 30
0.0
 11
-89.074439
 21
-99.886337
 31
0.0
  0
LINE
  5
C1BC
  8
DETAIL
  6
CONTINUOUS
 62
     5
 10
-88.793752
 20
-99.97133
 30
0.0
 11
-88.936129
 21
-99.935735
 31
0.0
  0
LINE
  5
C1BD
  8
DETAIL
  6
CONTINUOUS
 62
     5
 10
-88.648594
 20
-99.99282099999999
 30
0.0
 11
-88.793752
 21
-99.97133
 31
0.0
  0
LINE
  5
C1BE
  8
DETAIL
  6
CONTINUOUS
 62
     5
 10
-88.502078
 20
-100.000005
 30
0.0
 11
-88.648594
 21
-99.99282099999999
 31
0.0
  0
LINE
  5
C1BF
  8
DETAIL
  6
CONTINUOUS
 62
     5
 10
66.475418
 20
-99.90681599999999
 30
0.0
 11
35.260738
 21
-99.90711
 31
0.0
  0
LINE
  5
C1C0
  8
DETAIL
  6
CONTINUOUS
 62
     5
 10
35.386079
 20
-99.993889
 30
0.0
 11
66.600759
 21
-99.993596
 31
0.0
  0
LINE
  5
C1C1
  8
DETAIL
  6
CONTINUOUS
 62
     5
 10
19.972842
 20
-100.000017
 30
0.0
 11
10.98254
 21
-100.000017
 31
0.0
  0
LINE
  5
C1C2
  8
DETAIL
  6
CONTINUOUS
 62
     5
 10
-4.90587
 20
-99.863164
 30
0.0
 11
6.782136
 21
-99.86579499999999
 31
0.0
  0
LINE
  5
C1C3
  8
DETAIL
  6
CONTINUOUS
 62
     5
 10
-10.652915
 20
-99.944046
 30
0.0
 11
-10.760314
 21
-99.974971
 31
0.0
  0
LINE
  5
C1C4
  8
DETAIL
  6
CONTINUOUS
 62
     5
 10
-10.549617
 20
-99.901301
 30
0.0
 11
-10.652915
 21
-99.944046
 31
0.0
  0
LINE
  5
C1C5
  8
DETAIL
  6
CONTINUOUS
 62
     5
 10
-10.543733
 20
-99.89805299999999
 30
0.0
 11
-10.549617
 21
-99.901301
 31
0.0
  0
LINE
  5
C1C6
  8
DETAIL
  6
CONTINUOUS
 62
     5
 10
-10.98254
 20
-100.000005
 30
0.0
 11
-10.897495
 21
-99.91496
 31
0.0
  0
LINE
  5
C1C7
  8
DETAIL
  6
CONTINUOUS
 62
     5
 10
-10.87067
 20
-99.99372199999999
 30
0.0
 11
-10.98254
 21
-100.000005
 31
0.0
  0
LINE
  5
C1C8
  8
DETAIL
  6
CONTINUOUS
 62
     5
 10
-10.760314
 20
-99.974971
 30
0.0
 11
-10.87067
 21
-99.99372199999999
 31
0.0
  0
LINE
  5
C1C9
  8
DETAIL
  6
CONTINUOUS
 62
     5
 10
-10.753507
 20
-99.90401899999999
 30
0.0
 11
-10.682441
 21
-99.90211099999999
 31
0.0
  0
LINE
  5
C1CA
  8
DETAIL
  6
CONTINUOUS
 62
     5
 10
-10.831472
 20
-99.907662
 30
0.0
 11
-10.753507
 21
-99.90401899999999
 31
0.0
  0
LINE
  5
C1CB
  8
DETAIL
  6
CONTINUOUS
 62
     5
 10
-10.879429
 20
-99.911305
 30
0.0
 11
-10.831472
 21
-99.907662
 31
0.0
  0
LINE
  5
C1CC
  8
DETAIL
  6
CONTINUOUS
 62
     5
 10
-10.897495
 20
-99.91496
 30
0.0
 11
-10.879429
 21
-99.911305
 31
0.0
  0
LINE
  5
C1CD
  8
DETAIL
  6
CONTINUOUS
 62
     5
 10
-6.820757
 20
-99.86590799999999
 30
0.0
 11
-4.90587
 21
-99.863163
 31
0.0
  0
LINE
  5
C1CE
  8
DETAIL
  6
CONTINUOUS
 62
     5
 10
-6.979603
 20
-99.866359
 30
0.0
 11
-6.820757
 21
-99.86590799999999
 31
0.0
  0
LINE
  5
C1CF
  8
DETAIL
  6
CONTINUOUS
 62
     5
 10
-8.476358
 20
-99.873481
 30
0.0
 11
-6.820757
 21
-99.86590799999999
 31
0.0
  0
LINE
  5
C1D0
  8
DETAIL
  6
CONTINUOUS
 62
     5
 10
-9.580983
 20
-99.882806
 30
0.0
 11
-8.476358
 21
-99.873481
 31
0.0
  0
LINE
  5
C1D1
  8
DETAIL
  6
CONTINUOUS
 62
     5
 10
-9.684013
 20
-99.883865
 30
0.0
 11
-9.580983
 21
-99.882806
 31
0.0
  0
LINE
  5
C1D2
  8
DETAIL
  6
CONTINUOUS
 62
     5
 10
-10.121644
 20
-99.88983499999999
 30
0.0
 11
-9.580983
 21
-99.882806
 31
0.0
  0
LINE
  5
C1D3
  8
DETAIL
  6
CONTINUOUS
 62
     5
 10
-10.148944
 20
-99.890106
 30
0.0
 11
-10.121644
 21
-99.88983499999999
 31
0.0
  0
LINE
  5
C1D4
  8
DETAIL
  6
CONTINUOUS
 62
     5
 10
-10.392738
 20
-99.894645
 30
0.0
 11
-10.121644
 21
-99.88983499999999
 31
0.0
  0
LINE
  5
C1D5
  8
DETAIL
  6
CONTINUOUS
 62
     5
 10
-10.537854
 20
-99.897902
 30
0.0
 11
-10.392738
 21
-99.894645
 31
0.0
  0
LINE
  5
C1D6
  8
DETAIL
  6
CONTINUOUS
 62
     5
 10
-10.628202
 20
-99.90036599999999
 30
0.0
 11
-10.537854
 21
-99.897902
 31
0.0
  0
LINE
  5
C1D7
  8
DETAIL
  6
CONTINUOUS
 62
     5
 10
-10.537854
 20
-99.897902
 30
0.0
 11
-10.508493
 21
-99.896881
 31
0.0
  0
LINE
  5
C1D8
  8
DETAIL
  6
CONTINUOUS
 62
     5
 10
-10.645884
 20
-99.90041599999999
 30
0.0
 11
-10.628202
 21
-99.90036599999999
 31
0.0
  0
LINE
  5
C1D9
  8
DETAIL
  6
CONTINUOUS
 62
     5
 10
-10.682441
 20
-99.90211099999999
 30
0.0
 11
-10.628202
 21
-99.90036599999999
 31
0.0
  0
LINE
  5
C1DA
  8
DETAIL
  6
CONTINUOUS
 62
     5
 10
-10.665609
 20
-99.901541
 30
0.0
 11
-10.645884
 21
-99.90041599999999
 31
0.0
  0
LINE
  5
C1DB
  8
DETAIL
  6
CONTINUOUS
 62
     5
 10
-10.725591
 20
-99.90373199999999
 30
0.0
 11
-10.682441
 21
-99.90211099999999
 31
0.0
  0
LINE
  5
C1DC
  8
DETAIL
  6
CONTINUOUS
 62
     5
 10
-10.748208
 20
-99.904716
 30
0.0
 11
-10.725591
 21
-99.90373199999999
 31
0.0
  0
LINE
  5
C1DD
  8
DETAIL
  6
CONTINUOUS
 62
     5
 10
-10.765631
 20
-99.905579
 30
0.0
 11
-10.748208
 21
-99.904716
 31
0.0
  0
LINE
  5
C1DE
  8
DETAIL
  6
CONTINUOUS
 62
     5
 10
-10.777426
 20
-99.906252
 30
0.0
 11
-10.765631
 21
-99.905579
 31
0.0
  0
LINE
  5
C1DF
  8
DETAIL
  6
CONTINUOUS
 62
     5
 10
-10.785681
 20
-99.908689
 30
0.0
 11
-10.768205
 21
-99.905721
 31
0.0
  0
LINE
  5
C1E0
  8
DETAIL
  6
CONTINUOUS
 62
     5
 10
-10.897495
 20
-99.91496
 30
0.0
 11
-10.785681
 21
-99.908689
 31
0.0
  0
LINE
  5
C1E1
  8
DETAIL
  6
CONTINUOUS
 62
     5
 10
-10.781026
 20
-99.90648399999999
 30
0.0
 11
-10.777426
 21
-99.906252
 31
0.0
  0
LINE
  5
C1E2
  8
DETAIL
  6
CONTINUOUS
 62
     5
 10
-10.782822
 20
-99.90661
 30
0.0
 11
-10.781026
 21
-99.90648399999999
 31
0.0
  0
LINE
  5
C1E3
  8
DETAIL
  6
CONTINUOUS
 62
     5
 10
-10.782993
 20
-99.906622
 30
0.0
 11
-10.782822
 21
-99.90661
 31
0.0
  0
LINE
  5
C1E4
  8
DETAIL
  6
CONTINUOUS
 62
     5
 10
6.573367
 20
-99.865192
 30
0.0
 11
6.782136
 21
-99.86579499999999
 31
0.0
  0
LINE
  5
C1E5
  8
DETAIL
  6
CONTINUOUS
 62
     5
 10
10.897495
 20
-99.91496
 30
0.0
 11
10.98254
 21
-100.000005
 31
0.0
  0
LINE
  5
C1E6
  8
DETAIL
  6
CONTINUOUS
 62
     5
 10
10.549617
 20
-99.901301
 30
0.0
 11
10.543731
 21
-99.89805199999999
 31
0.0
  0
LINE
  5
C1E7
  8
DETAIL
  6
CONTINUOUS
 62
     5
 10
10.652915
 20
-99.944046
 30
0.0
 11
10.549617
 21
-99.901301
 31
0.0
  0
LINE
  5
C1E8
  8
DETAIL
  6
CONTINUOUS
 62
     5
 10
10.760314
 20
-99.974971
 30
0.0
 11
10.652915
 21
-99.944046
 31
0.0
  0
LINE
  5
C1E9
  8
DETAIL
  6
CONTINUOUS
 62
     5
 10
10.775641
 20
-99.906143
 30
0.0
 11
10.777728
 21
-99.906271
 31
0.0
  0
LINE
  5
C1EA
  8
DETAIL
  6
CONTINUOUS
 62
     5
 10
10.762255
 20
-99.905402
 30
0.0
 11
10.775641
 21
-99.906143
 31
0.0
  0
LINE
  5
C1EB
  8
DETAIL
  6
CONTINUOUS
 62
     5
 10
10.87067
 20
-99.99372199999999
 30
0.0
 11
10.760314
 21
-99.974971
 31
0.0
  0
LINE
  5
C1EC
  8
DETAIL
  6
CONTINUOUS
 62
     5
 10
10.98254
 20
-100.000005
 30
0.0
 11
10.87067
 21
-99.99372199999999
 31
0.0
  0
LINE
  5
C1ED
  8
DETAIL
  6
CONTINUOUS
 62
     5
 10
10.785681
 20
-99.908689
 30
0.0
 11
10.768199
 21
-99.90572
 31
0.0
  0
LINE
  5
C1EE
  8
DETAIL
  6
CONTINUOUS
 62
     5
 10
10.897495
 20
-99.91496
 30
0.0
 11
10.785681
 21
-99.908689
 31
0.0
  0
LINE
  5
C1EF
  8
DETAIL
  6
CONTINUOUS
 62
     5
 10
10.742975
 20
-99.904477
 30
0.0
 11
10.762255
 21
-99.905402
 31
0.0
  0
LINE
  5
C1F0
  8
DETAIL
  6
CONTINUOUS
 62
     5
 10
10.879429
 20
-99.911305
 30
0.0
 11
10.897495
 21
-99.91496
 31
0.0
  0
LINE
  5
C1F1
  8
DETAIL
  6
CONTINUOUS
 62
     5
 10
10.831472
 20
-99.907662
 30
0.0
 11
10.879429
 21
-99.911305
 31
0.0
  0
LINE
  5
C1F2
  8
DETAIL
  6
CONTINUOUS
 62
     5
 10
10.762255
 20
-99.905402
 30
0.0
 11
10.831472
 21
-99.907662
 31
0.0
  0
LINE
  5
C1F3
  8
DETAIL
  6
CONTINUOUS
 62
     5
 10
10.71814
 20
-99.903432
 30
0.0
 11
10.742975
 21
-99.904477
 31
0.0
  0
LINE
  5
C1F4
  8
DETAIL
  6
CONTINUOUS
 62
     5
 10
10.670763
 20
-99.901713
 30
0.0
 11
10.71814
 21
-99.903432
 31
0.0
  0
LINE
  5
C1F5
  8
DETAIL
  6
CONTINUOUS
 62
     5
 10
10.703693
 20
-99.90287599999999
 30
0.0
 11
10.753507
 21
-99.90401899999999
 31
0.0
  0
LINE
  5
C1F6
  8
DETAIL
  6
CONTINUOUS
 62
     5
 10
10.611351
 20
-99.89987099999999
 30
0.0
 11
10.670763
 21
-99.901713
 31
0.0
  0
LINE
  5
C1F7
  8
DETAIL
  6
CONTINUOUS
 62
     5
 10
10.513362
 20
-99.897303
 30
0.0
 11
10.611351
 21
-99.89987099999999
 31
0.0
  0
LINE
  5
C1F8
  8
DETAIL
  6
CONTINUOUS
 62
     5
 10
10.588882
 20
-99.899239
 30
0.0
 11
10.645884
 21
-99.90041599999999
 31
0.0
  0
LINE
  5
C1F9
  8
DETAIL
  6
CONTINUOUS
 62
     5
 10
10.359914
 20
-99.89399
 30
0.0
 11
10.513362
 21
-99.897303
 31
0.0
  0
LINE
  5
C1FA
  8
DETAIL
  6
CONTINUOUS
 62
     5
 10
10.508493
 20
-99.896881
 30
0.0
 11
10.513362
 21
-99.897303
 31
0.0
  0
LINE
  5
C1FB
  8
DETAIL
  6
CONTINUOUS
 62
     5
 10
10.485455
 20
-99.896647
 30
0.0
 11
10.508493
 21
-99.896881
 31
0.0
  0
LINE
  5
C1FC
  8
DETAIL
  6
CONTINUOUS
 62
     5
 10
10.342599
 20
-99.893435
 30
0.0
 11
10.359914
 21
-99.89399
 31
0.0
  0
LINE
  5
C1FD
  8
DETAIL
  6
CONTINUOUS
 62
     5
 10
10.086182
 20
-99.88929
 30
0.0
 11
10.359914
 21
-99.89399
 31
0.0
  0
LINE
  5
C1FE
  8
DETAIL
  6
CONTINUOUS
 62
     5
 10
9.574843
 20
-99.882739
 30
0.0
 11
10.086182
 21
-99.88929
 31
0.0
  0
LINE
  5
C1FF
  8
DETAIL
  6
CONTINUOUS
 62
     5
 10
8.45795
 20
-99.873362
 30
0.0
 11
9.574843
 21
-99.882739
 31
0.0
  0
LINE
  5
C200
  8
DETAIL
  6
CONTINUOUS
 62
     5
 10
6.782136
 20
-99.86579499999999
 30
0.0
 11
8.45795
 21
-99.873362
 31
0.0
  0
LINE
  5
C201
  8
DETAIL
  6
CONTINUOUS
 62
     5
 10
34.952474
 20
-100.000017
 30
0.0
 11
34.453153
 21
-100.000017
 31
0.0
  0
LINE
  5
C202
  8
DETAIL
  6
CONTINUOUS
 62
     5
 10
34.453153
 20
-99.98957
 30
0.0
 11
34.453153
 21
-99.911135
 31
0.0
  0
LINE
  5
C203
  8
DETAIL
  6
CONTINUOUS
 62
     5
 10
33.953832
 20
-99.993928
 30
0.0
 11
33.953832
 21
-99.90677699999999
 31
0.0
  0
LINE
  5
C204
  8
DETAIL
  6
CONTINUOUS
 62
     5
 10
34.349924
 20
-99.90848299999999
 30
0.0
 11
34.257762
 21
-99.90767799999999
 31
0.0
  0
LINE
  5
C205
  8
DETAIL
  6
CONTINUOUS
 62
     5
 10
34.386254
 20
-99.908956
 30
0.0
 11
34.349924
 21
-99.90848299999999
 31
0.0
  0
LINE
  5
C206
  8
DETAIL
  6
CONTINUOUS
 62
     5
 10
34.415093
 20
-99.90946799999999
 30
0.0
 11
34.386254
 21
-99.908956
 31
0.0
  0
LINE
  5
C207
  8
DETAIL
  6
CONTINUOUS
 62
     5
 10
34.436139
 20
-99.910007
 30
0.0
 11
34.415093
 21
-99.90946799999999
 31
0.0
  0
LINE
  5
C208
  8
DETAIL
  6
CONTINUOUS
 62
     5
 10
34.448755
 20
-99.910561
 30
0.0
 11
34.436139
 21
-99.910007
 31
0.0
  0
LINE
  5
C209
  8
DETAIL
  6
CONTINUOUS
 62
     5
 10
34.453153
 20
-99.911135
 30
0.0
 11
34.448755
 21
-99.910561
 31
0.0
  0
LINE
  5
C20A
  8
DETAIL
  6
CONTINUOUS
 62
     5
 10
34.257762
 20
-99.90767799999999
 30
0.0
 11
34.019548
 21
-99.90681599999999
 31
0.0
  0
LINE
  5
C20B
  8
DETAIL
  6
CONTINUOUS
 62
     5
 10
34.14489
 20
-99.993596
 30
0.0
 11
34.306902
 21
-99.992651
 31
0.0
  0
LINE
  5
C20C
  8
DETAIL
  6
CONTINUOUS
 62
     5
 10
34.306902
 20
-99.992651
 30
0.0
 11
34.386254
 21
-99.991749
 31
0.0
  0
LINE
  5
C20D
  8
DETAIL
  6
CONTINUOUS
 62
     5
 10
34.448755
 20
-99.990144
 30
0.0
 11
34.453153
 21
-99.98957
 31
0.0
  0
LINE
  5
C20E
  8
DETAIL
  6
CONTINUOUS
 62
     5
 10
34.436139
 20
-99.990698
 30
0.0
 11
34.448755
 21
-99.990144
 31
0.0
  0
LINE
  5
C20F
  8
DETAIL
  6
CONTINUOUS
 62
     5
 10
34.415093
 20
-99.991238
 30
0.0
 11
34.436139
 21
-99.990698
 31
0.0
  0
LINE
  5
C210
  8
DETAIL
  6
CONTINUOUS
 62
     5
 10
34.386254
 20
-99.991749
 30
0.0
 11
34.415093
 21
-99.991238
 31
0.0
  0
LINE
  5
C211
  8
DETAIL
  6
CONTINUOUS
 62
     5
 10
34.019548
 20
-99.90681599999999
 30
0.0
 11
20.281106
 21
-99.90711
 31
0.0
  0
LINE
  5
C212
  8
DETAIL
  6
CONTINUOUS
 62
     5
 10
20.406447
 20
-99.993889
 30
0.0
 11
34.14489
 21
-99.993596
 31
0.0
  0
LINE
  5
C213
  8
DETAIL
  6
CONTINUOUS
 62
     5
 10
34.453153
 20
-100.000005
 30
0.0
 11
19.972842
 21
-100.000017
 31
0.0
  0
LINE
  5
C214
  8
DETAIL
  6
CONTINUOUS
 62
     5
 10
20.472164
 20
-99.993928
 30
0.0
 11
20.472164
 21
-99.90677699999999
 31
0.0
  0
LINE
  5
C215
  8
DETAIL
  6
CONTINUOUS
 62
     5
 10
19.972842
 20
-99.911135
 30
0.0
 11
19.972842
 21
-99.98957
 31
0.0
  0
LINE
  5
C216
  8
DETAIL
  6
CONTINUOUS
 62
     5
 10
19.977241
 20
-99.990144
 30
0.0
 11
19.989857
 21
-99.990698
 31
0.0
  0
LINE
  5
C217
  8
DETAIL
  6
CONTINUOUS
 62
     5
 10
19.972842
 20
-99.98957
 30
0.0
 11
19.977241
 21
-99.990144
 31
0.0
  0
LINE
  5
C218
  8
DETAIL
  6
CONTINUOUS
 62
     5
 10
20.076072
 20
-99.992223
 30
0.0
 11
20.168234
 21
-99.993027
 31
0.0
  0
LINE
  5
C219
  8
DETAIL
  6
CONTINUOUS
 62
     5
 10
20.039741
 20
-99.991749
 30
0.0
 11
20.076072
 21
-99.992223
 31
0.0
  0
LINE
  5
C21A
  8
DETAIL
  6
CONTINUOUS
 62
     5
 10
20.010903
 20
-99.991238
 30
0.0
 11
20.039741
 21
-99.991749
 31
0.0
  0
LINE
  5
C21B
  8
DETAIL
  6
CONTINUOUS
 62
     5
 10
19.989857
 20
-99.990698
 30
0.0
 11
20.010903
 21
-99.991238
 31
0.0
  0
LINE
  5
C21C
  8
DETAIL
  6
CONTINUOUS
 62
     5
 10
20.168234
 20
-99.993027
 30
0.0
 11
20.406447
 21
-99.993889
 31
0.0
  0
LINE
  5
C21D
  8
DETAIL
  6
CONTINUOUS
 62
     5
 10
20.281106
 20
-99.90711
 30
0.0
 11
20.119094
 21
-99.90805399999999
 31
0.0
  0
LINE
  5
C21E
  8
DETAIL
  6
CONTINUOUS
 62
     5
 10
20.119094
 20
-99.90805399999999
 30
0.0
 11
20.039741
 21
-99.908956
 31
0.0
  0
LINE
  5
C21F
  8
DETAIL
  6
CONTINUOUS
 62
     5
 10
19.977241
 20
-99.910561
 30
0.0
 11
19.972842
 21
-99.911135
 31
0.0
  0
LINE
  5
C220
  8
DETAIL
  6
CONTINUOUS
 62
     5
 10
19.989857
 20
-99.910007
 30
0.0
 11
19.977241
 21
-99.910561
 31
0.0
  0
LINE
  5
C221
  8
DETAIL
  6
CONTINUOUS
 62
     5
 10
20.010903
 20
-99.90946799999999
 30
0.0
 11
19.989857
 21
-99.910007
 31
0.0
  0
LINE
  5
C222
  8
DETAIL
  6
CONTINUOUS
 62
     5
 10
20.039741
 20
-99.908956
 30
0.0
 11
20.010903
 21
-99.90946799999999
 31
0.0
  0
LINE
  5
C223
  8
DETAIL
  6
CONTINUOUS
 62
     5
 10
35.451795
 20
-99.993928
 30
0.0
 11
35.451795
 21
-99.90677699999999
 31
0.0
  0
LINE
  5
C224
  8
DETAIL
  6
CONTINUOUS
 62
     5
 10
34.952474
 20
-99.911135
 30
0.0
 11
34.952474
 21
-99.98957
 31
0.0
  0
LINE
  5
C225
  8
DETAIL
  6
CONTINUOUS
 62
     5
 10
34.956873
 20
-99.990144
 30
0.0
 11
34.969489
 21
-99.990698
 31
0.0
  0
LINE
  5
C226
  8
DETAIL
  6
CONTINUOUS
 62
     5
 10
34.952474
 20
-99.98957
 30
0.0
 11
34.956873
 21
-99.990144
 31
0.0
  0
LINE
  5
C227
  8
DETAIL
  6
CONTINUOUS
 62
     5
 10
35.055704
 20
-99.992223
 30
0.0
 11
35.147866
 21
-99.993027
 31
0.0
  0
LINE
  5
C228
  8
DETAIL
  6
CONTINUOUS
 62
     5
 10
35.019373
 20
-99.991749
 30
0.0
 11
35.055704
 21
-99.992223
 31
0.0
  0
LINE
  5
C229
  8
DETAIL
  6
CONTINUOUS
 62
     5
 10
34.990535
 20
-99.991238
 30
0.0
 11
35.019373
 21
-99.991749
 31
0.0
  0
LINE
  5
C22A
  8
DETAIL
  6
CONTINUOUS
 62
     5
 10
34.969489
 20
-99.990698
 30
0.0
 11
34.990535
 21
-99.991238
 31
0.0
  0
LINE
  5
C22B
  8
DETAIL
  6
CONTINUOUS
 62
     5
 10
35.147866
 20
-99.993027
 30
0.0
 11
35.386079
 21
-99.993889
 31
0.0
  0
LINE
  5
C22C
  8
DETAIL
  6
CONTINUOUS
 62
     5
 10
35.260738
 20
-99.90711
 30
0.0
 11
35.098726
 21
-99.90805399999999
 31
0.0
  0
LINE
  5
C22D
  8
DETAIL
  6
CONTINUOUS
 62
     5
 10
35.098726
 20
-99.90805399999999
 30
0.0
 11
35.019373
 21
-99.908956
 31
0.0
  0
LINE
  5
C22E
  8
DETAIL
  6
CONTINUOUS
 62
     5
 10
34.956873
 20
-99.910561
 30
0.0
 11
34.952474
 21
-99.911135
 31
0.0
  0
LINE
  5
C22F
  8
DETAIL
  6
CONTINUOUS
 62
     5
 10
34.969489
 20
-99.910007
 30
0.0
 11
34.956873
 21
-99.910561
 31
0.0
  0
LINE
  5
C230
  8
DETAIL
  6
CONTINUOUS
 62
     5
 10
34.990535
 20
-99.90946799999999
 30
0.0
 11
34.969489
 21
-99.910007
 31
0.0
  0
LINE
  5
C231
  8
DETAIL
  6
CONTINUOUS
 62
     5
 10
35.019373
 20
-99.908956
 30
0.0
 11
34.990535
 21
-99.90946799999999
 31
0.0
  0
LINE
  5
C232
  8
DETAIL
  6
CONTINUOUS
 62
     5
 10
88.502078
 20
-100.000017
 30
0.0
 11
66.909022
 21
-100.000017
 31
0.0
  0
LINE
  5
C233
  8
DETAIL
  6
CONTINUOUS
 62
     5
 10
66.909022
 20
-99.98957
 30
0.0
 11
66.909022
 21
-99.911135
 31
0.0
  0
LINE
  5
C234
  8
DETAIL
  6
CONTINUOUS
 62
     5
 10
66.409701
 20
-99.993928
 30
0.0
 11
66.409701
 21
-99.90677699999999
 31
0.0
  0
LINE
  5
C235
  8
DETAIL
  6
CONTINUOUS
 62
     5
 10
66.805793
 20
-99.90848299999999
 30
0.0
 11
66.713631
 21
-99.90767799999999
 31
0.0
  0
LINE
  5
C236
  8
DETAIL
  6
CONTINUOUS
 62
     5
 10
66.842124
 20
-99.908956
 30
0.0
 11
66.805793
 21
-99.90848299999999
 31
0.0
  0
LINE
  5
C237
  8
DETAIL
  6
CONTINUOUS
 62
     5
 10
66.870962
 20
-99.90946799999999
 30
0.0
 11
66.842124
 21
-99.908956
 31
0.0
  0
LINE
  5
C238
  8
DETAIL
  6
CONTINUOUS
 62
     5
 10
66.892008
 20
-99.910007
 30
0.0
 11
66.870962
 21
-99.90946799999999
 31
0.0
  0
LINE
  5
C239
  8
DETAIL
  6
CONTINUOUS
 62
     5
 10
66.904624
 20
-99.910561
 30
0.0
 11
66.892008
 21
-99.910007
 31
0.0
  0
LINE
  5
C23A
  8
DETAIL
  6
CONTINUOUS
 62
     5
 10
66.909022
 20
-99.911135
 30
0.0
 11
66.904624
 21
-99.910561
 31
0.0
  0
LINE
  5
C23B
  8
DETAIL
  6
CONTINUOUS
 62
     5
 10
66.713631
 20
-99.90767799999999
 30
0.0
 11
66.475418
 21
-99.90681599999999
 31
0.0
  0
LINE
  5
C23C
  8
DETAIL
  6
CONTINUOUS
 62
     5
 10
66.600759
 20
-99.993596
 30
0.0
 11
66.762771
 21
-99.992651
 31
0.0
  0
LINE
  5
C23D
  8
DETAIL
  6
CONTINUOUS
 62
     5
 10
66.762771
 20
-99.992651
 30
0.0
 11
66.842124
 21
-99.991749
 31
0.0
  0
LINE
  5
C23E
  8
DETAIL
  6
CONTINUOUS
 62
     5
 10
66.904624
 20
-99.990144
 30
0.0
 11
66.909022
 21
-99.98957
 31
0.0
  0
LINE
  5
C23F
  8
DETAIL
  6
CONTINUOUS
 62
     5
 10
66.892008
 20
-99.990698
 30
0.0
 11
66.904624
 21
-99.990144
 31
0.0
  0
LINE
  5
C240
  8
DETAIL
  6
CONTINUOUS
 62
     5
 10
66.870962
 20
-99.991238
 30
0.0
 11
66.892008
 21
-99.990698
 31
0.0
  0
LINE
  5
C241
  8
DETAIL
  6
CONTINUOUS
 62
     5
 10
66.842124
 20
-99.991749
 30
0.0
 11
66.870962
 21
-99.991238
 31
0.0
  0
LINE
  5
C242
  8
DETAIL
  6
CONTINUOUS
 62
     5
 10
88.648594
 20
-99.99282099999999
 30
0.0
 11
88.502078
 21
-100.000005
 31
0.0
  0
LINE
  5
C243
  8
DETAIL
  6
CONTINUOUS
 62
     5
 10
88.793752
 20
-99.97133
 30
0.0
 11
88.648594
 21
-99.99282099999999
 31
0.0
  0
LINE
  5
C244
  8
DETAIL
  6
CONTINUOUS
 62
     5
 10
88.936129
 20
-99.935735
 30
0.0
 11
88.793752
 21
-99.97133
 31
0.0
  0
LINE
  5
C245
  8
DETAIL
  6
CONTINUOUS
 62
     5
 10
89.074439
 20
-99.886337
 30
0.0
 11
88.936129
 21
-99.935735
 31
0.0
  0
LINE
  5
C246
  8
DETAIL
  6
CONTINUOUS
 62
     5
 10
89.207464
 20
-99.823516
 30
0.0
 11
89.074439
 21
-99.886337
 31
0.0
  0
LINE
  5
C247
  8
DETAIL
  6
CONTINUOUS
 62
     5
 10
89.333747
 20
-99.747907
 30
0.0
 11
89.207464
 21
-99.823516
 31
0.0
  0
LINE
  5
C248
  8
DETAIL
  6
CONTINUOUS
 62
     5
 10
89.451947
 20
-99.660314
 30
0.0
 11
89.333747
 21
-99.747907
 31
0.0
  0
LINE
  5
C249
  8
DETAIL
  6
CONTINUOUS
 62
     5
 10
89.560977
 20
-99.561555
 30
0.0
 11
89.451947
 21
-99.660314
 31
0.0
  0
LINE
  5
C24A
  8
DETAIL
  6
CONTINUOUS
 62
     5
 10
89.659795
 20
-99.452574
 30
0.0
 11
89.560977
 21
-99.561555
 31
0.0
  0
LINE
  5
C24B
  8
DETAIL
  6
CONTINUOUS
 62
     5
 10
89.747449
 20
-99.334423
 30
0.0
 11
89.659795
 21
-99.452574
 31
0.0
  0
LINE
  5
C24C
  8
DETAIL
  6
CONTINUOUS
 62
     5
 10
89.8231
 20
-99.208224
 30
0.0
 11
89.747449
 21
-99.334423
 31
0.0
  0
LINE
  5
C24D
  8
DETAIL
  6
CONTINUOUS
 62
     5
 10
89.885998
 20
-99.075229
 30
0.0
 11
89.8231
 21
-99.208224
 31
0.0
  0
LINE
  5
C24E
  8
DETAIL
  6
CONTINUOUS
 62
     5
 10
89.935532
 20
-98.936751
 30
0.0
 11
89.885998
 21
-99.075229
 31
0.0
  0
LINE
  5
C24F
  8
DETAIL
  6
CONTINUOUS
 62
     5
 10
89.971237
 20
-98.794139
 30
0.0
 11
89.935532
 21
-98.936751
 31
0.0
  0
LINE
  5
C250
  8
DETAIL
  6
CONTINUOUS
 62
     5
 10
89.992782
 20
-98.64878999999999
 30
0.0
 11
89.971237
 21
-98.794139
 31
0.0
  0
LINE
  5
C251
  8
DETAIL
  6
CONTINUOUS
 62
     5
 10
89.999984
 20
-98.502099
 30
0.0
 11
89.992782
 21
-98.64878999999999
 31
0.0
  0
LINE
  5
C252
  8
DETAIL
  6
CONTINUOUS
 62
     5
 10
88.858594
 20
-98.275633
 30
0.0
 11
88.835238
 21
-98.29330999999999
 31
0.0
  0
LINE
  5
C253
  8
DETAIL
  6
CONTINUOUS
 62
     5
 10
88.87992
 20
-98.256046
 30
0.0
 11
88.858594
 21
-98.275633
 31
0.0
  0
LINE
  5
C254
  8
DETAIL
  6
CONTINUOUS
 62
     5
 10
88.899302
 20
-98.234444
 30
0.0
 11
88.87992
 21
-98.256046
 31
0.0
  0
LINE
  5
C255
  8
DETAIL
  6
CONTINUOUS
 62
     5
 10
88.916485
 20
-98.21114
 30
0.0
 11
88.899302
 21
-98.234444
 31
0.0
  0
LINE
  5
C256
  8
DETAIL
  6
CONTINUOUS
 62
     5
 10
88.931273
 20
-98.18633
 30
0.0
 11
88.916485
 21
-98.21114
 31
0.0
  0
LINE
  5
C257
  8
DETAIL
  6
CONTINUOUS
 62
     5
 10
88.943566
 20
-98.160265
 30
0.0
 11
88.931273
 21
-98.18633
 31
0.0
  0
LINE
  5
C258
  8
DETAIL
  6
CONTINUOUS
 62
     5
 10
88.953217
 20
-98.13317599999999
 30
0.0
 11
88.943566
 21
-98.160265
 31
0.0
  0
LINE
  5
C259
  8
DETAIL
  6
CONTINUOUS
 62
     5
 10
88.960178
 20
-98.10531499999999
 30
0.0
 11
88.953217
 21
-98.13317599999999
 31
0.0
  0
LINE
  5
C25A
  8
DETAIL
  6
CONTINUOUS
 62
     5
 10
88.96434
 20
-98.077052
 30
0.0
 11
88.960178
 21
-98.10531499999999
 31
0.0
  0
LINE
  5
C25B
  8
DETAIL
  6
CONTINUOUS
 62
     5
 10
88.965741
 20
-98.04826299999999
 30
0.0
 11
88.96434
 21
-98.077052
 31
0.0
  0
LINE
  5
C25C
  8
DETAIL
  6
CONTINUOUS
 62
     5
 10
87.165852
 20
-97.79966
 30
0.0
 11
88.835238
 21
-98.29330999999999
 31
0.0
  0
LINE
  5
C25D
  8
DETAIL
  6
CONTINUOUS
 62
     5
 10
85.470225
 20
-97.334902
 30
0.0
 11
87.165852
 21
-97.79966
 31
0.0
  0
LINE
  5
C25E
  8
DETAIL
  6
CONTINUOUS
 62
     5
 10
83.749757
 20
-96.898838
 30
0.0
 11
85.470225
 21
-97.334902
 31
0.0
  0
ARC
  5
C25F
  8
DETAIL
  6
DASHED
 62
     5
 10
-12.650042
 20
16.644495
 30
0.0
 40
21.846976
 50
244.172088
 51
268.4134300000001
  0
ARC
  5
C260
  8
DETAIL
  6
DASHED
 62
     5
 10
-29.779864
 20
-1.007138
 30
0.0
 40
34.44509
 50
279.817754
 51
300.0
  0
ARC
  5
C261
  8
DETAIL
  6
DASHED
 62
     5
 10
4.563156
 20
23.769171
 30
0.0
 40
24.516611
 50
201.959088
 51
227.808088
  0
LINE
  5
C262
  8
DETAIL
  6
CONTINUOUS
 62
     5
 10
-74.895769
 20
-95.213724
 30
0.0
 11
74.895768
 21
-95.213724
 31
0.0
  0
LINE
  5
C263
  8
DETAIL
  6
CONTINUOUS
 62
     5
 10
-74.943257
 20
-67.807181
 30
0.0
 11
74.898159
 21
-67.807046
 31
0.0
  0
LINE
  5
C264
  8
DETAIL
  6
CONTINUOUS
 62
     5
 10
74.533171
 20
-69.767427
 30
0.0
 11
-74.5332
 21
-69.767427
 31
0.0
  0
LINE
  5
C265
  8
DETAIL
  6
CONTINUOUS
 62
     5
 10
-74.898159
 20
-75.910401
 30
0.0
 11
74.898159
 21
-75.910401
 31
0.0
  0
LINE
  5
C266
  8
DETAIL
  6
CONTINUOUS
 62
     5
 10
-19.473042
 20
-67.825144
 30
0.0
 11
19.473042
 21
-67.825144
 31
0.0
  0
LINE
  5
C267
  8
DETAIL
  6
CONTINUOUS
 62
     5
 10
19.972842
 20
-67.921264
 30
0.0
 11
-19.972842
 21
-67.921264
 31
0.0
  0
ARC
  5
C268
  8
DETAIL
  6
DASHED
 62
     5
 10
-0.043885
 20
-0.032081
 30
0.0
 40
42.291004
 50
165.95071
 51
235.64997
  0
LINE
  5
C269
  8
DETAIL
  6
CONTINUOUS
 62
     5
 10
-80.237905
 20
-96.112905
 30
0.0
 11
-78.465598
 21
-95.766307
 31
0.0
  0
ARC
  5
C26A
  8
DETAIL
  6
CONTINUOUS
 62
     5
 10
-53.266066
 20
0.9965780000000001
 30
0.0
 40
79.89137
 50
242.625896
 51
254.289978
  0
LINE
  5
C26B
  8
DETAIL
  6
CONTINUOUS
 62
     5
 10
-79.930087
 20
-67.886225
 30
0.0
 11
-78.136003
 21
-68.55806
 31
0.0
  0
LINE
  5
C26C
  8
DETAIL
  6
CONTINUOUS
 62
     5
 10
-79.60089
 20
-66.183888
 30
0.0
 11
-77.276545
 21
-67.033174
 31
0.0
  0
LINE
  5
C26D
  8
DETAIL
  6
CONTINUOUS
 62
     5
 10
-89.999996
 20
-63.201221
 30
0.0
 11
-87.011506
 21
-64.746224
 31
0.0
  0
LINE
  5
C26E
  8
DETAIL
  6
CONTINUOUS
 62
     5
 10
-86.489163
 20
-63.182316
 30
0.0
 11
-84.211039
 21
-64.259387
 31
0.0
  0
LINE
  5
C26F
  8
DETAIL
  6
CONTINUOUS
 62
     5
 10
-81.997586
 20
-96.489696
 30
0.0
 11
-80.237905
 21
-96.112905
 31
0.0
  0
LINE
  5
C270
  8
DETAIL
  6
CONTINUOUS
 62
     5
 10
-81.71671
 20
-67.169326
 30
0.0
 11
-79.930087
 21
-67.886225
 31
0.0
  0
LINE
  5
C271
  8
DETAIL
  6
CONTINUOUS
 62
     5
 10
-83.493924
 20
-66.40709
 30
0.0
 11
-81.71671
 21
-67.169326
 31
0.0
  0
LINE
  5
C272
  8
DETAIL
  6
CONTINUOUS
 62
     5
 10
-85.259816
 20
-65.59944899999999
 30
0.0
 11
-83.493924
 21
-66.40709
 31
0.0
  0
LINE
  5
C273
  8
DETAIL
  6
CONTINUOUS
 62
     5
 10
-87.011506
 20
-64.746224
 30
0.0
 11
-85.259816
 21
-65.59944899999999
 31
0.0
  0
LINE
  5
C274
  8
DETAIL
  6
CONTINUOUS
 62
     5
 10
-89.656047
 20
-70.12585299999999
 30
0.0
 11
-89.670851
 21
-70.11827699999999
 31
0.0
  0
LINE
  5
C275
  8
DETAIL
  6
CONTINUOUS
 62
     5
 10
-81.913657
 20
-65.259601
 30
0.0
 11
-79.60089
 21
-66.183888
 31
0.0
  0
LINE
  5
C276
  8
DETAIL
  6
CONTINUOUS
 62
     5
 10
-84.211039
 20
-64.259387
 30
0.0
 11
-81.913657
 21
-65.259601
 31
0.0
  0
LINE
  5
C277
  8
DETAIL
  6
CONTINUOUS
 62
     5
 10
-89.163324
 20
-61.804713
 30
0.0
 11
-89.999996
 21
-61.350662
 31
0.0
  0
LINE
  5
C278
  8
DETAIL
  6
CONTINUOUS
 62
     5
 10
-88.745111
 20
-62.028665
 30
0.0
 11
-89.999996
 21
-61.356677
 31
0.0
  0
LINE
  5
C279
  8
DETAIL
  6
CONTINUOUS
 62
     5
 10
-88.74511
 20
-62.028665
 30
0.0
 11
-86.489163
 21
-63.182316
 31
0.0
  0
ARC
  5
C27A
  8
DETAIL
  6
CONTINUOUS
 62
     5
 10
-79.537069
 20
-35.910492
 30
0.0
 40
10.615419
 50
183.9325599999999
 51
189.723299
  0
ARC
  5
C27B
  8
DETAIL
  6
CONTINUOUS
 62
     5
 10
-79.537069
 20
-35.910492
 30
0.0
 40
10.615419
 50
170.276701
 51
176.0674400000001
  0
LINE
  5
C27C
  8
DETAIL
  6
CONTINUOUS
 62
     5
 10
-90.90998
 20
-36.25798099999999
 30
0.0
 11
-90.368393
 21
-36.365038
 31
0.0
  0
LINE
  5
C27D
  8
DETAIL
  6
CONTINUOUS
 62
     5
 10
-90.368393
 20
-35.45594699999999
 30
0.0
 11
-90.90998
 21
-35.563004
 31
0.0
  0
ARC
  5
C27E
  8
DETAIL
  6
CONTINUOUS
 62
     5
 10
-90.851856
 20
-35.963941
 30
0.0
 40
0.299729
 50
180.0
 51
258.8183159999991
  0
ARC
  5
C27F
  8
DETAIL
  6
CONTINUOUS
 62
     5
 10
-90.851856
 20
-35.857043
 30
0.0
 40
0.299729
 50
101.1816840000009
 51
180.0
  0
LINE
  5
C280
  8
DETAIL
  6
CONTINUOUS
 62
     5
 10
-91.151586
 20
-35.857043
 30
0.0
 11
-91.151586
 21
-35.963941
 31
0.0
  0
ARC
  5
C281
  8
DETAIL
  6
CONTINUOUS
 62
     5
 10
-90.426517
 20
-36.65907799999999
 30
0.0
 40
0.299729
 50
3.932559999999589
 51
78.81831599999907
  0
ARC
  5
C282
  8
DETAIL
  6
CONTINUOUS
 62
     5
 10
-90.426517
 20
-35.161907
 30
0.0
 40
0.299729
 50
281.1816840000009
 51
356.0674400000004
  0
LINE
  5
C283
  8
DETAIL
  6
DASHED
 62
     5
 10
-38.497654
 20
-85.917643
 30
0.0
 11
-38.626218
 21
-84.69103299999999
 31
0.0
  0
LINE
  5
C284
  8
DETAIL
  6
DASHED
 62
     5
 10
-38.626218
 20
-84.69103299999999
 30
0.0
 11
-39.006968
 21
-83.511562
 31
0.0
  0
LINE
  5
C285
  8
DETAIL
  6
DASHED
 62
     5
 10
-39.006968
 20
-83.511562
 30
0.0
 11
-39.625274
 21
-82.424555
 31
0.0
  0
LINE
  5
C286
  8
DETAIL
  6
DASHED
 62
     5
 10
-39.625274
 20
-82.424555
 30
0.0
 11
-40.457374
 21
-81.471786
 31
0.0
  0
LINE
  5
C287
  8
DETAIL
  6
DASHED
 62
     5
 10
-40.457374
 20
-81.471786
 30
0.0
 11
-41.47129
 21
-80.68986799999999
 31
0.0
  0
LINE
  5
C288
  8
DETAIL
  6
DASHED
 62
     5
 10
-41.47129
 20
-80.68986799999999
 30
0.0
 11
-42.628059
 21
-80.10884999999999
 31
0.0
  0
LINE
  5
C289
  8
DETAIL
  6
DASHED
 62
     5
 10
-42.628059
 20
-80.10884999999999
 30
0.0
 11
-43.883226
 21
-79.75106199999999
 31
0.0
  0
LINE
  5
C28A
  8
DETAIL
  6
DASHED
 62
     5
 10
-43.883226
 20
-79.75106199999999
 30
0.0
 11
-45.188556
 21
-79.630251
 31
0.0
  0
LINE
  5
C28B
  8
DETAIL
  6
DASHED
 62
     5
 10
-45.188556
 20
-79.630251
 30
0.0
 11
-46.493886
 21
-79.75106199999999
 31
0.0
  0
LINE
  5
C28C
  8
DETAIL
  6
DASHED
 62
     5
 10
-46.493886
 20
-79.75106199999999
 30
0.0
 11
-47.749054
 21
-80.10884999999999
 31
0.0
  0
LINE
  5
C28D
  8
DETAIL
  6
DASHED
 62
     5
 10
-47.749054
 20
-80.10884999999999
 30
0.0
 11
-48.905822
 21
-80.68986799999999
 31
0.0
  0
LINE
  5
C28E
  8
DETAIL
  6
DASHED
 62
     5
 10
-48.905822
 20
-80.68986799999999
 30
0.0
 11
-49.919738
 21
-81.471786
 31
0.0
  0
LINE
  5
C28F
  8
DETAIL
  6
DASHED
 62
     5
 10
-49.919738
 20
-81.471786
 30
0.0
 11
-50.751838
 21
-82.424555
 31
0.0
  0
LINE
  5
C290
  8
DETAIL
  6
DASHED
 62
     5
 10
-50.751838
 20
-82.424555
 30
0.0
 11
-51.370144
 21
-83.511562
 31
0.0
  0
LINE
  5
C291
  8
DETAIL
  6
DASHED
 62
     5
 10
-51.370144
 20
-83.511562
 30
0.0
 11
-51.750895
 21
-84.69103299999999
 31
0.0
  0
LINE
  5
C292
  8
DETAIL
  6
DASHED
 62
     5
 10
-51.750895
 20
-84.69103299999999
 30
0.0
 11
-51.879458
 21
-85.917643
 31
0.0
  0
LINE
  5
C293
  8
DETAIL
  6
DASHED
 62
     5
 10
-51.879458
 20
-85.917643
 30
0.0
 11
-51.750895
 21
-87.144252
 31
0.0
  0
LINE
  5
C294
  8
DETAIL
  6
DASHED
 62
     5
 10
-51.750895
 20
-87.144252
 30
0.0
 11
-51.370144
 21
-88.323723
 31
0.0
  0
LINE
  5
C295
  8
DETAIL
  6
DASHED
 62
     5
 10
-51.370144
 20
-88.323723
 30
0.0
 11
-50.751838
 21
-89.41073
 31
0.0
  0
LINE
  5
C296
  8
DETAIL
  6
DASHED
 62
     5
 10
-50.751838
 20
-89.41073
 30
0.0
 11
-49.919738
 21
-90.3635
 31
0.0
  0
LINE
  5
C297
  8
DETAIL
  6
DASHED
 62
     5
 10
-49.919738
 20
-90.3635
 30
0.0
 11
-48.905822
 21
-91.14541799999999
 31
0.0
  0
LINE
  5
C298
  8
DETAIL
  6
DASHED
 62
     5
 10
-48.905822
 20
-91.14541799999999
 30
0.0
 11
-47.749054
 21
-91.726435
 31
0.0
  0
LINE
  5
C299
  8
DETAIL
  6
DASHED
 62
     5
 10
-47.749054
 20
-91.726435
 30
0.0
 11
-46.493886
 21
-92.08422399999999
 31
0.0
  0
LINE
  5
C29A
  8
DETAIL
  6
DASHED
 62
     5
 10
-46.493886
 20
-92.08422399999999
 30
0.0
 11
-45.188556
 21
-92.205034
 31
0.0
  0
LINE
  5
C29B
  8
DETAIL
  6
DASHED
 62
     5
 10
-45.188556
 20
-92.205034
 30
0.0
 11
-43.883226
 21
-92.08422399999999
 31
0.0
  0
LINE
  5
C29C
  8
DETAIL
  6
DASHED
 62
     5
 10
-43.883226
 20
-92.08422399999999
 30
0.0
 11
-42.628059
 21
-91.726435
 31
0.0
  0
LINE
  5
C29D
  8
DETAIL
  6
DASHED
 62
     5
 10
-42.628059
 20
-91.726435
 30
0.0
 11
-41.47129
 21
-91.14541799999999
 31
0.0
  0
LINE
  5
C29E
  8
DETAIL
  6
DASHED
 62
     5
 10
-41.47129
 20
-91.14541799999999
 30
0.0
 11
-40.457374
 21
-90.3635
 31
0.0
  0
LINE
  5
C29F
  8
DETAIL
  6
DASHED
 62
     5
 10
-40.457374
 20
-90.3635
 30
0.0
 11
-39.625274
 21
-89.41073
 31
0.0
  0
LINE
  5
C2A0
  8
DETAIL
  6
DASHED
 62
     5
 10
-39.625274
 20
-89.41073
 30
0.0
 11
-39.006968
 21
-88.323723
 31
0.0
  0
LINE
  5
C2A1
  8
DETAIL
  6
DASHED
 62
     5
 10
-39.006968
 20
-88.323723
 30
0.0
 11
-38.626218
 21
-87.144252
 31
0.0
  0
LINE
  5
C2A2
  8
DETAIL
  6
DASHED
 62
     5
 10
-38.626218
 20
-87.144252
 30
0.0
 11
-38.497654
 21
-85.917643
 31
0.0
  0
LINE
  5
C2A3
  8
DETAIL
  6
CONTINUOUS
 62
     5
 10
-72.900396
 20
-67.825144
 30
0.0
 11
-45.438696
 21
-67.825144
 31
0.0
  0
LINE
  5
C2A4
  8
DETAIL
  6
CONTINUOUS
 62
     5
 10
-73.400196
 20
-67.921264
 30
0.0
 11
-44.661835
 21
-67.921264
 31
0.0
  0
LINE
  5
C2A5
  8
DETAIL
  6
CONTINUOUS
 62
     5
 10
-62.165472
 20
-76.909044
 30
0.0
 11
-28.21164
 21
-76.909044
 31
0.0
  0
LINE
  5
C2A6
  8
DETAIL
  6
CONTINUOUS
 62
     5
 10
-28.21164
 20
-92.29699699999999
 30
0.0
 11
-62.165472
 21
-92.29699699999999
 31
0.0
  0
LINE
  5
C2A7
  8
DETAIL
  6
CONTINUOUS
 62
     5
 10
-70.903591
 20
-79.010414
 30
0.0
 11
-70.903591
 21
-84.990859
 31
0.0
  0
LINE
  5
C2A8
  8
DETAIL
  6
CONTINUOUS
 62
     5
 10
-73.899517
 20
-79.010414
 30
0.0
 11
-73.899517
 21
-84.990859
 31
0.0
  0
LINE
  5
C2A9
  8
DETAIL
  6
CONTINUOUS
 62
     5
 10
-74.898157
 20
-75.910401
 30
0.0
 11
-74.898157
 21
-95.164513
 31
0.0
  0
LINE
  5
C2AA
  8
DETAIL
  6
CONTINUOUS
 62
     5
 10
-62.165472
 20
-76.909044
 30
0.0
 11
-62.165472
 21
-92.29699699999999
 31
0.0
  0
LINE
  5
C2AB
  8
DETAIL
  6
CONTINUOUS
 62
     5
 10
-61.174703
 20
-80.070167
 30
0.0
 11
-61.088126
 21
-80.47090899999999
 31
0.0
  0
LINE
  5
C2AC
  8
DETAIL
  6
CONTINUOUS
 62
     5
 10
-73.899517
 20
-84.990859
 30
0.0
 11
-70.903591
 21
-84.990859
 31
0.0
  0
LINE
  5
C2AD
  8
DETAIL
  6
CONTINUOUS
 62
     5
 10
-76.685217
 20
-95.450104
 30
0.0
 11
-74.898157
 21
-95.164237
 31
0.0
  0
LINE
  5
C2AE
  8
DETAIL
  6
CONTINUOUS
 62
     5
 10
-78.465598
 20
-95.766307
 30
0.0
 11
-76.685217
 21
-95.450104
 31
0.0
  0
LINE
  5
C2AF
  8
DETAIL
  6
CONTINUOUS
 62
     5
 10
-74.898055
 20
-95.172828
 30
0.0
 11
-74.898157
 21
-95.164513
 31
0.0
  0
LINE
  5
C2B0
  8
DETAIL
  6
CONTINUOUS
 62
     5
 10
-74.897838
 20
-95.181096
 30
0.0
 11
-74.898055
 21
-95.172828
 31
0.0
  0
LINE
  5
C2B1
  8
DETAIL
  6
CONTINUOUS
 62
     5
 10
-74.897509
 20
-95.189317
 30
0.0
 11
-74.897838
 21
-95.181096
 31
0.0
  0
LINE
  5
C2B2
  8
DETAIL
  6
CONTINUOUS
 62
     5
 10
-74.897059
 20
-95.19749399999999
 30
0.0
 11
-74.897509
 21
-95.189317
 31
0.0
  0
LINE
  5
C2B3
  8
DETAIL
  6
CONTINUOUS
 62
     5
 10
-74.896478
 20
-95.20563
 30
0.0
 11
-74.897059
 21
-95.19749399999999
 31
0.0
  0
LINE
  5
C2B4
  8
DETAIL
  6
CONTINUOUS
 62
     5
 10
-74.895769
 20
-95.213724
 30
0.0
 11
-74.896478
 21
-95.20563
 31
0.0
  0
LINE
  5
C2B5
  8
DETAIL
  6
CONTINUOUS
 62
     5
 10
-61.881174
 20
-91.555241
 30
0.0
 11
-62.165472
 21
-92.29699699999999
 31
0.0
  0
LINE
  5
C2B6
  8
DETAIL
  6
CONTINUOUS
 62
     5
 10
-61.626255
 20
-90.80011999999999
 30
0.0
 11
-61.881174
 21
-91.555241
 31
0.0
  0
LINE
  5
C2B7
  8
DETAIL
  6
CONTINUOUS
 62
     5
 10
-61.400444
 20
-90.036163
 30
0.0
 11
-61.626255
 21
-90.80011999999999
 31
0.0
  0
LINE
  5
C2B8
  8
DETAIL
  6
CONTINUOUS
 62
     5
 10
-61.204557
 20
-89.265534
 30
0.0
 11
-61.400444
 21
-90.036163
 31
0.0
  0
LINE
  5
C2B9
  8
DETAIL
  6
CONTINUOUS
 62
     5
 10
-61.039396
 20
-88.490239
 30
0.0
 11
-61.204557
 21
-89.265534
 31
0.0
  0
LINE
  5
C2BA
  8
DETAIL
  6
CONTINUOUS
 62
     5
 10
-60.904732
 20
-87.713228
 30
0.0
 11
-61.039396
 21
-88.490239
 31
0.0
  0
LINE
  5
C2BB
  8
DETAIL
  6
CONTINUOUS
 62
     5
 10
-60.800819
 20
-86.930588
 30
0.0
 11
-60.904732
 21
-87.713228
 31
0.0
  0
LINE
  5
C2BC
  8
DETAIL
  6
CONTINUOUS
 62
     5
 10
-60.727003
 20
-86.16346899999999
 30
0.0
 11
-60.800819
 21
-86.930588
 31
0.0
  0
LINE
  5
C2BD
  8
DETAIL
  6
CONTINUOUS
 62
     5
 10
-60.684425
 20
-85.432369
 30
0.0
 11
-60.727003
 21
-86.16346899999999
 31
0.0
  0
LINE
  5
C2BE
  8
DETAIL
  6
CONTINUOUS
 62
     5
 10
-60.667948
 20
-84.73668099999999
 30
0.0
 11
-60.684425
 21
-85.432369
 31
0.0
  0
LINE
  5
C2BF
  8
DETAIL
  6
CONTINUOUS
 62
     5
 10
-60.673957
 20
-84.082837
 30
0.0
 11
-60.667948
 21
-84.73668099999999
 31
0.0
  0
LINE
  5
C2C0
  8
DETAIL
  6
CONTINUOUS
 62
     5
 10
-60.699022
 20
-83.467176
 30
0.0
 11
-60.673957
 21
-84.082837
 31
0.0
  0
LINE
  5
C2C1
  8
DETAIL
  6
CONTINUOUS
 62
     5
 10
-60.739239
 20
-82.887813
 30
0.0
 11
-60.699022
 21
-83.467176
 31
0.0
  0
LINE
  5
C2C2
  8
DETAIL
  6
CONTINUOUS
 62
     5
 10
-60.792423
 20
-82.34312899999999
 30
0.0
 11
-60.739239
 21
-82.887813
 31
0.0
  0
LINE
  5
C2C3
  8
DETAIL
  6
CONTINUOUS
 62
     5
 10
-60.855607
 20
-81.83089199999999
 30
0.0
 11
-60.792423
 21
-82.34312899999999
 31
0.0
  0
LINE
  5
C2C4
  8
DETAIL
  6
CONTINUOUS
 62
     5
 10
-60.927228
 20
-81.34945499999999
 30
0.0
 11
-60.855607
 21
-81.83089199999999
 31
0.0
  0
LINE
  5
C2C5
  8
DETAIL
  6
CONTINUOUS
 62
     5
 10
-61.005107
 20
-80.89667
 30
0.0
 11
-60.927228
 21
-81.34945499999999
 31
0.0
  0
LINE
  5
C2C6
  8
DETAIL
  6
CONTINUOUS
 62
     5
 10
-61.088126
 20
-80.47090899999999
 30
0.0
 11
-61.005107
 21
-80.89667
 31
0.0
  0
LINE
  5
C2C7
  8
DETAIL
  6
CONTINUOUS
 62
     5
 10
-73.899517
 20
-79.010414
 30
0.0
 11
-70.903591
 21
-79.010414
 31
0.0
  0
LINE
  5
C2C8
  8
DETAIL
  6
CONTINUOUS
 62
     5
 10
-74.898159
 20
-67.8214
 30
0.0
 11
-72.908625
 21
-67.8214
 31
0.0
  0
LINE
  5
C2C9
  8
DETAIL
  6
CONTINUOUS
 62
     5
 10
-74.895954
 20
-69.899397
 30
0.0
 11
-74.898156
 21
-69.919932
 31
0.0
  0
LINE
  5
C2CA
  8
DETAIL
  6
CONTINUOUS
 62
     5
 10
-74.889562
 20
-69.88019899999999
 30
0.0
 11
-74.895954
 21
-69.899397
 31
0.0
  0
LINE
  5
C2CB
  8
DETAIL
  6
CONTINUOUS
 62
     5
 10
-74.87874
 20
-69.862206
 30
0.0
 11
-74.889562
 21
-69.88019899999999
 31
0.0
  0
LINE
  5
C2CC
  8
DETAIL
  6
CONTINUOUS
 62
     5
 10
-74.864207
 20
-69.84581399999999
 30
0.0
 11
-74.87874
 21
-69.862206
 31
0.0
  0
LINE
  5
C2CD
  8
DETAIL
  6
CONTINUOUS
 62
     5
 10
-74.846416
 20
-69.831454
 30
0.0
 11
-74.864207
 21
-69.84581399999999
 31
0.0
  0
LINE
  5
C2CE
  8
DETAIL
  6
CONTINUOUS
 62
     5
 10
-74.825927
 20
-69.818896
 30
0.0
 11
-74.846416
 21
-69.831454
 31
0.0
  0
LINE
  5
C2CF
  8
DETAIL
  6
CONTINUOUS
 62
     5
 10
-74.80337
 20
-69.80811899999999
 30
0.0
 11
-74.825927
 21
-69.818896
 31
0.0
  0
LINE
  5
C2D0
  8
DETAIL
  6
CONTINUOUS
 62
     5
 10
-74.778985
 20
-69.798929
 30
0.0
 11
-74.80337
 21
-69.80811899999999
 31
0.0
  0
LINE
  5
C2D1
  8
DETAIL
  6
CONTINUOUS
 62
     5
 10
-74.753283
 20
-69.791172
 30
0.0
 11
-74.778985
 21
-69.798929
 31
0.0
  0
LINE
  5
C2D2
  8
DETAIL
  6
CONTINUOUS
 62
     5
 10
-74.726093
 20
-69.784697
 30
0.0
 11
-74.753283
 21
-69.791172
 31
0.0
  0
LINE
  5
C2D3
  8
DETAIL
  6
CONTINUOUS
 62
     5
 10
-74.697411
 20
-69.779304
 30
0.0
 11
-74.726093
 21
-69.784697
 31
0.0
  0
LINE
  5
C2D4
  8
DETAIL
  6
CONTINUOUS
 62
     5
 10
-74.667258
 20
-69.77497799999999
 30
0.0
 11
-74.697411
 21
-69.779304
 31
0.0
  0
LINE
  5
C2D5
  8
DETAIL
  6
CONTINUOUS
 62
     5
 10
-74.635627
 20
-69.771643
 30
0.0
 11
-74.667258
 21
-69.77497799999999
 31
0.0
  0
LINE
  5
C2D6
  8
DETAIL
  6
CONTINUOUS
 62
     5
 10
-74.602604
 20
-69.76929
 30
0.0
 11
-74.635627
 21
-69.771643
 31
0.0
  0
LINE
  5
C2D7
  8
DETAIL
  6
CONTINUOUS
 62
     5
 10
-74.568282
 20
-69.767881
 30
0.0
 11
-74.602604
 21
-69.76929
 31
0.0
  0
LINE
  5
C2D8
  8
DETAIL
  6
CONTINUOUS
 62
     5
 10
-74.532631
 20
-69.767427
 30
0.0
 11
-74.568282
 21
-69.767881
 31
0.0
  0
LINE
  5
C2D9
  8
DETAIL
  6
CONTINUOUS
 62
     5
 10
-72.908625
 20
-67.8214
 30
0.0
 11
-72.900396
 21
-67.825144
 31
0.0
  0
LINE
  5
C2DA
  8
DETAIL
  6
CONTINUOUS
 62
     5
 10
-74.898159
 20
-67.8214
 30
0.0
 11
-74.902276
 21
-67.82010199999999
 31
0.0
  0
LINE
  5
C2DB
  8
DETAIL
  6
CONTINUOUS
 62
     5
 10
-73.402276
 20
-67.8214
 30
0.0
 11
-73.400196
 21
-67.921264
 31
0.0
  0
LINE
  5
C2DC
  8
DETAIL
  6
CONTINUOUS
 62
     5
 10
-72.899005
 20
-67.838166
 30
0.0
 11
-72.900396
 21
-67.825144
 31
0.0
  0
LINE
  5
C2DD
  8
DETAIL
  6
CONTINUOUS
 62
     5
 10
-72.897691
 20
-67.85992399999999
 30
0.0
 11
-72.899005
 21
-67.838166
 31
0.0
  0
LINE
  5
C2DE
  8
DETAIL
  6
CONTINUOUS
 62
     5
 10
-72.896443
 20
-67.890766
 30
0.0
 11
-72.897691
 21
-67.85992399999999
 31
0.0
  0
LINE
  5
C2DF
  8
DETAIL
  6
CONTINUOUS
 62
     5
 10
-72.895595
 20
-67.919472
 30
0.0
 11
-72.896443
 21
-67.890766
 31
0.0
  0
LINE
  5
C2E0
  8
DETAIL
  6
CONTINUOUS
 62
     5
 10
-76.337363
 20
-69.185165
 30
0.0
 11
-74.5332
 21
-69.767427
 31
0.0
  0
LINE
  5
C2E1
  8
DETAIL
  6
CONTINUOUS
 62
     5
 10
-78.136003
 20
-68.55806
 30
0.0
 11
-76.337363
 21
-69.185165
 31
0.0
  0
LINE
  5
C2E2
  8
DETAIL
  6
CONTINUOUS
 62
     5
 10
-77.276545
 20
-67.033174
 30
0.0
 11
-74.943257
 21
-67.807181
 31
0.0
  0
LINE
  5
C2E3
  8
DETAIL
  6
CONTINUOUS
 62
     5
 10
-74.898156
 20
-69.919932
 30
0.0
 11
-74.898157
 21
-75.910401
 31
0.0
  0
LINE
  5
C2E4
  8
DETAIL
  6
CONTINUOUS
 62
     5
 10
-61.264051
 20
-79.692965
 30
0.0
 11
-61.174703
 21
-80.070167
 31
0.0
  0
LINE
  5
C2E5
  8
DETAIL
  6
CONTINUOUS
 62
     5
 10
-61.355031
 20
-79.337521
 30
0.0
 11
-61.264051
 21
-79.692965
 31
0.0
  0
LINE
  5
C2E6
  8
DETAIL
  6
CONTINUOUS
 62
     5
 10
-61.447121
 20
-79.002534
 30
0.0
 11
-61.355031
 21
-79.337521
 31
0.0
  0
LINE
  5
C2E7
  8
DETAIL
  6
CONTINUOUS
 62
     5
 10
-61.539534
 20
-78.68646
 30
0.0
 11
-61.447121
 21
-79.002534
 31
0.0
  0
LINE
  5
C2E8
  8
DETAIL
  6
CONTINUOUS
 62
     5
 10
-61.631919
 20
-78.388165
 30
0.0
 11
-61.539534
 21
-78.68646
 31
0.0
  0
LINE
  5
C2E9
  8
DETAIL
  6
CONTINUOUS
 62
     5
 10
-61.723738
 20
-78.106329
 30
0.0
 11
-61.631919
 21
-78.388165
 31
0.0
  0
LINE
  5
C2EA
  8
DETAIL
  6
CONTINUOUS
 62
     5
 10
-61.814754
 20
-77.839968
 30
0.0
 11
-61.723738
 21
-78.106329
 31
0.0
  0
LINE
  5
C2EB
  8
DETAIL
  6
CONTINUOUS
 62
     5
 10
-61.904592
 20
-77.587971
 30
0.0
 11
-61.814754
 21
-77.839968
 31
0.0
  0
LINE
  5
C2EC
  8
DETAIL
  6
CONTINUOUS
 62
     5
 10
-61.99312
 20
-77.349441
 30
0.0
 11
-61.904592
 21
-77.587971
 31
0.0
  0
LINE
  5
C2ED
  8
DETAIL
  6
CONTINUOUS
 62
     5
 10
-62.080048
 20
-77.123054
 30
0.0
 11
-61.99312
 21
-77.349441
 31
0.0
  0
LINE
  5
C2EE
  8
DETAIL
  6
CONTINUOUS
 62
     5
 10
-62.165472
 20
-76.909044
 30
0.0
 11
-62.080048
 21
-77.123054
 31
0.0
  0
LINE
  5
C2EF
  8
DETAIL
  6
CONTINUOUS
 62
     5
 10
-28.21164
 20
-92.29699699999999
 30
0.0
 11
-28.21164
 21
-76.909044
 31
0.0
  0
LINE
  5
C2F0
  8
DETAIL
  6
CONTINUOUS
 62
     5
 10
-29.346781
 20
-80.76232499999999
 30
0.0
 11
-29.184398
 21
-79.991699
 31
0.0
  0
LINE
  5
C2F1
  8
DETAIL
  6
CONTINUOUS
 62
     5
 10
-29.478365
 20
-81.531999
 30
0.0
 11
-29.346781
 21
-80.76232499999999
 31
0.0
  0
LINE
  5
C2F2
  8
DETAIL
  6
CONTINUOUS
 62
     5
 10
-29.579999
 20
-82.30068399999999
 30
0.0
 11
-29.478365
 21
-81.531999
 31
0.0
  0
LINE
  5
C2F3
  8
DETAIL
  6
CONTINUOUS
 62
     5
 10
-29.652076
 20
-83.06846
 30
0.0
 11
-29.579999
 21
-82.30068399999999
 31
0.0
  0
LINE
  5
C2F4
  8
DETAIL
  6
CONTINUOUS
 62
     5
 10
-29.69527
 20
-83.835464
 30
0.0
 11
-29.652076
 21
-83.06846
 31
0.0
  0
LINE
  5
C2F5
  8
DETAIL
  6
CONTINUOUS
 62
     5
 10
-29.709599
 20
-84.601868
 30
0.0
 11
-29.69527
 21
-83.835464
 31
0.0
  0
LINE
  5
C2F6
  8
DETAIL
  6
CONTINUOUS
 62
     5
 10
-29.694654
 20
-85.372692
 30
0.0
 11
-29.709599
 21
-84.601868
 31
0.0
  0
LINE
  5
C2F7
  8
DETAIL
  6
CONTINUOUS
 62
     5
 10
-29.652386
 20
-86.133343
 30
0.0
 11
-29.694654
 21
-85.372692
 31
0.0
  0
LINE
  5
C2F8
  8
DETAIL
  6
CONTINUOUS
 62
     5
 10
-29.582276
 20
-86.878114
 30
0.0
 11
-29.652386
 21
-86.133343
 31
0.0
  0
LINE
  5
C2F9
  8
DETAIL
  6
CONTINUOUS
 62
     5
 10
-29.491317
 20
-87.58718
 30
0.0
 11
-29.582276
 21
-86.878114
 31
0.0
  0
LINE
  5
C2FA
  8
DETAIL
  6
CONTINUOUS
 62
     5
 10
-29.385229
 20
-88.237386
 30
0.0
 11
-29.491317
 21
-87.58718
 31
0.0
  0
LINE
  5
C2FB
  8
DETAIL
  6
CONTINUOUS
 62
     5
 10
-29.267304
 20
-88.839277
 30
0.0
 11
-29.385229
 21
-88.237386
 31
0.0
  0
LINE
  5
C2FC
  8
DETAIL
  6
CONTINUOUS
 62
     5
 10
-29.142193
 20
-89.394655
 30
0.0
 11
-29.267304
 21
-88.839277
 31
0.0
  0
LINE
  5
C2FD
  8
DETAIL
  6
CONTINUOUS
 62
     5
 10
-29.011544
 20
-89.908029
 30
0.0
 11
-29.142193
 21
-89.394655
 31
0.0
  0
LINE
  5
C2FE
  8
DETAIL
  6
CONTINUOUS
 62
     5
 10
-28.878212
 20
-90.383518
 30
0.0
 11
-29.011544
 21
-89.908029
 31
0.0
  0
LINE
  5
C2FF
  8
DETAIL
  6
CONTINUOUS
 62
     5
 10
-28.743227
 20
-90.824102
 30
0.0
 11
-28.878212
 21
-90.383518
 31
0.0
  0
LINE
  5
C300
  8
DETAIL
  6
CONTINUOUS
 62
     5
 10
-28.608376
 20
-91.233184
 30
0.0
 11
-28.743227
 21
-90.824102
 31
0.0
  0
LINE
  5
C301
  8
DETAIL
  6
CONTINUOUS
 62
     5
 10
-28.474239
 20
-91.613278
 30
0.0
 11
-28.608376
 21
-91.233184
 31
0.0
  0
LINE
  5
C302
  8
DETAIL
  6
CONTINUOUS
 62
     5
 10
-28.342141
 20
-91.96792099999999
 30
0.0
 11
-28.474239
 21
-91.613278
 31
0.0
  0
LINE
  5
C303
  8
DETAIL
  6
CONTINUOUS
 62
     5
 10
-28.21164
 20
-92.29699699999999
 30
0.0
 11
-28.342141
 21
-91.96792099999999
 31
0.0
  0
LINE
  5
C304
  8
DETAIL
  6
CONTINUOUS
 62
     5
 10
-45.430467
 20
-67.8214
 30
0.0
 11
-19.481271
 21
-67.8214
 31
0.0
  0
LINE
  5
C305
  8
DETAIL
  6
CONTINUOUS
 62
     5
 10
-45.438696
 20
-67.825144
 30
0.0
 11
-45.430467
 21
-67.8214
 31
0.0
  0
LINE
  5
C306
  8
DETAIL
  6
CONTINUOUS
 62
     5
 10
-45.440087
 20
-67.838166
 30
0.0
 11
-45.438696
 21
-67.825144
 31
0.0
  0
LINE
  5
C307
  8
DETAIL
  6
CONTINUOUS
 62
     5
 10
-45.4414
 20
-67.85992399999999
 30
0.0
 11
-45.440087
 21
-67.838166
 31
0.0
  0
LINE
  5
C308
  8
DETAIL
  6
CONTINUOUS
 62
     5
 10
-45.442648
 20
-67.890766
 30
0.0
 11
-45.4414
 21
-67.85992399999999
 31
0.0
  0
LINE
  5
C309
  8
DETAIL
  6
CONTINUOUS
 62
     5
 10
-45.443496
 20
-67.919472
 30
0.0
 11
-45.442648
 21
-67.890766
 31
0.0
  0
LINE
  5
C30A
  8
DETAIL
  6
CONTINUOUS
 62
     5
 10
-44.659917
 20
-67.8214
 30
0.0
 11
-44.661835
 21
-67.921264
 31
0.0
  0
LINE
  5
C30B
  8
DETAIL
  6
CONTINUOUS
 62
     5
 10
-45.438696
 20
-67.825144
 30
0.0
 11
-45.430467
 21
-67.8214
 31
0.0
  0
LINE
  5
C30C
  8
DETAIL
  6
CONTINUOUS
 62
     5
 10
-45.440087
 20
-67.838166
 30
0.0
 11
-45.438696
 21
-67.825144
 31
0.0
  0
LINE
  5
C30D
  8
DETAIL
  6
CONTINUOUS
 62
     5
 10
-45.4414
 20
-67.85992399999999
 30
0.0
 11
-45.440087
 21
-67.838166
 31
0.0
  0
LINE
  5
C30E
  8
DETAIL
  6
CONTINUOUS
 62
     5
 10
-45.442648
 20
-67.890766
 30
0.0
 11
-45.4414
 21
-67.85992399999999
 31
0.0
  0
LINE
  5
C30F
  8
DETAIL
  6
CONTINUOUS
 62
     5
 10
-45.443496
 20
-67.919472
 30
0.0
 11
-45.442648
 21
-67.890766
 31
0.0
  0
LINE
  5
C310
  8
DETAIL
  6
CONTINUOUS
 62
     5
 10
-44.659917
 20
-67.8214
 30
0.0
 11
-44.661835
 21
-67.921264
 31
0.0
  0
LINE
  5
C311
  8
DETAIL
  6
CONTINUOUS
 62
     5
 10
-28.504539
 20
-77.676971
 30
0.0
 11
-28.21164
 21
-76.909044
 31
0.0
  0
LINE
  5
C312
  8
DETAIL
  6
CONTINUOUS
 62
     5
 10
-28.764299
 20
-78.448567
 30
0.0
 11
-28.504539
 21
-77.676971
 31
0.0
  0
LINE
  5
C313
  8
DETAIL
  6
CONTINUOUS
 62
     5
 10
-28.990516
 20
-79.220174
 30
0.0
 11
-28.764299
 21
-78.448567
 31
0.0
  0
LINE
  5
C314
  8
DETAIL
  6
CONTINUOUS
 62
     5
 10
-29.184398
 20
-79.991699
 30
0.0
 11
-28.990516
 21
-79.220174
 31
0.0
  0
LINE
  5
C315
  8
DETAIL
  6
CONTINUOUS
 62
     5
 10
-19.972842
 20
-67.921264
 30
0.0
 11
-19.974922
 21
-67.8214
 31
0.0
  0
LINE
  5
C316
  8
DETAIL
  6
CONTINUOUS
 62
     5
 10
-19.471651
 20
-67.838166
 30
0.0
 11
-19.473042
 21
-67.825144
 31
0.0
  0
LINE
  5
C317
  8
DETAIL
  6
CONTINUOUS
 62
     5
 10
-19.470338
 20
-67.85992399999999
 30
0.0
 11
-19.471651
 21
-67.838166
 31
0.0
  0
LINE
  5
C318
  8
DETAIL
  6
CONTINUOUS
 62
     5
 10
-19.46909
 20
-67.890766
 30
0.0
 11
-19.470338
 21
-67.85992399999999
 31
0.0
  0
LINE
  5
C319
  8
DETAIL
  6
CONTINUOUS
 62
     5
 10
-19.468242
 20
-67.919472
 30
0.0
 11
-19.46909
 21
-67.890766
 31
0.0
  0
LINE
  5
C31A
  8
DETAIL
  6
CONTINUOUS
 62
     5
 10
-19.473042
 20
-67.825144
 30
0.0
 11
-19.481271
 21
-67.8214
 31
0.0
  0
ARC
  5
C31B
  8
FIX
  6
CONTINUOUS
 62
    11
 10
-79.89137
 20
0.0
 30
0.0
 40
2.180498
 50
180.0
 51
0.0
  0
ARC
  5
C31C
  8
FIX
  6
CONTINUOUS
 62
    11
 10
-79.89137
 20
5.991853
 30
0.0
 40
2.180498
 50
0.0
 51
180.0
  0
LINE
  5
C31D
  8
FIX
  6
CONTINUOUS
 62
    11
 10
-82.071868
 20
5.991853
 30
0.0
 11
-82.071868
 21
0.0
 31
0.0
  0
LINE
  5
C31E
  8
FIX
  6
CONTINUOUS
 62
    11
 10
-77.710872
 20
0.0
 30
0.0
 11
-77.710872
 21
5.991853
 31
0.0
  0
ARC
  5
C31F
  8
DETAIL
  6
DASHED
 62
     5
 10
-10.445712
 20
21.315169
 30
0.0
 40
27.011488
 50
220.497893
 51
245.1902569999999
  0
ARC
  5
C320
  8
DETAIL
  6
DASHED
 62
     5
 10
8.789507
 20
25.84671
 30
0.0
 40
29.220291
 50
179.1235240000003
 51
208.75828
  0
ARC
  5
C321
  8
DETAIL
  6
DASHED
 62
     5
 10
-38.193117
 20
9.113047
 30
0.0
 40
3.087536
 50
19.52657299999997
 51
158.705218
  0
ARC
  5
C322
  8
DETAIL
  6
DASHED
 62
     5
 10
-5.357334
 20
25.692397
 30
0.0
 40
33.723511
 50
206.1267599999999
 51
220.868077
  0
ARC
  5
C323
  8
DETAIL
  6
DASHED
 62
     5
 10
-26.778661
 20
-5.311419
 30
0.0
 40
29.220291
 50
299.123524
 51
328.75828
  0
ARC
  5
C324
  8
DETAIL
  6
DASHED
 62
     5
 10
0.049726
 20
-0.021965
 30
0.0
 40
42.291004
 50
285.9507100000001
 51
355.64997
  0
ARC
  5
C325
  8
DETAIL
  6
DASHED
 62
     5
 10
-19.571601
 20
-17.485785
 30
0.0
 40
33.723511
 50
326.12676
 51
340.868077
  0
LINE
  5
C326
  8
DETAIL
  6
DASHED
 62
     5
 10
14.779903
 20
-93.087046
 30
0.0
 11
67.572437
 21
-93.087046
 31
0.0
  0
LINE
  5
C327
  8
DETAIL
  6
DASHED
 62
     5
 10
74.698431
 20
-40.15901299999999
 30
0.0
 11
28.896392
 21
-40.15901299999999
 31
0.0
  0
LINE
  5
C328
  8
DETAIL
  6
CONTINUOUS
 62
     5
 10
45.438696
 20
-67.825144
 30
0.0
 11
72.900396
 21
-67.825144
 31
0.0
  0
LINE
  5
C329
  8
DETAIL
  6
CONTINUOUS
 62
     5
 10
73.400196
 20
-67.921264
 30
0.0
 11
45.215956
 21
-67.921264
 31
0.0
  0
LINE
  5
C32A
  8
DETAIL
  6
DASHED
 62
     5
 10
14.779903
 20
-56.398176
 30
0.0
 11
14.779903
 21
-93.087046
 31
0.0
  0
LINE
  5
C32B
  8
DETAIL
  6
CONTINUOUS
 62
     5
 10
0.0
 20
-67.807046
 30
0.0
 11
0.0
 21
-67.824923
 31
0.0
  0
LINE
  5
C32C
  8
DETAIL
  6
CONTINUOUS
 62
     5
 10
0.0
 20
-67.807046
 30
0.0
 11
0.0
 21
-67.824923
 31
0.0
  0
LINE
  5
C32D
  8
DETAIL
  6
CONTINUOUS
 62
     5
 10
19.481271
 20
-67.8214
 30
0.0
 11
45.430467
 21
-67.8214
 31
0.0
  0
LINE
  5
C32E
  8
DETAIL
  6
CONTINUOUS
 62
     5
 10
19.473042
 20
-67.825144
 30
0.0
 11
19.481271
 21
-67.8214
 31
0.0
  0
LINE
  5
C32F
  8
DETAIL
  6
CONTINUOUS
 62
     5
 10
19.471651
 20
-67.838166
 30
0.0
 11
19.473042
 21
-67.825144
 31
0.0
  0
LINE
  5
C330
  8
DETAIL
  6
CONTINUOUS
 62
     5
 10
19.470338
 20
-67.85992399999999
 30
0.0
 11
19.471651
 21
-67.838166
 31
0.0
  0
LINE
  5
C331
  8
DETAIL
  6
CONTINUOUS
 62
     5
 10
19.46909
 20
-67.890766
 30
0.0
 11
19.470338
 21
-67.85992399999999
 31
0.0
  0
LINE
  5
C332
  8
DETAIL
  6
CONTINUOUS
 62
     5
 10
19.468242
 20
-67.919472
 30
0.0
 11
19.46909
 21
-67.890766
 31
0.0
  0
LINE
  5
C333
  8
DETAIL
  6
CONTINUOUS
 62
     5
 10
19.972842
 20
-67.921264
 30
0.0
 11
19.974922
 21
-67.8214
 31
0.0
  0
LINE
  5
C334
  8
DETAIL
  6
CONTINUOUS
 62
     5
 10
19.473042
 20
-67.825144
 30
0.0
 11
19.481271
 21
-67.8214
 31
0.0
  0
LINE
  5
C335
  8
DETAIL
  6
CONTINUOUS
 62
     5
 10
19.471651
 20
-67.838166
 30
0.0
 11
19.473042
 21
-67.825144
 31
0.0
  0
LINE
  5
C336
  8
DETAIL
  6
CONTINUOUS
 62
     5
 10
19.470338
 20
-67.85992399999999
 30
0.0
 11
19.471651
 21
-67.838166
 31
0.0
  0
LINE
  5
C337
  8
DETAIL
  6
CONTINUOUS
 62
     5
 10
19.46909
 20
-67.890766
 30
0.0
 11
19.470338
 21
-67.85992399999999
 31
0.0
  0
LINE
  5
C338
  8
DETAIL
  6
CONTINUOUS
 62
     5
 10
19.468242
 20
-67.919472
 30
0.0
 11
19.46909
 21
-67.890766
 31
0.0
  0
LINE
  5
C339
  8
DETAIL
  6
CONTINUOUS
 62
     5
 10
19.972842
 20
-67.921264
 30
0.0
 11
19.974922
 21
-67.8214
 31
0.0
  0
LINE
  5
C33A
  8
DETAIL
  6
CONTINUOUS
 62
     5
 10
45.213716
 20
-67.8214
 30
0.0
 11
45.215956
 21
-67.921264
 31
0.0
  0
LINE
  5
C33B
  8
DETAIL
  6
CONTINUOUS
 62
     5
 10
45.440087
 20
-67.838166
 30
0.0
 11
45.438696
 21
-67.825144
 31
0.0
  0
LINE
  5
C33C
  8
DETAIL
  6
CONTINUOUS
 62
     5
 10
45.4414
 20
-67.85992399999999
 30
0.0
 11
45.440087
 21
-67.838166
 31
0.0
  0
LINE
  5
C33D
  8
DETAIL
  6
CONTINUOUS
 62
     5
 10
45.442648
 20
-67.890766
 30
0.0
 11
45.4414
 21
-67.85992399999999
 31
0.0
  0
LINE
  5
C33E
  8
DETAIL
  6
CONTINUOUS
 62
     5
 10
45.443496
 20
-67.919472
 30
0.0
 11
45.442648
 21
-67.890766
 31
0.0
  0
LINE
  5
C33F
  8
DETAIL
  6
CONTINUOUS
 62
     5
 10
45.438696
 20
-67.825144
 30
0.0
 11
45.430467
 21
-67.8214
 31
0.0
  0
LINE
  5
C340
  8
DETAIL
  6
DASHED
 62
     5
 10
14.779903
 20
-56.398176
 30
0.0
 11
28.896392
 21
-40.15901299999999
 31
0.0
  0
ARC
  5
C341
  8
DETAIL
  6
DASHED
 62
     5
 10
11.204428
 20
-37.63273299999999
 30
0.0
 40
3.087536
 50
139.526573
 51
278.705218
  0
LINE
  5
C342
  8
DETAIL
  6
DASHED
 62
     5
 10
74.698431
 20
-84.889528
 30
0.0
 11
74.698431
 21
-40.15901299999999
 31
0.0
  0
LINE
  5
C343
  8
DETAIL
  6
CONTINUOUS
 62
     5
 10
86.489163
 20
-63.182316
 30
0.0
 11
84.211039
 21
-64.259387
 31
0.0
  0
LINE
  5
C344
  8
DETAIL
  6
CONTINUOUS
 62
     5
 10
89.999996
 20
-63.20122199999999
 30
0.0
 11
87.011429
 21
-64.74626099999999
 31
0.0
  0
ARC
  5
C345
  8
DETAIL
  6
CONTINUOUS
 62
     5
 10
53.266066
 20
0.9965780000000001
 30
0.0
 40
79.89137
 50
285.710022
 51
297.3741039999999
  0
LINE
  5
C346
  8
DETAIL
  6
CONTINUOUS
 62
     5
 10
84.211039
 20
-64.259387
 30
0.0
 11
81.913657
 21
-65.259601
 31
0.0
  0
LINE
  5
C347
  8
DETAIL
  6
CONTINUOUS
 62
     5
 10
83.49374
 20
-66.40717099999999
 30
0.0
 11
81.716507
 21
-67.16941
 31
0.0
  0
LINE
  5
C348
  8
DETAIL
  6
CONTINUOUS
 62
     5
 10
74.898157
 20
-95.164513
 30
0.0
 11
74.898157
 21
-75.910401
 31
0.0
  0
LINE
  5
C349
  8
DETAIL
  6
DASHED
 62
     5
 10
74.698431
 20
-84.889528
 30
0.0
 11
67.572437
 21
-93.087046
 31
0.0
  0
LINE
  5
C34A
  8
DETAIL
  6
CONTINUOUS
 62
     5
 10
74.898054
 20
-95.172828
 30
0.0
 11
74.898157
 21
-95.164513
 31
0.0
  0
LINE
  5
C34B
  8
DETAIL
  6
CONTINUOUS
 62
     5
 10
74.897836
 20
-95.181096
 30
0.0
 11
74.898054
 21
-95.172828
 31
0.0
  0
LINE
  5
C34C
  8
DETAIL
  6
CONTINUOUS
 62
     5
 10
74.897507
 20
-95.189317
 30
0.0
 11
74.897836
 21
-95.181096
 31
0.0
  0
LINE
  5
C34D
  8
DETAIL
  6
CONTINUOUS
 62
     5
 10
74.897057
 20
-95.19749399999999
 30
0.0
 11
74.897507
 21
-95.189317
 31
0.0
  0
LINE
  5
C34E
  8
DETAIL
  6
CONTINUOUS
 62
     5
 10
74.896476
 20
-95.20563
 30
0.0
 11
74.897057
 21
-95.19749399999999
 31
0.0
  0
LINE
  5
C34F
  8
DETAIL
  6
CONTINUOUS
 62
     5
 10
74.895768
 20
-95.213724
 30
0.0
 11
74.896476
 21
-95.20563
 31
0.0
  0
LINE
  5
C350
  8
DETAIL
  6
CONTINUOUS
 62
     5
 10
78.475655
 20
-95.768182
 30
0.0
 11
80.249194
 21
-96.11519899999999
 31
0.0
  0
LINE
  5
C351
  8
DETAIL
  6
CONTINUOUS
 62
     5
 10
76.691458
 20
-95.45125
 30
0.0
 11
78.475655
 21
-95.768182
 31
0.0
  0
LINE
  5
C352
  8
DETAIL
  6
CONTINUOUS
 62
     5
 10
74.898157
 20
-95.164338
 30
0.0
 11
76.691458
 21
-95.45125
 31
0.0
  0
LINE
  5
C353
  8
DETAIL
  6
CONTINUOUS
 62
     5
 10
80.249194
 20
-96.11519899999999
 30
0.0
 11
82.008277
 21
-96.492088
 31
0.0
  0
LINE
  5
C354
  8
DETAIL
  6
CONTINUOUS
 62
     5
 10
72.900396
 20
-67.825144
 30
0.0
 11
72.908625
 21
-67.8214
 31
0.0
  0
LINE
  5
C355
  8
DETAIL
  6
CONTINUOUS
 62
     5
 10
72.899005
 20
-67.838166
 30
0.0
 11
72.900396
 21
-67.825144
 31
0.0
  0
LINE
  5
C356
  8
DETAIL
  6
CONTINUOUS
 62
     5
 10
72.897691
 20
-67.85992399999999
 30
0.0
 11
72.899005
 21
-67.838166
 31
0.0
  0
LINE
  5
C357
  8
DETAIL
  6
CONTINUOUS
 62
     5
 10
72.896443
 20
-67.890766
 30
0.0
 11
72.897691
 21
-67.85992399999999
 31
0.0
  0
LINE
  5
C358
  8
DETAIL
  6
CONTINUOUS
 62
     5
 10
72.895595
 20
-67.919472
 30
0.0
 11
72.896443
 21
-67.890766
 31
0.0
  0
LINE
  5
C359
  8
DETAIL
  6
CONTINUOUS
 62
     5
 10
73.400196
 20
-67.921264
 30
0.0
 11
73.402276
 21
-67.8214
 31
0.0
  0
LINE
  5
C35A
  8
DETAIL
  6
CONTINUOUS
 62
     5
 10
74.568423
 20
-69.767884
 30
0.0
 11
74.532631
 21
-69.767427
 31
0.0
  0
LINE
  5
C35B
  8
DETAIL
  6
CONTINUOUS
 62
     5
 10
74.60287
 20
-69.769305
 30
0.0
 11
74.568423
 21
-69.767884
 31
0.0
  0
LINE
  5
C35C
  8
DETAIL
  6
CONTINUOUS
 62
     5
 10
74.63601
 20
-69.771678
 30
0.0
 11
74.60287
 21
-69.769305
 31
0.0
  0
LINE
  5
C35D
  8
DETAIL
  6
CONTINUOUS
 62
     5
 10
74.667723
 20
-69.775036
 30
0.0
 11
74.63601
 21
-69.771678
 31
0.0
  0
LINE
  5
C35E
  8
DETAIL
  6
CONTINUOUS
 62
     5
 10
74.697899
 20
-69.779386
 30
0.0
 11
74.667723
 21
-69.775036
 31
0.0
  0
LINE
  5
C35F
  8
DETAIL
  6
CONTINUOUS
 62
     5
 10
74.726547
 20
-69.78479399999999
 30
0.0
 11
74.697899
 21
-69.779386
 31
0.0
  0
LINE
  5
C360
  8
DETAIL
  6
CONTINUOUS
 62
     5
 10
74.75364
 20
-69.79127199999999
 30
0.0
 11
74.726547
 21
-69.78479399999999
 31
0.0
  0
LINE
  5
C361
  8
DETAIL
  6
CONTINUOUS
 62
     5
 10
74.779176
 20
-69.798993
 30
0.0
 11
74.75364
 21
-69.79127199999999
 31
0.0
  0
LINE
  5
C362
  8
DETAIL
  6
CONTINUOUS
 62
     5
 10
74.803249
 20
-69.80805099999999
 30
0.0
 11
74.779176
 21
-69.798993
 31
0.0
  0
LINE
  5
C363
  8
DETAIL
  6
CONTINUOUS
 62
     5
 10
74.898159
 20
-67.8214
 30
0.0
 11
74.902276
 21
-67.82010199999999
 31
0.0
  0
LINE
  5
C364
  8
DETAIL
  6
CONTINUOUS
 62
     5
 10
74.943257
 20
-67.807181
 30
0.0
 11
74.898159
 21
-67.807046
 31
0.0
  0
LINE
  5
C365
  8
DETAIL
  6
CONTINUOUS
 62
     5
 10
72.908625
 20
-67.8214
 30
0.0
 11
74.898159
 21
-67.8214
 31
0.0
  0
LINE
  5
C366
  8
DETAIL
  6
CONTINUOUS
 62
     5
 10
72.900396
 20
-67.825144
 30
0.0
 11
72.908625
 21
-67.8214
 31
0.0
  0
LINE
  5
C367
  8
DETAIL
  6
CONTINUOUS
 62
     5
 10
77.276545
 20
-67.033174
 30
0.0
 11
74.943257
 21
-67.807181
 31
0.0
  0
LINE
  5
C368
  8
DETAIL
  6
CONTINUOUS
 62
     5
 10
79.60089
 20
-66.183888
 30
0.0
 11
77.276545
 21
-67.033174
 31
0.0
  0
LINE
  5
C369
  8
DETAIL
  6
CONTINUOUS
 62
     5
 10
76.337293
 20
-69.18518499999999
 30
0.0
 11
74.533171
 21
-69.767427
 31
0.0
  0
LINE
  5
C36A
  8
DETAIL
  6
CONTINUOUS
 62
     5
 10
78.13589
 20
-68.558101
 30
0.0
 11
76.337293
 21
-69.18518499999999
 31
0.0
  0
LINE
  5
C36B
  8
DETAIL
  6
CONTINUOUS
 62
     5
 10
79.92992
 20
-67.886291
 30
0.0
 11
78.13589
 21
-68.558101
 31
0.0
  0
LINE
  5
C36C
  8
DETAIL
  6
CONTINUOUS
 62
     5
 10
72.899005
 20
-67.838166
 30
0.0
 11
72.900396
 21
-67.825144
 31
0.0
  0
LINE
  5
C36D
  8
DETAIL
  6
CONTINUOUS
 62
     5
 10
72.897691
 20
-67.85992399999999
 30
0.0
 11
72.899005
 21
-67.838166
 31
0.0
  0
LINE
  5
C36E
  8
DETAIL
  6
CONTINUOUS
 62
     5
 10
72.896443
 20
-67.890766
 30
0.0
 11
72.897691
 21
-67.85992399999999
 31
0.0
  0
LINE
  5
C36F
  8
DETAIL
  6
CONTINUOUS
 62
     5
 10
72.895595
 20
-67.919472
 30
0.0
 11
72.896443
 21
-67.890766
 31
0.0
  0
LINE
  5
C370
  8
DETAIL
  6
CONTINUOUS
 62
     5
 10
73.400196
 20
-67.921264
 30
0.0
 11
73.402276
 21
-67.8214
 31
0.0
  0
LINE
  5
C371
  8
DETAIL
  6
CONTINUOUS
 62
     5
 10
74.898156
 20
-69.919932
 30
0.0
 11
74.898157
 21
-75.91040199999999
 31
0.0
  0
LINE
  5
C372
  8
DETAIL
  6
CONTINUOUS
 62
     5
 10
74.568423
 20
-69.767884
 30
0.0
 11
74.532631
 21
-69.767427
 31
0.0
  0
LINE
  5
C373
  8
DETAIL
  6
CONTINUOUS
 62
     5
 10
74.60287
 20
-69.769305
 30
0.0
 11
74.568423
 21
-69.767884
 31
0.0
  0
LINE
  5
C374
  8
DETAIL
  6
CONTINUOUS
 62
     5
 10
74.63601
 20
-69.771678
 30
0.0
 11
74.60287
 21
-69.769305
 31
0.0
  0
LINE
  5
C375
  8
DETAIL
  6
CONTINUOUS
 62
     5
 10
74.667723
 20
-69.775036
 30
0.0
 11
74.63601
 21
-69.771678
 31
0.0
  0
LINE
  5
C376
  8
DETAIL
  6
CONTINUOUS
 62
     5
 10
74.697899
 20
-69.779386
 30
0.0
 11
74.667723
 21
-69.775036
 31
0.0
  0
LINE
  5
C377
  8
DETAIL
  6
CONTINUOUS
 62
     5
 10
74.726547
 20
-69.78479399999999
 30
0.0
 11
74.697899
 21
-69.779386
 31
0.0
  0
LINE
  5
C378
  8
DETAIL
  6
CONTINUOUS
 62
     5
 10
74.75364
 20
-69.79127199999999
 30
0.0
 11
74.726547
 21
-69.78479399999999
 31
0.0
  0
LINE
  5
C379
  8
DETAIL
  6
CONTINUOUS
 62
     5
 10
74.779176
 20
-69.798993
 30
0.0
 11
74.75364
 21
-69.79127199999999
 31
0.0
  0
LINE
  5
C37A
  8
DETAIL
  6
CONTINUOUS
 62
     5
 10
74.803249
 20
-69.80805099999999
 30
0.0
 11
74.779176
 21
-69.798993
 31
0.0
  0
LINE
  5
C37B
  8
DETAIL
  6
CONTINUOUS
 62
     5
 10
74.825536
 20
-69.818685
 30
0.0
 11
74.803249
 21
-69.80805099999999
 31
0.0
  0
LINE
  5
C37C
  8
DETAIL
  6
CONTINUOUS
 62
     5
 10
74.846006
 20
-69.83118
 30
0.0
 11
74.825536
 21
-69.818685
 31
0.0
  0
LINE
  5
C37D
  8
DETAIL
  6
CONTINUOUS
 62
     5
 10
74.863867
 20
-69.845495
 30
0.0
 11
74.846006
 21
-69.83118
 31
0.0
  0
LINE
  5
C37E
  8
DETAIL
  6
CONTINUOUS
 62
     5
 10
74.878457
 20
-69.86178799999999
 30
0.0
 11
74.863867
 21
-69.845495
 31
0.0
  0
LINE
  5
C37F
  8
DETAIL
  6
CONTINUOUS
 62
     5
 10
74.889356
 20
-69.879752
 30
0.0
 11
74.878457
 21
-69.86178799999999
 31
0.0
  0
LINE
  5
C380
  8
DETAIL
  6
CONTINUOUS
 62
     5
 10
74.895842
 20
-69.899102
 30
0.0
 11
74.889356
 21
-69.879752
 31
0.0
  0
LINE
  5
C381
  8
DETAIL
  6
CONTINUOUS
 62
     5
 10
74.898156
 20
-69.919932
 30
0.0
 11
74.895842
 21
-69.899102
 31
0.0
  0
LINE
  5
C382
  8
DETAIL
  6
CONTINUOUS
 62
     5
 10
74.898159
 20
-67.8214
 30
0.0
 11
74.902276
 21
-67.82010199999999
 31
0.0
  0
LINE
  5
C383
  8
DETAIL
  6
CONTINUOUS
 62
     5
 10
74.943257
 20
-67.807181
 30
0.0
 11
74.898159
 21
-67.807046
 31
0.0
  0
LINE
  5
C384
  8
DETAIL
  6
CONTINUOUS
 62
     5
 10
72.908625
 20
-67.8214
 30
0.0
 11
74.898159
 21
-67.8214
 31
0.0
  0
LINE
  5
C385
  8
DETAIL
  6
CONTINUOUS
 62
     5
 10
81.913657
 20
-65.259601
 30
0.0
 11
79.60089
 21
-66.183888
 31
0.0
  0
LINE
  5
C386
  8
DETAIL
  6
CONTINUOUS
 62
     5
 10
81.716507
 20
-67.16941
 30
0.0
 11
79.92992
 21
-67.886291
 31
0.0
  0
LINE
  5
C387
  8
DETAIL
  6
CONTINUOUS
 62
     5
 10
89.670851
 20
-70.11827699999999
 30
0.0
 11
89.656047
 21
-70.12585299999999
 31
0.0
  0
LINE
  5
C388
  8
DETAIL
  6
CONTINUOUS
 62
     5
 10
85.25968
 20
-65.599514
 30
0.0
 11
83.49374
 21
-66.40717099999999
 31
0.0
  0
LINE
  5
C389
  8
DETAIL
  6
CONTINUOUS
 62
     5
 10
87.011429
 20
-64.74626099999999
 30
0.0
 11
85.25968
 21
-65.599514
 31
0.0
  0
LINE
  5
C38A
  8
DETAIL
  6
CONTINUOUS
 62
     5
 10
89.999996
 20
-61.386939
 30
0.0
 11
86.489163
 21
-63.182316
 31
0.0
  0
LINE
  5
C38B
  8
DETAIL
  6
CONTINUOUS
 62
     5
 10
88.745111
 20
-62.028665
 30
0.0
 11
89.999996
 21
-61.358134
 31
0.0
  0
LINE
  5
C38C
  8
DETAIL
  6
CONTINUOUS
 62
     5
 10
89.036662
 20
-61.872879
 30
0.0
 11
89.999996
 21
-61.352571
 31
0.0
  0
ARC
  5
C38D
  8
DETAIL
  6
DASHED
 62
     5
 10
15.762139
 20
-25.286549
 30
0.0
 40
34.44509
 50
39.81775400000001
 51
60.0
  0
CIRCLE
  5
C38E
  8
DETAIL
  6
DASHED
 62
     5
 10
0.0
 20
0.0
 30
0.0
 40
12.483027
  0
ARC
  5
C38F
  8
DETAIL
  6
DASHED
 62
     5
 10
-22.866284
 20
-7.932777000000001
 30
0.0
 40
24.516611
 50
321.959088
 51
347.8080879999999
  0
ARC
  5
C390
  8
DETAIL
  6
DASHED
 62
     5
 10
-8.089534
 20
-19.277505
 30
0.0
 40
21.846976
 50
4.172087999999937
 51
28.41343000000001
  0
ARC
  5
C391
  8
DETAIL
  6
DASHED
 62
     5
 10
-13.236622
 20
-19.703837
 30
0.0
 40
27.011488
 50
340.497893
 51
5.190256999999955
  0
ARC
  5
C392
  8
DETAIL
  6
DASHED
 62
     5
 10
-13.218982
 20
-3.896369
 30
0.0
 40
1.298235
 50
268.4134299999999
 51
16.42317600000001
  0
ARC
  5
C393
  8
DETAIL
  6
DASHED
 62
     5
 10
2.073491
 20
-13.321262
 30
0.0
 40
0.998642
 50
98.847252
 51
167.808088
  0
ARC
  5
C394
  8
DETAIL
  6
DASHED
 62
     5
 10
9.983845
 20
-9.499789
 30
0.0
 40
1.298235
 50
28.41343000000003
 51
136.423176
  0
ARC
  5
C395
  8
DETAIL
  6
DASHED
 62
     5
 10
23.682334
 20
-1.611333
 30
0.0
 40
27.011488
 50
100.497893
 51
125.190257
  0
ARC
  5
C396
  8
DETAIL
  6
DASHED
 62
     5
 10
18.303128
 20
-15.836395
 30
0.0
 40
24.516611
 50
81.959088
 51
107.808088
  0
ARC
  5
C397
  8
DETAIL
  6
DASHED
 62
     5
 10
20.739576
 20
2.63301
 30
0.0
 40
21.846976
 50
124.172088
 51
148.41343
  0
ARC
  5
C398
  8
DETAIL
  6
DASHED
 62
     5
 10
3.235136
 20
13.396158
 30
0.0
 40
1.298235
 50
148.41343
 51
256.423176
  0
ARC
  5
C399
  8
DETAIL
  6
DASHED
 62
     5
 10
-12.573297
 20
4.864935
 30
0.0
 40
0.998642
 50
338.847252
 51
47.80808799999998
  0
ARC
  5
C39A
  8
DETAIL
  6
DASHED
 62
     5
 10
10.499806
 20
8.456327
 30
0.0
 40
0.998642
 50
218.847252
 51
287.8080880000001
  0
ARC
  5
C39B
  8
DETAIL
  6
DASHED
 62
     5
 10
17.989155
 20
-20.535291
 30
0.0
 40
29.220291
 50
59.12352400000001
 51
88.75828
  0
ARC
  5
C39C
  8
DETAIL
  6
DASHED
 62
     5
 10
26.988689
 20
28.519686
 30
0.0
 40
3.087536
 50
259.5265729999999
 51
38.705218
  0
ARC
  5
C39D
  8
DETAIL
  6
DASHED
 62
     5
 10
24.928935
 20
-8.206611
 30
0.0
 40
33.723511
 50
86.12676
 51
100.868077
  0
LINE
  5
C39E
  8
FIX
  6
CONTINUOUS
 62
    11
 10
77.894086
 20
5.991853
 30
0.0
 11
77.894086
 21
0.0
 31
0.0
  0
LINE
  5
C39F
  8
FIX
  6
CONTINUOUS
 62
    11
 10
81.888654
 20
0.0
 30
0.0
 11
81.888654
 21
5.991853
 31
0.0
  0
ARC
  5
C3A0
  8
FIX
  6
CONTINUOUS
 62
    11
 10
79.89137
 20
0.0
 30
0.0
 40
1.997284
 50
180.0
 51
0.0
  0
ARC
  5
C3A1
  8
FIX
  6
CONTINUOUS
 62
    11
 10
79.89137
 20
5.991853
 30
0.0
 40
1.997284
 50
0.0
 51
180.0
  0
LINE
  5
C3A2
  8
DETAIL
  6
CONTINUOUS
 62
     5
 10
-88.502078
 20
79.99997400000001
 30
0.0
 11
88.502078
 21
79.99997400000001
 31
0.0
  0
LINE
  5
C3A3
  8
DETAIL
  6
CONTINUOUS
 62
     5
 10
-88.648594
 20
79.992778
 30
0.0
 11
-88.502078
 21
79.99996300000001
 31
0.0
  0
LINE
  5
C3A4
  8
DETAIL
  6
CONTINUOUS
 62
     5
 10
-88.793752
 20
79.971288
 30
0.0
 11
-88.648594
 21
79.992778
 31
0.0
  0
LINE
  5
C3A5
  8
DETAIL
  6
CONTINUOUS
 62
     5
 10
-88.936129
 20
79.935693
 30
0.0
 11
-88.793752
 21
79.971288
 31
0.0
  0
LINE
  5
C3A6
  8
DETAIL
  6
CONTINUOUS
 62
     5
 10
-89.074439
 20
79.886295
 30
0.0
 11
-88.936129
 21
79.935693
 31
0.0
  0
LINE
  5
C3A7
  8
DETAIL
  6
CONTINUOUS
 62
     5
 10
-89.207464
 20
79.823474
 30
0.0
 11
-89.074439
 21
79.886295
 31
0.0
  0
LINE
  5
C3A8
  8
DETAIL
  6
CONTINUOUS
 62
     5
 10
-89.333747
 20
79.747865
 30
0.0
 11
-89.207464
 21
79.823474
 31
0.0
  0
LINE
  5
C3A9
  8
DETAIL
  6
CONTINUOUS
 62
     5
 10
-89.451947
 20
79.660272
 30
0.0
 11
-89.333747
 21
79.747865
 31
0.0
  0
LINE
  5
C3AA
  8
DETAIL
  6
CONTINUOUS
 62
     5
 10
-89.560977
 20
79.56151200000001
 30
0.0
 11
-89.451947
 21
79.660272
 31
0.0
  0
LINE
  5
C3AB
  8
DETAIL
  6
CONTINUOUS
 62
     5
 10
-89.659795
 20
79.452532
 30
0.0
 11
-89.560977
 21
79.56151200000001
 31
0.0
  0
LINE
  5
C3AC
  8
DETAIL
  6
CONTINUOUS
 62
     5
 10
-89.747449
 20
79.33438000000001
 30
0.0
 11
-89.659795
 21
79.452532
 31
0.0
  0
LINE
  5
C3AD
  8
DETAIL
  6
CONTINUOUS
 62
     5
 10
-89.8231
 20
79.20818200000001
 30
0.0
 11
-89.747449
 21
79.33438000000001
 31
0.0
  0
LINE
  5
C3AE
  8
DETAIL
  6
CONTINUOUS
 62
     5
 10
-89.885998
 20
79.075186
 30
0.0
 11
-89.8231
 21
79.20818200000001
 31
0.0
  0
LINE
  5
C3AF
  8
DETAIL
  6
CONTINUOUS
 62
     5
 10
-89.935532
 20
78.93670900000001
 30
0.0
 11
-89.885998
 21
79.075186
 31
0.0
  0
LINE
  5
C3B0
  8
DETAIL
  6
CONTINUOUS
 62
     5
 10
-89.971237
 20
78.79409600000001
 30
0.0
 11
-89.935532
 21
78.93670900000001
 31
0.0
  0
LINE
  5
C3B1
  8
DETAIL
  6
CONTINUOUS
 62
     5
 10
-89.992782
 20
78.648747
 30
0.0
 11
-89.971237
 21
78.79409600000001
 31
0.0
  0
LINE
  5
C3B2
  8
DETAIL
  6
CONTINUOUS
 62
     5
 10
-89.999984
 20
78.50205700000001
 30
0.0
 11
-89.992782
 21
78.648747
 31
0.0
  0
LINE
  5
C3B3
  8
DETAIL
  6
CONTINUOUS
 62
     5
 10
-74.898027
 20
78.32340500000001
 30
0.0
 11
-74.898159
 21
78.312537
 31
0.0
  0
LINE
  5
C3B4
  8
DETAIL
  6
CONTINUOUS
 62
     5
 10
-74.893152
 20
78.47555200000001
 30
0.0
 11
-74.898027
 21
78.32340500000001
 31
0.0
  0
LINE
  5
C3B5
  8
DETAIL
  6
CONTINUOUS
 62
     5
 10
-74.885803
 20
78.623827
 30
0.0
 11
-74.893152
 21
78.47555200000001
 31
0.0
  0
LINE
  5
C3B6
  8
DETAIL
  6
CONTINUOUS
 62
     5
 10
-74.875918
 20
78.76667
 30
0.0
 11
-74.885803
 21
78.623827
 31
0.0
  0
LINE
  5
C3B7
  8
DETAIL
  6
CONTINUOUS
 62
     5
 10
-74.863682
 20
78.902598
 30
0.0
 11
-74.875918
 21
78.76667
 31
0.0
  0
LINE
  5
C3B8
  8
DETAIL
  6
CONTINUOUS
 62
     5
 10
-74.849196
 20
79.030206
 30
0.0
 11
-74.863682
 21
78.902598
 31
0.0
  0
LINE
  5
C3B9
  8
DETAIL
  6
CONTINUOUS
 62
     5
 10
-74.83265
 20
79.14818600000001
 30
0.0
 11
-74.849196
 21
79.030206
 31
0.0
  0
LINE
  5
C3BA
  8
DETAIL
  6
CONTINUOUS
 62
     5
 10
-74.814193
 20
79.25534
 30
0.0
 11
-74.83265
 21
79.14818600000001
 31
0.0
  0
LINE
  5
C3BB
  8
DETAIL
  6
CONTINUOUS
 62
     5
 10
-74.794048
 20
79.350592
 30
0.0
 11
-74.814193
 21
79.25534
 31
0.0
  0
LINE
  5
C3BC
  8
DETAIL
  6
CONTINUOUS
 62
     5
 10
-74.772404
 20
79.432996
 30
0.0
 11
-74.794048
 21
79.350592
 31
0.0
  0
LINE
  5
C3BD
  8
DETAIL
  6
CONTINUOUS
 62
     5
 10
-74.749506
 20
79.501749
 30
0.0
 11
-74.772404
 21
79.432996
 31
0.0
  0
LINE
  5
C3BE
  8
DETAIL
  6
CONTINUOUS
 62
     5
 10
-74.725579
 20
79.556191
 30
0.0
 11
-74.749506
 21
79.501749
 31
0.0
  0
LINE
  5
C3BF
  8
DETAIL
  6
CONTINUOUS
 62
     5
 10
-74.700879
 20
79.595811
 30
0.0
 11
-74.725579
 21
79.556191
 31
0.0
  0
LINE
  5
C3C0
  8
DETAIL
  6
CONTINUOUS
 62
     5
 10
-74.675781
 20
79.62025200000001
 30
0.0
 11
-74.700879
 21
79.595811
 31
0.0
  0
LINE
  5
C3C1
  8
DETAIL
  6
CONTINUOUS
 62
     5
 10
-74.65016
 20
79.629304
 30
0.0
 11
-74.675781
 21
79.62025200000001
 31
0.0
  0
LINE
  5
C3C2
  8
DETAIL
  6
CONTINUOUS
 62
     5
 10
74.893152
 20
78.47555200000001
 30
0.0
 11
74.898027
 21
78.32340500000001
 31
0.0
  0
LINE
  5
C3C3
  8
DETAIL
  6
CONTINUOUS
 62
     5
 10
74.885803
 20
78.623827
 30
0.0
 11
74.893152
 21
78.47555200000001
 31
0.0
  0
LINE
  5
C3C4
  8
DETAIL
  6
CONTINUOUS
 62
     5
 10
74.875918
 20
78.76667
 30
0.0
 11
74.885803
 21
78.623827
 31
0.0
  0
LINE
  5
C3C5
  8
DETAIL
  6
CONTINUOUS
 62
     5
 10
74.863682
 20
78.902598
 30
0.0
 11
74.875918
 21
78.76667
 31
0.0
  0
LINE
  5
C3C6
  8
DETAIL
  6
CONTINUOUS
 62
     5
 10
74.849196
 20
79.030206
 30
0.0
 11
74.863682
 21
78.902598
 31
0.0
  0
LINE
  5
C3C7
  8
DETAIL
  6
CONTINUOUS
 62
     5
 10
74.83265
 20
79.14818600000001
 30
0.0
 11
74.849196
 21
79.030206
 31
0.0
  0
LINE
  5
C3C8
  8
DETAIL
  6
CONTINUOUS
 62
     5
 10
74.814193
 20
79.25534
 30
0.0
 11
74.83265
 21
79.14818600000001
 31
0.0
  0
LINE
  5
C3C9
  8
DETAIL
  6
CONTINUOUS
 62
     5
 10
74.794048
 20
79.350592
 30
0.0
 11
74.814193
 21
79.25534
 31
0.0
  0
LINE
  5
C3CA
  8
DETAIL
  6
CONTINUOUS
 62
     5
 10
74.772404
 20
79.432996
 30
0.0
 11
74.794048
 21
79.350592
 31
0.0
  0
LINE
  5
C3CB
  8
DETAIL
  6
CONTINUOUS
 62
     5
 10
74.749506
 20
79.501749
 30
0.0
 11
74.772404
 21
79.432996
 31
0.0
  0
LINE
  5
C3CC
  8
DETAIL
  6
CONTINUOUS
 62
     5
 10
74.725579
 20
79.556191
 30
0.0
 11
74.749506
 21
79.501749
 31
0.0
  0
LINE
  5
C3CD
  8
DETAIL
  6
CONTINUOUS
 62
     5
 10
74.700879
 20
79.595811
 30
0.0
 11
74.725579
 21
79.556191
 31
0.0
  0
LINE
  5
C3CE
  8
DETAIL
  6
CONTINUOUS
 62
     5
 10
74.675781
 20
79.62025200000001
 30
0.0
 11
74.700879
 21
79.595811
 31
0.0
  0
LINE
  5
C3CF
  8
DETAIL
  6
CONTINUOUS
 62
     5
 10
74.65016
 20
79.629304
 30
0.0
 11
74.675781
 21
79.62025200000001
 31
0.0
  0
LINE
  5
C3D0
  8
DETAIL
  6
CONTINUOUS
 62
     5
 10
74.898027
 20
78.32340500000001
 30
0.0
 11
74.898159
 21
78.312537
 31
0.0
  0
LINE
  5
C3D1
  8
DETAIL
  6
CONTINUOUS
 62
     5
 10
89.992782
 20
78.648747
 30
0.0
 11
89.999984
 21
78.50205700000001
 31
0.0
  0
LINE
  5
C3D2
  8
DETAIL
  6
CONTINUOUS
 62
     5
 10
89.971237
 20
78.79409600000001
 30
0.0
 11
89.992782
 21
78.648747
 31
0.0
  0
LINE
  5
C3D3
  8
DETAIL
  6
CONTINUOUS
 62
     5
 10
89.935532
 20
78.93670900000001
 30
0.0
 11
89.971237
 21
78.79409600000001
 31
0.0
  0
LINE
  5
C3D4
  8
DETAIL
  6
CONTINUOUS
 62
     5
 10
89.885998
 20
79.075186
 30
0.0
 11
89.935532
 21
78.93670900000001
 31
0.0
  0
LINE
  5
C3D5
  8
DETAIL
  6
CONTINUOUS
 62
     5
 10
89.8231
 20
79.20818200000001
 30
0.0
 11
89.885998
 21
79.075186
 31
0.0
  0
LINE
  5
C3D6
  8
DETAIL
  6
CONTINUOUS
 62
     5
 10
89.747449
 20
79.33438000000001
 30
0.0
 11
89.8231
 21
79.20818200000001
 31
0.0
  0
LINE
  5
C3D7
  8
DETAIL
  6
CONTINUOUS
 62
     5
 10
89.659795
 20
79.452532
 30
0.0
 11
89.747449
 21
79.33438000000001
 31
0.0
  0
LINE
  5
C3D8
  8
DETAIL
  6
CONTINUOUS
 62
     5
 10
89.560977
 20
79.56151200000001
 30
0.0
 11
89.659795
 21
79.452532
 31
0.0
  0
LINE
  5
C3D9
  8
DETAIL
  6
CONTINUOUS
 62
     5
 10
89.451947
 20
79.660272
 30
0.0
 11
89.560977
 21
79.56151200000001
 31
0.0
  0
LINE
  5
C3DA
  8
DETAIL
  6
CONTINUOUS
 62
     5
 10
89.333747
 20
79.747865
 30
0.0
 11
89.451947
 21
79.660272
 31
0.0
  0
LINE
  5
C3DB
  8
DETAIL
  6
CONTINUOUS
 62
     5
 10
89.207464
 20
79.823474
 30
0.0
 11
89.333747
 21
79.747865
 31
0.0
  0
LINE
  5
C3DC
  8
DETAIL
  6
CONTINUOUS
 62
     5
 10
89.074439
 20
79.886295
 30
0.0
 11
89.207464
 21
79.823474
 31
0.0
  0
LINE
  5
C3DD
  8
DETAIL
  6
CONTINUOUS
 62
     5
 10
88.936129
 20
79.935693
 30
0.0
 11
89.074439
 21
79.886295
 31
0.0
  0
LINE
  5
C3DE
  8
DETAIL
  6
CONTINUOUS
 62
     5
 10
88.793752
 20
79.971288
 30
0.0
 11
88.936129
 21
79.935693
 31
0.0
  0
LINE
  5
C3DF
  8
DETAIL
  6
CONTINUOUS
 62
     5
 10
88.648594
 20
79.992778
 30
0.0
 11
88.793752
 21
79.971288
 31
0.0
  0
LINE
  5
C3E0
  8
DETAIL
  6
CONTINUOUS
 62
     5
 10
88.502078
 20
79.99996300000001
 30
0.0
 11
88.648594
 21
79.992778
 31
0.0
  0
LINE
  5
C3E1
  8
OUTLINE
  6
CONTINUOUS
 62
     3
 10
-89.999996
 20
-98.502099
 30
0.0
 11
-89.999996
 21
78.50205700000001
 31
0.0
  0
LINE
  5
C3E2
  8
OUTLINE
  6
CONTINUOUS
 62
     3
 10
89.999996
 20
78.50205700000001
 30
0.0
 11
89.999996
 21
-98.502099
 31
0.0
  0
LINE
  5
C3E3
  8
OUTLINE
  6
CONTINUOUS
 62
     3
 10
-10.98254
 20
-100.000017
 30
0.0
 11
-88.502078
 21
-100.000017
 31
0.0
  0
LINE
  5
C3E4
  8
OUTLINE
  6
CONTINUOUS
 62
     3
 10
-89.992782
 20
-98.64878999999999
 30
0.0
 11
-89.999984
 21
-98.502099
 31
0.0
  0
LINE
  5
C3E5
  8
OUTLINE
  6
CONTINUOUS
 62
     3
 10
-89.971237
 20
-98.794139
 30
0.0
 11
-89.992782
 21
-98.64878999999999
 31
0.0
  0
LINE
  5
C3E6
  8
OUTLINE
  6
CONTINUOUS
 62
     3
 10
-89.935532
 20
-98.936751
 30
0.0
 11
-89.971237
 21
-98.794139
 31
0.0
  0
LINE
  5
C3E7
  8
OUTLINE
  6
CONTINUOUS
 62
     3
 10
-89.885998
 20
-99.075229
 30
0.0
 11
-89.935532
 21
-98.936751
 31
0.0
  0
LINE
  5
C3E8
  8
OUTLINE
  6
CONTINUOUS
 62
     3
 10
-89.8231
 20
-99.208224
 30
0.0
 11
-89.885998
 21
-99.075229
 31
0.0
  0
LINE
  5
C3E9
  8
OUTLINE
  6
CONTINUOUS
 62
     3
 10
-89.747449
 20
-99.334423
 30
0.0
 11
-89.8231
 21
-99.208224
 31
0.0
  0
LINE
  5
C3EA
  8
OUTLINE
  6
CONTINUOUS
 62
     3
 10
-89.659795
 20
-99.452574
 30
0.0
 11
-89.747449
 21
-99.334423
 31
0.0
  0
LINE
  5
C3EB
  8
OUTLINE
  6
CONTINUOUS
 62
     3
 10
-89.560977
 20
-99.561555
 30
0.0
 11
-89.659795
 21
-99.452574
 31
0.0
  0
LINE
  5
C3EC
  8
OUTLINE
  6
CONTINUOUS
 62
     3
 10
-89.451947
 20
-99.660314
 30
0.0
 11
-89.560977
 21
-99.561555
 31
0.0
  0
LINE
  5
C3ED
  8
OUTLINE
  6
CONTINUOUS
 62
     3
 10
-89.333747
 20
-99.747907
 30
0.0
 11
-89.451947
 21
-99.660314
 31
0.0
  0
LINE
  5
C3EE
  8
OUTLINE
  6
CONTINUOUS
 62
     3
 10
-89.207464
 20
-99.823516
 30
0.0
 11
-89.333747
 21
-99.747907
 31
0.0
  0
LINE
  5
C3EF
  8
OUTLINE
  6
CONTINUOUS
 62
     3
 10
-89.074439
 20
-99.886337
 30
0.0
 11
-89.207464
 21
-99.823516
 31
0.0
  0
LINE
  5
C3F0
  8
OUTLINE
  6
CONTINUOUS
 62
     3
 10
-88.936129
 20
-99.935735
 30
0.0
 11
-89.074439
 21
-99.886337
 31
0.0
  0
LINE
  5
C3F1
  8
OUTLINE
  6
CONTINUOUS
 62
     3
 10
-88.793752
 20
-99.97133
 30
0.0
 11
-88.936129
 21
-99.935735
 31
0.0
  0
LINE
  5
C3F2
  8
OUTLINE
  6
CONTINUOUS
 62
     3
 10
-88.648594
 20
-99.99282099999999
 30
0.0
 11
-88.793752
 21
-99.97133
 31
0.0
  0
LINE
  5
C3F3
  8
OUTLINE
  6
CONTINUOUS
 62
     3
 10
-88.502078
 20
-100.000005
 30
0.0
 11
-88.648594
 21
-99.99282099999999
 31
0.0
  0
LINE
  5
C3F4
  8
OUTLINE
  6
CONTINUOUS
 62
     3
 10
35.386079
 20
-99.993889
 30
0.0
 11
66.600759
 21
-99.993596
 31
0.0
  0
LINE
  5
C3F5
  8
OUTLINE
  6
CONTINUOUS
 62
     3
 10
19.972842
 20
-100.000017
 30
0.0
 11
10.98254
 21
-100.000017
 31
0.0
  0
LINE
  5
C3F6
  8
OUTLINE
  6
CONTINUOUS
 62
     3
 10
-6.573367
 20
-99.865192
 30
0.0
 11
6.782136
 21
-99.86579499999999
 31
0.0
  0
LINE
  5
C3F7
  8
OUTLINE
  6
CONTINUOUS
 62
     3
 10
6.573367
 20
-99.865192
 30
0.0
 11
6.782136
 21
-99.86579499999999
 31
0.0
  0
LINE
  5
C3F8
  8
OUTLINE
  6
CONTINUOUS
 62
     3
 10
10.549617
 20
-99.901301
 30
0.0
 11
10.543731
 21
-99.89805199999999
 31
0.0
  0
LINE
  5
C3F9
  8
OUTLINE
  6
CONTINUOUS
 62
     3
 10
10.652915
 20
-99.944046
 30
0.0
 11
10.549617
 21
-99.901301
 31
0.0
  0
LINE
  5
C3FA
  8
OUTLINE
  6
CONTINUOUS
 62
     3
 10
10.760314
 20
-99.974971
 30
0.0
 11
10.652915
 21
-99.944046
 31
0.0
  0
LINE
  5
C3FB
  8
OUTLINE
  6
CONTINUOUS
 62
     3
 10
10.87067
 20
-99.99372199999999
 30
0.0
 11
10.760314
 21
-99.974971
 31
0.0
  0
LINE
  5
C3FC
  8
OUTLINE
  6
CONTINUOUS
 62
     3
 10
10.98254
 20
-100.000005
 30
0.0
 11
10.87067
 21
-99.99372199999999
 31
0.0
  0
LINE
  5
C3FD
  8
OUTLINE
  6
CONTINUOUS
 62
     3
 10
10.513362
 20
-99.897303
 30
0.0
 11
10.611351
 21
-99.89987099999999
 31
0.0
  0
LINE
  5
C3FE
  8
OUTLINE
  6
CONTINUOUS
 62
     3
 10
10.359914
 20
-99.89399
 30
0.0
 11
10.513362
 21
-99.897303
 31
0.0
  0
LINE
  5
C3FF
  8
OUTLINE
  6
CONTINUOUS
 62
     3
 10
10.086182
 20
-99.88929
 30
0.0
 11
10.359914
 21
-99.89399
 31
0.0
  0
LINE
  5
C400
  8
OUTLINE
  6
CONTINUOUS
 62
     3
 10
9.574843
 20
-99.882739
 30
0.0
 11
10.086182
 21
-99.88929
 31
0.0
  0
LINE
  5
C401
  8
OUTLINE
  6
CONTINUOUS
 62
     3
 10
8.45795
 20
-99.873362
 30
0.0
 11
9.574843
 21
-99.882739
 31
0.0
  0
LINE
  5
C402
  8
OUTLINE
  6
CONTINUOUS
 62
     3
 10
6.782136
 20
-99.86579499999999
 30
0.0
 11
8.45795
 21
-99.873362
 31
0.0
  0
LINE
  5
C403
  8
OUTLINE
  6
CONTINUOUS
 62
     3
 10
34.952474
 20
-100.000017
 30
0.0
 11
34.453153
 21
-100.000017
 31
0.0
  0
LINE
  5
C404
  8
OUTLINE
  6
CONTINUOUS
 62
     3
 10
34.453153
 20
-100.000005
 30
0.0
 11
19.972842
 21
-100.000017
 31
0.0
  0
LINE
  5
C405
  8
OUTLINE
  6
CONTINUOUS
 62
     3
 10
35.055704
 20
-99.992223
 30
0.0
 11
35.147866
 21
-99.993027
 31
0.0
  0
LINE
  5
C406
  8
OUTLINE
  6
CONTINUOUS
 62
     3
 10
35.019373
 20
-99.991749
 30
0.0
 11
35.055704
 21
-99.992223
 31
0.0
  0
LINE
  5
C407
  8
OUTLINE
  6
CONTINUOUS
 62
     3
 10
34.990535
 20
-99.991238
 30
0.0
 11
35.019373
 21
-99.991749
 31
0.0
  0
LINE
  5
C408
  8
OUTLINE
  6
CONTINUOUS
 62
     3
 10
34.969489
 20
-99.990698
 30
0.0
 11
34.990535
 21
-99.991238
 31
0.0
  0
LINE
  5
C409
  8
OUTLINE
  6
CONTINUOUS
 62
     3
 10
35.147866
 20
-99.993027
 30
0.0
 11
35.386079
 21
-99.993889
 31
0.0
  0
LINE
  5
C40A
  8
OUTLINE
  6
CONTINUOUS
 62
     3
 10
88.502078
 20
-100.000017
 30
0.0
 11
66.909022
 21
-100.000017
 31
0.0
  0
LINE
  5
C40B
  8
OUTLINE
  6
CONTINUOUS
 62
     3
 10
66.600759
 20
-99.993596
 30
0.0
 11
66.762771
 21
-99.992651
 31
0.0
  0
LINE
  5
C40C
  8
OUTLINE
  6
CONTINUOUS
 62
     3
 10
66.762771
 20
-99.992651
 30
0.0
 11
66.842124
 21
-99.991749
 31
0.0
  0
LINE
  5
C40D
  8
OUTLINE
  6
CONTINUOUS
 62
     3
 10
66.904624
 20
-99.990144
 30
0.0
 11
66.909022
 21
-99.98957
 31
0.0
  0
LINE
  5
C40E
  8
OUTLINE
  6
CONTINUOUS
 62
     3
 10
66.892008
 20
-99.990698
 30
0.0
 11
66.904624
 21
-99.990144
 31
0.0
  0
LINE
  5
C40F
  8
OUTLINE
  6
CONTINUOUS
 62
     3
 10
66.870962
 20
-99.991238
 30
0.0
 11
66.892008
 21
-99.990698
 31
0.0
  0
LINE
  5
C410
  8
OUTLINE
  6
CONTINUOUS
 62
     3
 10
66.842124
 20
-99.991749
 30
0.0
 11
66.870962
 21
-99.991238
 31
0.0
  0
LINE
  5
C411
  8
OUTLINE
  6
CONTINUOUS
 62
     3
 10
88.648594
 20
-99.99282099999999
 30
0.0
 11
88.502078
 21
-100.000005
 31
0.0
  0
LINE
  5
C412
  8
OUTLINE
  6
CONTINUOUS
 62
     3
 10
88.793752
 20
-99.97133
 30
0.0
 11
88.648594
 21
-99.99282099999999
 31
0.0
  0
LINE
  5
C413
  8
OUTLINE
  6
CONTINUOUS
 62
     3
 10
88.936129
 20
-99.935735
 30
0.0
 11
88.793752
 21
-99.97133
 31
0.0
  0
LINE
  5
C414
  8
OUTLINE
  6
CONTINUOUS
 62
     3
 10
89.074439
 20
-99.886337
 30
0.0
 11
88.936129
 21
-99.935735
 31
0.0
  0
LINE
  5
C415
  8
OUTLINE
  6
CONTINUOUS
 62
     3
 10
89.207464
 20
-99.823516
 30
0.0
 11
89.074439
 21
-99.886337
 31
0.0
  0
LINE
  5
C416
  8
OUTLINE
  6
CONTINUOUS
 62
     3
 10
89.333747
 20
-99.747907
 30
0.0
 11
89.207464
 21
-99.823516
 31
0.0
  0
LINE
  5
C417
  8
OUTLINE
  6
CONTINUOUS
 62
     3
 10
89.451947
 20
-99.660314
 30
0.0
 11
89.333747
 21
-99.747907
 31
0.0
  0
LINE
  5
C418
  8
OUTLINE
  6
CONTINUOUS
 62
     3
 10
89.560977
 20
-99.561555
 30
0.0
 11
89.451947
 21
-99.660314
 31
0.0
  0
LINE
  5
C419
  8
OUTLINE
  6
CONTINUOUS
 62
     3
 10
89.659795
 20
-99.452574
 30
0.0
 11
89.560977
 21
-99.561555
 31
0.0
  0
LINE
  5
C41A
  8
OUTLINE
  6
CONTINUOUS
 62
     3
 10
89.747449
 20
-99.334423
 30
0.0
 11
89.659795
 21
-99.452574
 31
0.0
  0
LINE
  5
C41B
  8
OUTLINE
  6
CONTINUOUS
 62
     3
 10
89.8231
 20
-99.208224
 30
0.0
 11
89.747449
 21
-99.334423
 31
0.0
  0
LINE
  5
C41C
  8
OUTLINE
  6
CONTINUOUS
 62
     3
 10
89.885998
 20
-99.075229
 30
0.0
 11
89.8231
 21
-99.208224
 31
0.0
  0
LINE
  5
C41D
  8
OUTLINE
  6
CONTINUOUS
 62
     3
 10
89.935532
 20
-98.936751
 30
0.0
 11
89.885998
 21
-99.075229
 31
0.0
  0
LINE
  5
C41E
  8
OUTLINE
  6
CONTINUOUS
 62
     3
 10
89.971237
 20
-98.794139
 30
0.0
 11
89.935532
 21
-98.936751
 31
0.0
  0
LINE
  5
C41F
  8
OUTLINE
  6
CONTINUOUS
 62
     3
 10
89.992782
 20
-98.64878999999999
 30
0.0
 11
89.971237
 21
-98.794139
 31
0.0
  0
LINE
  5
C420
  8
OUTLINE
  6
CONTINUOUS
 62
     3
 10
89.999984
 20
-98.502099
 30
0.0
 11
89.992782
 21
-98.64878999999999
 31
0.0
  0
LINE
  5
C421
  8
OUTLINE
  6
CONTINUOUS
 62
     3
 10
-88.502078
 20
79.99997400000001
 30
0.0
 11
88.502078
 21
79.99997400000001
 31
0.0
  0
LINE
  5
C422
  8
OUTLINE
  6
CONTINUOUS
 62
     3
 10
-88.648594
 20
79.992778
 30
0.0
 11
-88.502078
 21
79.99996300000001
 31
0.0
  0
LINE
  5
C423
  8
OUTLINE
  6
CONTINUOUS
 62
     3
 10
-88.793752
 20
79.971288
 30
0.0
 11
-88.648594
 21
79.992778
 31
0.0
  0
LINE
  5
C424
  8
OUTLINE
  6
CONTINUOUS
 62
     3
 10
-88.936129
 20
79.935693
 30
0.0
 11
-88.793752
 21
79.971288
 31
0.0
  0
LINE
  5
C425
  8
OUTLINE
  6
CONTINUOUS
 62
     3
 10
-89.074439
 20
79.886295
 30
0.0
 11
-88.936129
 21
79.935693
 31
0.0
  0
LINE
  5
C426
  8
OUTLINE
  6
CONTINUOUS
 62
     3
 10
-89.207464
 20
79.823474
 30
0.0
 11
-89.074439
 21
79.886295
 31
0.0
  0
LINE
  5
C427
  8
OUTLINE
  6
CONTINUOUS
 62
     3
 10
-89.333747
 20
79.747865
 30
0.0
 11
-89.207464
 21
79.823474
 31
0.0
  0
LINE
  5
C428
  8
OUTLINE
  6
CONTINUOUS
 62
     3
 10
-89.451947
 20
79.660272
 30
0.0
 11
-89.333747
 21
79.747865
 31
0.0
  0
LINE
  5
C429
  8
OUTLINE
  6
CONTINUOUS
 62
     3
 10
-89.560977
 20
79.56151200000001
 30
0.0
 11
-89.451947
 21
79.660272
 31
0.0
  0
LINE
  5
C42A
  8
OUTLINE
  6
CONTINUOUS
 62
     3
 10
-89.659795
 20
79.452532
 30
0.0
 11
-89.560977
 21
79.56151200000001
 31
0.0
  0
LINE
  5
C42B
  8
OUTLINE
  6
CONTINUOUS
 62
     3
 10
-89.747449
 20
79.33438000000001
 30
0.0
 11
-89.659795
 21
79.452532
 31
0.0
  0
LINE
  5
C42C
  8
OUTLINE
  6
CONTINUOUS
 62
     3
 10
-89.8231
 20
79.20818200000001
 30
0.0
 11
-89.747449
 21
79.33438000000001
 31
0.0
  0
LINE
  5
C42D
  8
OUTLINE
  6
CONTINUOUS
 62
     3
 10
-89.885998
 20
79.075186
 30
0.0
 11
-89.8231
 21
79.20818200000001
 31
0.0
  0
LINE
  5
C42E
  8
OUTLINE
  6
CONTINUOUS
 62
     3
 10
-89.935532
 20
78.93670900000001
 30
0.0
 11
-89.885998
 21
79.075186
 31
0.0
  0
LINE
  5
C42F
  8
OUTLINE
  6
CONTINUOUS
 62
     3
 10
-89.971237
 20
78.79409600000001
 30
0.0
 11
-89.935532
 21
78.93670900000001
 31
0.0
  0
LINE
  5
C430
  8
OUTLINE
  6
CONTINUOUS
 62
     3
 10
-89.992782
 20
78.648747
 30
0.0
 11
-89.971237
 21
78.79409600000001
 31
0.0
  0
LINE
  5
C431
  8
OUTLINE
  6
CONTINUOUS
 62
     3
 10
-89.999984
 20
78.50205700000001
 30
0.0
 11
-89.992782
 21
78.648747
 31
0.0
  0
LINE
  5
C432
  8
OUTLINE
  6
CONTINUOUS
 62
     3
 10
89.992782
 20
78.648747
 30
0.0
 11
89.999984
 21
78.50205700000001
 31
0.0
  0
LINE
  5
C433
  8
OUTLINE
  6
CONTINUOUS
 62
     3
 10
89.971237
 20
78.79409600000001
 30
0.0
 11
89.992782
 21
78.648747
 31
0.0
  0
LINE
  5
C434
  8
OUTLINE
  6
CONTINUOUS
 62
     3
 10
89.935532
 20
78.93670900000001
 30
0.0
 11
89.971237
 21
78.79409600000001
 31
0.0
  0
LINE
  5
C435
  8
OUTLINE
  6
CONTINUOUS
 62
     3
 10
89.885998
 20
79.075186
 30
0.0
 11
89.935532
 21
78.93670900000001
 31
0.0
  0
LINE
  5
C436
  8
OUTLINE
  6
CONTINUOUS
 62
     3
 10
89.8231
 20
79.20818200000001
 30
0.0
 11
89.885998
 21
79.075186
 31
0.0
  0
LINE
  5
C437
  8
OUTLINE
  6
CONTINUOUS
 62
     3
 10
89.747449
 20
79.33438000000001
 30
0.0
 11
89.8231
 21
79.20818200000001
 31
0.0
  0
LINE
  5
C438
  8
OUTLINE
  6
CONTINUOUS
 62
     3
 10
89.659795
 20
79.452532
 30
0.0
 11
89.747449
 21
79.33438000000001
 31
0.0
  0
LINE
  5
C439
  8
OUTLINE
  6
CONTINUOUS
 62
     3
 10
89.560977
 20
79.56151200000001
 30
0.0
 11
89.659795
 21
79.452532
 31
0.0
  0
LINE
  5
C43A
  8
OUTLINE
  6
CONTINUOUS
 62
     3
 10
89.451947
 20
79.660272
 30
0.0
 11
89.560977
 21
79.56151200000001
 31
0.0
  0
LINE
  5
C43B
  8
OUTLINE
  6
CONTINUOUS
 62
     3
 10
89.333747
 20
79.747865
 30
0.0
 11
89.451947
 21
79.660272
 31
0.0
  0
LINE
  5
C43C
  8
OUTLINE
  6
CONTINUOUS
 62
     3
 10
89.207464
 20
79.823474
 30
0.0
 11
89.333747
 21
79.747865
 31
0.0
  0
LINE
  5
C43D
  8
OUTLINE
  6
CONTINUOUS
 62
     3
 10
89.074439
 20
79.886295
 30
0.0
 11
89.207464
 21
79.823474
 31
0.0
  0
LINE
  5
C43E
  8
OUTLINE
  6
CONTINUOUS
 62
     3
 10
88.936129
 20
79.935693
 30
0.0
 11
89.074439
 21
79.886295
 31
0.0
  0
LINE
  5
C43F
  8
OUTLINE
  6
CONTINUOUS
 62
     3
 10
88.793752
 20
79.971288
 30
0.0
 11
88.936129
 21
79.935693
 31
0.0
  0
LINE
  5
C440
  8
OUTLINE
  6
CONTINUOUS
 62
     3
 10
88.648594
 20
79.992778
 30
0.0
 11
88.793752
 21
79.971288
 31
0.0
  0
LINE
  5
C441
  8
OUTLINE
  6
CONTINUOUS
 62
     3
 10
88.502078
 20
79.99996300000001
 30
0.0
 11
88.648594
 21
79.992778
 31
0.0
  0
LINE
  5
C442
  8
BASIS
  6
DASHDOT
 62
     6
 39
50.0
 10
-60.038402
 20
5.999999
 30
0.0
 11
-99.970637
 21
5.999998
 31
0.0
  0
LINE
  5
C443
  8
BASIS
  6
DASHDOT
 62
     6
 39
50.0
 10
99.961598
 20
5.999999
 30
0.0
 11
60.029363
 21
5.999998
 31
0.0
  0
LINE
  5
C444
  8
SIZE
  6
CONTINUOUS
 62
    30
 10
-89.999996
 20
-118.502099
 30
0.0
 11
-89.999996
 21
-455.211426
 31
0.0
  0
LINE
  5
C445
  8
SIZE
  6
CONTINUOUS
 62
    30
 10
89.999996
 20
-118.502099
 30
0.0
 11
89.999996
 21
-455.211426
 31
0.0
  0
LINE
  5
C446
  8
SIZE
  6
CONTINUOUS
 62
    30
 10
-101.999996
 20
-435.211426
 30
0.0
 11
-113.999996
 21
-435.211426
 31
0.0
  0
LINE
  5
C447
  8
SIZE
  6
CONTINUOUS
 62
    30
 10
101.999996
 20
-435.211426
 30
0.0
 11
113.999996
 21
-435.211426
 31
0.0
  0
LINE
  5
C448
  8
SIZE
  6
CONTINUOUS
 62
    30
 10
-89.999996
 20
-435.211426
 30
0.0
 11
89.999996
 21
-435.211426
 31
0.0
  0
CIRCLE
  5
C449
  8
SIZE
  6
CONTINUOUS
 62
    30
 10
-89.999996
 20
-435.211426
 30
0.0
 40
6.0
  0
LINE
  5
C44A
  8
SIZE
  6
CONTINUOUS
 62
    30
 10
-89.999996
 20
-435.211426
 30
0.0
 11
-101.999996
 21
-435.211426
 31
0.0
  0
CIRCLE
  5
C44B
  8
SIZE
  6
CONTINUOUS
 62
    30
 10
89.999996
 20
-435.211426
 30
0.0
 40
6.0
  0
LINE
  5
C44C
  8
SIZE
  6
CONTINUOUS
 62
    30
 10
89.999996
 20
-435.211426
 30
0.0
 11
101.999996
 21
-435.211426
 31
0.0
  0
TEXT
  5
C44D
  8
SIZE
  6
CONTINUOUS
 62
    30
 10
-86.4
 20
-410.211426
 30
0.0
 40
64.0
  1
180
 41
0.9
 72
     1
 11
0.0
 21
-410.211426
 31
0.0
  0
POINT
  5
C44E
  8
DEFPOINTS
  6
CONTINUOUS
 62
    30
 10
-89.999996
 20
-98.502099
 30
0.0
  0
POINT
  5
C44F
  8
DEFPOINTS
  6
CONTINUOUS
 62
    30
 10
89.999996
 20
-98.502099
 30
0.0
  0
POINT
  5
C450
  8
DEFPOINTS
  6
CONTINUOUS
 62
    30
 10
89.999996
 20
-435.211426
 30
0.0
  0
LINE
  5
C451
  8
SIZE
  6
CONTINUOUS
 62
    30
 10
-80.10863
 20
-37.004074
 30
0.0
 11
-80.10863
 21
-326.52696
 31
0.0
  0
LINE
  5
C452
  8
SIZE
  6
CONTINUOUS
 62
    30
 10
79.89137
 20
-37.004074
 30
0.0
 11
79.89137
 21
-326.52696
 31
0.0
  0
LINE
  5
C453
  8
SIZE
  6
CONTINUOUS
 62
    30
 10
-92.10863
 20
-306.52696
 30
0.0
 11
-104.10863
 21
-306.52696
 31
0.0
  0
LINE
  5
C454
  8
SIZE
  6
CONTINUOUS
 62
    30
 10
91.89137
 20
-306.52696
 30
0.0
 11
103.89137
 21
-306.52696
 31
0.0
  0
LINE
  5
C455
  8
SIZE
  6
CONTINUOUS
 62
    30
 10
-80.10863
 20
-306.52696
 30
0.0
 11
79.89137
 21
-306.52696
 31
0.0
  0
CIRCLE
  5
C456
  8
SIZE
  6
CONTINUOUS
 62
    30
 10
-80.10863
 20
-306.52696
 30
0.0
 40
6.0
  0
LINE
  5
C457
  8
SIZE
  6
CONTINUOUS
 62
    30
 10
-80.10863
 20
-306.52696
 30
0.0
 11
-92.10863
 21
-306.52696
 31
0.0
  0
CIRCLE
  5
C458
  8
SIZE
  6
CONTINUOUS
 62
    30
 10
79.89137
 20
-306.52696
 30
0.0
 40
6.0
  0
LINE
  5
C459
  8
SIZE
  6
CONTINUOUS
 62
    30
 10
79.89137
 20
-306.52696
 30
0.0
 11
91.89137
 21
-306.52696
 31
0.0
  0
TEXT
  5
C45A
  8
SIZE
  6
CONTINUOUS
 62
    30
 10
-86.50863000000001
 20
-281.52696
 30
0.0
 40
64.0
  1
160
 41
0.9
 72
     1
 11
-0.10863
 21
-281.52696
 31
0.0
  0
POINT
  5
C45B
  8
DEFPOINTS
  6
CONTINUOUS
 62
    30
 10
-80.10863
 20
-17.004074
 30
0.0
  0
POINT
  5
C45C
  8
DEFPOINTS
  6
CONTINUOUS
 62
    30
 10
79.89137
 20
-17.004074
 30
0.0
  0
POINT
  5
C45D
  8
DEFPOINTS
  6
CONTINUOUS
 62
    30
 10
79.89137
 20
-306.52696
 30
0.0
  0
LINE
  5
C45E
  8
SIZE
  6
CONTINUOUS
 62
    30
 10
108.502078
 20
-100.000017
 30
0.0
 11
593.877105
 21
-100.000017
 31
0.0
  0
LINE
  5
C45F
  8
SIZE
  6
CONTINUOUS
 62
    30
 10
108.502078
 20
79.99996300000001
 30
0.0
 11
593.877105
 21
79.99996300000001
 31
0.0
  0
LINE
  5
C460
  8
SIZE
  6
CONTINUOUS
 62
    30
 10
573.877105
 20
-112.000017
 30
0.0
 11
573.877105
 21
-124.000017
 31
0.0
  0
LINE
  5
C461
  8
SIZE
  6
CONTINUOUS
 62
    30
 10
573.877105
 20
91.99996300000001
 30
0.0
 11
573.877105
 21
103.999963
 31
0.0
  0
LINE
  5
C462
  8
SIZE
  6
CONTINUOUS
 62
    30
 10
573.877105
 20
-100.000017
 30
0.0
 11
573.877105
 21
79.99996300000001
 31
0.0
  0
CIRCLE
  5
C463
  8
SIZE
  6
CONTINUOUS
 62
    30
 10
573.877105
 20
-100.000017
 30
0.0
 40
6.0
  0
LINE
  5
C464
  8
SIZE
  6
CONTINUOUS
 62
    30
 10
573.877105
 20
-100.000017
 30
0.0
 11
573.877105
 21
-112.000017
 31
0.0
  0
CIRCLE
  5
C465
  8
SIZE
  6
CONTINUOUS
 62
    30
 10
573.877105
 20
79.99996300000001
 30
0.0
 40
6.0
  0
LINE
  5
C466
  8
SIZE
  6
CONTINUOUS
 62
    30
 10
573.877105
 20
79.99996300000001
 30
0.0
 11
573.877105
 21
91.99996300000001
 31
0.0
  0
TEXT
  5
C467
  8
SIZE
  6
CONTINUOUS
 62
    30
 10
548.877105
 20
-96.40002700000001
 30
0.0
 40
64.0
  1
180
 50
90.0
 41
0.9
 72
     1
 11
548.877105
 21
-10.000027
 31
0.0
  0
POINT
  5
C468
  8
DEFPOINTS
  6
CONTINUOUS
 62
    30
 10
88.502078
 20
-100.000017
 30
0.0
  0
POINT
  5
C469
  8
DEFPOINTS
  6
CONTINUOUS
 62
    30
 10
88.502078
 20
79.99996300000001
 30
0.0
  0
POINT
  5
C46A
  8
DEFPOINTS
  6
CONTINUOUS
 62
    30
 10
573.877105
 20
79.99996300000001
 30
0.0
  0
LINE
  5
C46B
  8
SIZE
  6
CONTINUOUS
 62
    30
 10
119.961598
 20
5.999999
 30
0.0
 11
318.269508
 21
5.999999
 31
0.0
  0
LINE
  5
C46C
  8
SIZE
  6
CONTINUOUS
 62
    30
 10
143.753937
 20
0.000003
 30
0.0
 11
318.269508
 21
0.000003
 31
0.0
  0
LINE
  5
C46D
  8
SIZE
  6
CONTINUOUS
 62
    30
 10
298.269508
 20
-11.999997
 30
0.0
 11
298.269508
 21
-23.999997
 31
0.0
  0
LINE
  5
C46E
  8
SIZE
  6
CONTINUOUS
 62
    30
 10
298.269508
 20
17.999999
 30
0.0
 11
298.269508
 21
195.046743
 31
0.0
  0
LINE
  5
C46F
  8
SIZE
  6
CONTINUOUS
 62
    30
 10
298.269508
 20
0.000003
 30
0.0
 11
298.269508
 21
5.999999
 31
0.0
  0
CIRCLE
  5
C470
  8
SIZE
  6
CONTINUOUS
 62
    30
 10
298.269508
 20
0.000003
 30
0.0
 40
6.0
  0
LINE
  5
C471
  8
SIZE
  6
CONTINUOUS
 62
    30
 10
298.269508
 20
0.000003
 30
0.0
 11
298.269508
 21
-11.999997
 31
0.0
  0
CIRCLE
  5
C472
  8
SIZE
  6
CONTINUOUS
 62
    30
 10
298.269508
 20
5.999999
 30
0.0
 40
6.0
  0
LINE
  5
C473
  8
SIZE
  6
CONTINUOUS
 62
    30
 10
298.269508
 20
5.999999
 30
0.0
 11
298.269508
 21
17.999999
 31
0.0
  0
TEXT
  5
C474
  8
SIZE
  6
CONTINUOUS
 62
    30
 10
273.269508
 20
123.418172
 30
0.0
 40
64.0
  1
6
 50
90.0
 41
0.9
 72
     1
 11
273.269508
 21
152.218172
 31
0.0
  0
POINT
  5
C475
  8
DEFPOINTS
  6
CONTINUOUS
 62
    30
 10
99.961598
 20
5.999999
 30
0.0
  0
POINT
  5
C476
  8
DEFPOINTS
  6
CONTINUOUS
 62
    30
 10
123.753937
 20
0.000003
 30
0.0
  0
POINT
  5
C477
  8
DEFPOINTS
  6
CONTINUOUS
 62
    30
 10
298.269508
 20
0.000003
 30
0.0
  0
LINE
  5
C478
  8
SIZE
  6
CONTINUOUS
 62
    30
 10
108.502078
 20
79.99997400000001
 30
0.0
 11
458.706502
 21
79.99997400000001
 31
0.0
  0
LINE
  5
C479
  8
SIZE
  6
CONTINUOUS
 62
    30
 10
143.753937
 20
0.000003
 30
0.0
 11
458.706502
 21
0.000003
 31
0.0
  0
LINE
  5
C47A
  8
SIZE
  6
CONTINUOUS
 62
    30
 10
438.706502
 20
12.000003
 30
0.0
 11
438.706502
 21
67.99997400000001
 31
0.0
  0
LINE
  5
C47B
  8
SIZE
  6
CONTINUOUS
 62
    30
 10
438.706502
 20
79.99997400000001
 30
0.0
 11
438.706502
 21
235.257117
 31
0.0
  0
CIRCLE
  5
C47C
  8
SIZE
  6
CONTINUOUS
 62
    30
 10
438.706502
 20
0.000003
 30
0.0
 40
6.0
  0
LINE
  5
C47D
  8
SIZE
  6
CONTINUOUS
 62
    30
 10
438.706502
 20
0.000003
 30
0.0
 11
438.706502
 21
12.000003
 31
0.0
  0
CIRCLE
  5
C47E
  8
SIZE
  6
CONTINUOUS
 62
    30
 10
438.706502
 20
79.99997400000001
 30
0.0
 40
6.0
  0
LINE
  5
C47F
  8
SIZE
  6
CONTINUOUS
 62
    30
 10
438.706502
 20
79.99997400000001
 30
0.0
 11
438.706502
 21
67.99997400000001
 31
0.0
  0
TEXT
  5
C480
  8
SIZE
  6
CONTINUOUS
 62
    30
 10
413.706502
 20
108.7714031428571
 30
0.0
 40
64.0
  1
80
 50
90.0
 41
0.9
 72
     1
 11
413.706502
 21
163.628546
 31
0.0
  0
POINT
  5
C481
  8
DEFPOINTS
  6
CONTINUOUS
 62
    30
 10
88.502078
 20
79.99997400000001
 30
0.0
  0
POINT
  5
C482
  8
DEFPOINTS
  6
CONTINUOUS
 62
    30
 10
123.753937
 20
0.000003
 30
0.0
  0
POINT
  5
C483
  8
DEFPOINTS
  6
CONTINUOUS
 62
    30
 10
438.706502
 20
0.000003
 30
0.0
  0
LINE
  5
C484
  8
OUTLINE
  6
CONTINUOUS
 62
     3
 10
-6.573367
 20
-99.865192
 30
0.0
 11
-6.782136
 21
-99.86579499999999
 31
0.0
  0
LINE
  5
C485
  8
OUTLINE
  6
CONTINUOUS
 62
     3
 10
-10.549617
 20
-99.901301
 30
0.0
 11
-10.543731
 21
-99.89805199999999
 31
0.0
  0
LINE
  5
C486
  8
OUTLINE
  6
CONTINUOUS
 62
     3
 10
-10.652915
 20
-99.944046
 30
0.0
 11
-10.549617
 21
-99.901301
 31
0.0
  0
LINE
  5
C487
  8
OUTLINE
  6
CONTINUOUS
 62
     3
 10
-10.760314
 20
-99.974971
 30
0.0
 11
-10.652915
 21
-99.944046
 31
0.0
  0
LINE
  5
C488
  8
OUTLINE
  6
CONTINUOUS
 62
     3
 10
-10.87067
 20
-99.99372199999999
 30
0.0
 11
-10.760314
 21
-99.974971
 31
0.0
  0
LINE
  5
C489
  8
OUTLINE
  6
CONTINUOUS
 62
     3
 10
-10.98254
 20
-100.000005
 30
0.0
 11
-10.87067
 21
-99.99372199999999
 31
0.0
  0
LINE
  5
C48A
  8
OUTLINE
  6
CONTINUOUS
 62
     3
 10
-10.513362
 20
-99.897303
 30
0.0
 11
-10.611351
 21
-99.89987099999999
 31
0.0
  0
LINE
  5
C48B
  8
OUTLINE
  6
CONTINUOUS
 62
     3
 10
-10.359914
 20
-99.89399
 30
0.0
 11
-10.513362
 21
-99.897303
 31
0.0
  0
LINE
  5
C48C
  8
OUTLINE
  6
CONTINUOUS
 62
     3
 10
-10.086182
 20
-99.88929
 30
0.0
 11
-10.359914
 21
-99.89399
 31
0.0
  0
LINE
  5
C48D
  8
OUTLINE
  6
CONTINUOUS
 62
     3
 10
-9.574843
 20
-99.882739
 30
0.0
 11
-10.086182
 21
-99.88929
 31
0.0
  0
LINE
  5
C48E
  8
OUTLINE
  6
CONTINUOUS
 62
     3
 10
-8.45795
 20
-99.873362
 30
0.0
 11
-9.574843
 21
-99.882739
 31
0.0
  0
LINE
  5
C48F
  8
OUTLINE
  6
CONTINUOUS
 62
     3
 10
-6.782136
 20
-99.86579499999999
 30
0.0
 11
-8.45795
 21
-99.873362
 31
0.0
  0
ENDSEC
  0
EOF
