  0
SECTION
  2
HEADER
  9
$ACADVER
  1
AC1009
  9
$DWGCODEPAGE
  3
dos932
  9
$INSBASE
 10
0.0
 20
0.0
 30
0.0
  9
$EXTMIN
 10
-801.68607983701804
 20
-417.20579880895821
 30
-0.0015257624927045
  9
$EXTMAX
 10
745.03785303681798
 20
855.56031106454247
 30
0.0022888765696933
  9
$LIMMIN
 10
-2970.0
 20
-2100.0
  9
$LIMMAX
 10
2970.0
 20
2100.0
  9
$ORTHOMODE
 70
     1
  9
$REGENMODE
 70
     1
  9
$FILLMODE
 70
     1
  9
$QTEXTMODE
 70
     0
  9
$MIRRTEXT
 70
     0
  9
$LTSCALE
 40
20.0
  9
$ATTMODE
 70
     1
  9
$TEXTSIZE
 40
64.0
  9
$TRACEWID
 40
0.05
  9
$TEXTSTYLE
  7
STANDARD
  9
$CLAYER
  8
NOTE
  9
$CELTYPE
  6
CONTINUOUS
  9
$CECOLOR
 62
     7
  9
$DIMSCALE
 40
1.0
  9
$DIMASZ
 40
12.0
  9
$DIMEXO
 40
20.0
  9
$DIMDLI
 40
200.0
  9
$DIMRND
 40
0.0
  9
$DIMDLE
 40
0.0
  9
$DIMEXE
 40
20.0
  9
$DIMTP
 40
0.0
  9
$DIMTM
 40
0.0
  9
$DIMTXT
 40
64.0
  9
$DIMCEN
 40
0.09
  9
$DIMTSZ
 40
0.0
  9
$DIMTOL
 70
     0
  9
$DIMLIM
 70
     0
  9
$DIMTIH
 70
     0
  9
$DIMTOH
 70
     0
  9
$DIMSE1
 70
     0
  9
$DIMSE2
 70
     0
  9
$DIMTAD
 70
     1
  9
$DIMZIN
 70
     8
  9
$DIMBLK
  1

  9
$DIMASO
 70
     1
  9
$DIMSHO
 70
     0
  9
$DIMPOST
  1

  9
$DIMAPOST
  1

  9
$DIMALT
 70
     0
  9
$DIMALTD
 70
     2
  9
$DIMALTF
 40
25.399999999999999
  9
$DIMLFAC
 40
1.0
  9
$DIMTOFL
 70
     1
  9
$DIMTVP
 40
0.0
  9
$DIMTIX
 70
     1
  9
$DIMSOXD
 70
     0
  9
$DIMSAH
 70
     0
  9
$DIMBLK1
  1

  9
$DIMBLK2
  1

  9
$DIMSTYLE
  2
STANDARD
  9
$DIMCLRD
 70
     7
  9
$DIMCLRE
 70
     7
  9
$DIMCLRT
 70
     7
  9
$DIMTFAC
 40
1.0
  9
$DIMGAP
 40
25.0
  9
$LUNITS
 70
     2
  9
$LUPREC
 70
     4
  9
$SKETCHINC
 40
0.1
  9
$FILLETRAD
 40
3.0
  9
$AUNITS
 70
     1
  9
$AUPREC
 70
     3
  9
$MENU
  1
ACAD
  9
$ELEVATION
 40
0.0
  9
$PELEVATION
 40
0.0
  9
$THICKNESS
 40
50.0
  9
$LIMCHECK
 70
     0
  9
$CHAMFERA
 40
0.0
  9
$CHAMFERB
 40
0.0
  9
$SKPOLY
 70
     0
  9
$TDCREATE
 40
2453019.623009259
  9
$TDUPDATE
 40
2459356.647060301
  9
$TDINDWG
 40
1.7110117593
  9
$TDUSRTIMER
 40
1.7110117593
  9
$USRTIMER
 70
     1
  9
$ANGBASE
 50
0.0
  9
$ANGDIR
 70
     0
  9
$PDMODE
 70
     3
  9
$PDSIZE
 40
-2.0
  9
$PLINEWID
 40
0.0
  9
$SPLFRAME
 70
     0
  9
$SPLINETYPE
 70
     6
  9
$SPLINESEGS
 70
     8
  9
$SURFTAB1
 70
     6
  9
$SURFTAB2
 70
     6
  9
$SURFTYPE
 70
     6
  9
$SURFU
 70
     6
  9
$SURFV
 70
     6
  9
$UCSNAME
  2

  9
$UCSORG
 10
0.0
 20
0.0
 30
0.0
  9
$UCSXDIR
 10
1.0
 20
0.0
 30
0.0
  9
$UCSYDIR
 10
0.0
 20
1.0
 30
0.0
  9
$PUCSNAME
  2

  9
$PUCSORG
 10
0.0
 20
0.0
 30
0.0
  9
$PUCSXDIR
 10
1.0
 20
0.0
 30
0.0
  9
$PUCSYDIR
 10
0.0
 20
1.0
 30
0.0
  9
$USERI1
 70
     0
  9
$USERI2
 70
     0
  9
$USERI3
 70
     0
  9
$USERI4
 70
     0
  9
$USERI5
 70
     0
  9
$USERR1
 40
20.0
  9
$USERR2
 40
0.0
  9
$USERR3
 40
0.0
  9
$USERR4
 40
0.0
  9
$USERR5
 40
0.0
  9
$WORLDVIEW
 70
     1
  9
$SHADEDGE
 70
     3
  9
$SHADEDIF
 70
    70
  9
$TILEMODE
 70
     1
  9
$MAXACTVP
 70
    48
  9
$PINSBASE
 10
0.0
 20
0.0
 30
0.0
  9
$PLIMCHECK
 70
     0
  9
$PEXTMIN
 10
-100000000000000000000.0
 20
-100000000000000000000.0
 30
-100000000000000000000.0
  9
$PEXTMAX
 10
100000000000000000000.0
 20
100000000000000000000.0
 30
100000000000000000000.0
  9
$PLIMMIN
 10
0.0
 20
0.0
  9
$PLIMMAX
 10
12.0
 20
9.0
  9
$UNITMODE
 70
     0
  9
$VISRETAIN
 70
     0
  9
$PLINEGEN
 70
     0
  9
$PSLTSCALE
 70
     0
  9
$TREEDEPTH
 70
  3020
  9
$ATTDIA
 70
     0
  9
$ATTREQ
 70
     1
  9
$BLIPMODE
 70
     1
  9
$COORDS
 70
     1
  9
$DRAGMODE
 70
     2
  9
$OSMODE
 70
     0
  9
$HANDLING
 70
     0
  9
$HANDSEED
  5
519
  0
ENDSEC
  0
SECTION
  2
TABLES
  0
TABLE
  2
LTYPE
 70
     3
  0
LTYPE
  2
CONTINUOUS
 70
     0
  3
実線
 72
    65
 73
     0
 40
0.0
  0
LTYPE
  2
DASHDOT
 70
     0
  3
____ _ ____ _ ____ _ ____ _ ____ _ ____ _ ____
 72
    65
 73
     4
 40
5.5
 49
4.0
 49
-0.6
 49
0.3
 49
-0.6
  0
LTYPE
  2
DIVIDE
 70
     0
  3
Divide ____ . . ____ . . ____ . . ____ . . ____
 72
    65
 73
     6
 40
1.25
 49
0.5
 49
-0.25
 49
0.0
 49
-0.25
 49
0.0
 49
-0.25
  0
ENDTAB
  0
TABLE
  2
LAYER
 70
    12
  0
LAYER
  2
NOTE
 70
     0
 62
     4
  6
CONTINUOUS
  0
LAYER
  2
BASIS
 70
     0
 62
     6
  6
DASHDOT
  0
LAYER
  2
OUTLINE
 70
     0
 62
     3
  6
CONTINUOUS
  0
LAYER
  2
DETAIL
 70
     0
 62
     5
  6
CONTINUOUS
  0
LAYER
  2
SIZE
 70
     0
 62
    30
  6
CONTINUOUS
  0
LAYER
  2
ARRANGE
 70
     0
 62
     1
  6
CONTINUOUS
  0
LAYER
  2
DEFPOINTS
 70
     0
 62
     7
  6
CONTINUOUS
  0
LAYER
  2
ETC
 70
     0
 62
    61
  6
CONTINUOUS
  0
LAYER
  2
FIX
 70
     0
 62
    11
  6
CONTINUOUS
  0
LAYER
  2
0
 70
    64
 62
     7
  6
CONTINUOUS
  0
LAYER
  2
SERVICESPACE
 70
    64
 62
     2
  6
DASHDOT
  0
LAYER
  2
SYMBOLLINE
 70
    64
 62
    15
  6
CONTINUOUS
  0
ENDTAB
  0
TABLE
  2
STYLE
 70
     1
  0
STYLE
  2
STANDARD
 70
     0
 40
64.0
 41
0.9
 50
0.0
 71
     0
 42
64.0
  3
SIMPLEX.shx
  4
BIGFONT.shx
  0
ENDTAB
  0
TABLE
  2
APPID
 70
    18
  0
APPID
  2
ACAD
 70
     0
  0
APPID
  2
ACADANNOTATIVE
 70
     0
  0
APPID
  2
AUTOCAD_POSTSCRIPT_FIGURE
 70
     0
  0
APPID
  2
ACAD_EXEMPT_FROM_CAD_STANDARDS
 70
     0
  0
APPID
  2
ACAD_PSEXT
 70
     0
  0
APPID
  2
ACAUTHENVIRON
 70
     0
  0
APPID
  2
GENIUS_GENOENT_13
 70
     0
  0
APPID
  2
GENIUS_GENCFG_13
 70
     0
  0
APPID
  2
GENIUS_GENCFG0_13
 70
     0
  0
APPID
  2
GENIUS_GENCFG1_13
 70
     0
  0
APPID
  2
GENIUS_GENCFG2_13
 70
     0
  0
APPID
  2
GENIUS_GENCFG3_13
 70
     0
  0
APPID
  2
GENIUS_GENCFG4_13
 70
     0
  0
APPID
  2
GENIUS_GEVCFG0_13
 70
     0
  0
APPID
  2
CONTENTBLOCKICON
 70
     0
  0
APPID
  2
CONTENTBLOCKDESCRIPTION
 70
     0
  0
APPID
  2
ACAD_NAV_VCDISPLAY
 70
     0
  0
APPID
  2
ACAD_MLEADERVER
 70
     0
  0
ENDTAB
  0
TABLE
  2
DIMSTYLE
 70
     1
  0
DIMSTYLE
  2
STANDARD
 70
     0
  3

  4

  5

  6

  7

 40
1.0
 41
12.0
 42
20.0
 43
200.0
 44
20.0
 45
0.0
 46
0.0
 47
0.0
 48
0.0
140
64.0
141
0.09
142
0.0
143
25.399999999999999
144
1.0
145
0.0
146
1.0
147
25.0
 71
     0
 72
     0
 73
     0
 74
     0
 75
     0
 76
     0
 77
     1
 78
     8
170
     0
171
     2
172
     1
173
     0
174
     1
175
     0
176
     7
177
     7
178
     7
  0
ENDTAB
  0
TABLE
  2
VIEW
 70
     1
  0
VIEW
  2
ALL
 70
     0
 40
4282.6198079999986
 10
0.0
 20
41.309904000000003
 41
5940.0
 11
0.0
 21
0.0
 31
1.0
 12
0.0
 22
0.0
 32
0.0
 42
50.0
 43
0.0
 44
0.0
 50
0.0
 71
     0
  0
ENDTAB
  0
TABLE
  2
UCS
 70
     0
  0
ENDTAB
  0
TABLE
  2
VPORT
 70
     1
  0
VPORT
  2
*ACTIVE
 70
     0
 10
0.0
 20
0.0
 11
1.0
 21
1.0
 12
-28.324113400099922
 22
219.17725612779211
 13
0.0
 23
0.0
 14
1.0
 24
1.0
 15
0.0
 25
0.0
 16
0.0
 26
0.0
 36
1.0
 17
0.0
 27
0.0
 37
0.0
 40
1148.1580931017279
 41
1.8851435705368289
 42
50.0
 43
0.0
 44
0.0
 50
0.0
 51
0.0
 71
     0
 72
  1000
 73
     1
 74
     3
 75
     0
 76
     0
 77
     0
 78
     0
  0
ENDTAB
  0
ENDSEC
  0
SECTION
  2
BLOCKS
  0
ENDSEC
  0
SECTION
  2
ENTITIES
  0
TEXT
  8
ETC
  6
CONTINUOUS
 62
    61
 10
121.95735828796749
 20
791.4644748058148
 30
0.0
 40
64.0
  1
V-08PEAD7_5
 41
0.9
  0
TEXT
  8
ETC
  6
CONTINUOUS
 62
    61
 10
117.7713642879671
 20
673.5091647909835
 30
0.0
 40
64.0
  1
換気扇
 41
0.9
  0
TEXT
  8
ETC
  6
CONTINUOUS
 62
    61
 10
168.47276253652311
 20
565.36039190475822
 30
0.0
 40
40.0
  1
V-08PEAD7
 41
0.9
  0
TEXT
  8
ETC
  6
CONTINUOUS
 62
    61
 10
168.47276253652311
 20
499.36039190475822
 30
0.0
 40
40.0
  1
V-08PEALD7
 41
0.9
  0
LINE
  8
BASIS
  6
DASHDOT
 62
     6
 10
90.0
 20
0.0
 30
0.0
 11
-90.0
 21
0.0
 31
0.0
  0
LINE
  8
BASIS
  6
DASHDOT
 62
     6
 10
0.0
 20
105.519175
 30
0.0
 11
0.0
 21
-125.208901
 31
0.0
  0
TEXT
  8
NOTE
  6
CONTINUOUS
 62
     4
 10
-598.52221793667377
 20
347.32278187095062
 30
0.0
 40
64.0
  1
2-φ4×10
 41
0.9
  0
LINE
  8
NOTE
  6
CONTINUOUS
 62
     4
 10
-12.20866999999998
 20
44.091316000000013
 30
0.0
 11
0.0
 21
6.0
 31
0.0
  0
LINE
  8
NOTE
  6
CONTINUOUS
 62
     4
 10
0.0
 20
6.0
 30
0.0
 11
-29.618676999999931
 21
32.883712000000003
 31
0.0
  0
LINE
  8
NOTE
  6
CONTINUOUS
 62
     4
 10
0.0
 20
6.0
 30
0.0
 11
-206.28976700000001
 21
317.52058599999998
 31
0.0
  0
LINE
  8
SIZE
  6
CONTINUOUS
 62
    30
 10
-19.697793000000051
 20
79.99996299999998
 30
0.0
 11
-741.92168704178721
 21
79.99996299999998
 31
0.0
  0
LINE
  8
SIZE
  6
CONTINUOUS
 62
    30
 10
-19.700412000000139
 20
-100.000004
 30
0.0
 11
-741.92168704178721
 21
-100.000004
 31
0.0
  0
LINE
  8
SIZE
  6
CONTINUOUS
 62
    30
 10
-721.92168704178721
 20
91.99996299999998
 30
0.0
 11
-721.92168704178721
 21
103.99996299999999
 31
0.0
  0
LINE
  8
SIZE
  6
CONTINUOUS
 62
    30
 10
-721.92168704178721
 20
-112.000004
 30
0.0
 11
-721.92168704178721
 21
-124.000004
 31
0.0
  0
LINE
  8
SIZE
  6
CONTINUOUS
 62
    30
 10
-721.92168704178721
 20
79.99996299999998
 30
0.0
 11
-721.92168704178721
 21
-100.000004
 31
0.0
  0
CIRCLE
  8
SIZE
  6
CONTINUOUS
 62
    30
 10
-721.92168704178721
 20
79.99996299999998
 30
0.0
 40
6.0
  0
LINE
  8
SIZE
  6
CONTINUOUS
 62
    30
 10
-721.92168704178721
 20
79.99996299999998
 30
0.0
 11
-721.92168704178721
 21
91.99996299999998
 31
0.0
  0
CIRCLE
  8
SIZE
  6
CONTINUOUS
 62
    30
 10
-721.92168704178721
 20
-100.000004
 30
0.0
 40
6.0
  0
LINE
  8
SIZE
  6
CONTINUOUS
 62
    30
 10
-721.92168704178721
 20
-100.000004
 30
0.0
 11
-721.92168704178721
 21
-112.000004
 31
0.0
  0
TEXT
  8
SIZE
  6
CONTINUOUS
 62
    30
 10
-737.55703046017879
 20
-75.141859379540335
 30
0.0
 40
64.0
  1
180
 50
90.0
 41
0.9
 72
     1
 11
-737.55703046017879
 21
-6.5704308081117802
 31
0.0
  0
POINT
  8
DEFPOINTS
  6
CONTINUOUS
 62
    30
 10
0.302206999999953
 20
79.99996299999998
 30
0.0
 50
180.0
  0
POINT
  8
DEFPOINTS
  6
CONTINUOUS
 62
    30
 10
0.2995879999998579
 20
-100.000004
 30
0.0
 50
180.0
  0
POINT
  8
DEFPOINTS
  6
CONTINUOUS
 62
    30
 10
-721.92168704178721
 20
-100.000004
 30
0.0
 50
180.0
  0
LINE
  8
NOTE
  6
CONTINUOUS
 62
     4
 10
0.0
 20
-14.0
 30
0.0
 11
0.0
 21
26.0
 31
0.0
  0
LINE
  8
NOTE
  6
CONTINUOUS
 62
     4
 10
20.0
 20
6.0
 30
0.0
 11
-20.0
 21
6.0
 31
0.0
  0
LINE
  8
SIZE
  6
CONTINUOUS
 62
    30
 10
-81.316626000000028
 20
-23.0
 30
0.0
 11
-461.9324424225602
 21
-23.0
 31
0.0
  0
LINE
  8
SIZE
  6
CONTINUOUS
 62
    30
 10
-81.317680000000109
 20
23.0
 30
0.0
 11
-461.9324424225602
 21
23.0
 31
0.0
  0
LINE
  8
SIZE
  6
CONTINUOUS
 62
    30
 10
-441.9324424225602
 20
-35.0
 30
0.0
 11
-441.9324424225602
 21
-47.0
 31
0.0
  0
LINE
  8
SIZE
  6
CONTINUOUS
 62
    30
 10
-441.9324424225602
 20
35.0
 30
0.0
 11
-441.9324424225602
 21
268.04522500000007
 31
0.0
  0
LINE
  8
SIZE
  6
CONTINUOUS
 62
    30
 10
-441.9324424225602
 20
-23.0
 30
0.0
 11
-441.9324424225602
 21
23.0
 31
0.0
  0
CIRCLE
  8
SIZE
  6
CONTINUOUS
 62
    30
 10
-441.9324424225602
 20
-23.0
 30
0.0
 40
6.0
  0
LINE
  8
SIZE
  6
CONTINUOUS
 62
    30
 10
-441.9324424225602
 20
-23.0
 30
0.0
 11
-441.9324424225602
 21
-35.0
 31
0.0
  0
CIRCLE
  8
SIZE
  6
CONTINUOUS
 62
    30
 10
-441.9324424225602
 20
23.0
 30
0.0
 40
6.0
  0
LINE
  8
SIZE
  6
CONTINUOUS
 62
    30
 10
-441.9324424225602
 20
23.0
 30
0.0
 11
-441.9324424225602
 21
35.0
 31
0.0
  0
TEXT
  8
SIZE
  6
CONTINUOUS
 62
    30
 10
-478.90111917428499
 20
89.583385334745401
 30
0.0
 40
64.0
  1
φ46
 50
90.0
 41
0.9
 72
     1
 11
-478.90111917428499
 21
175.16052819188829
 31
0.0
  0
POINT
  8
DEFPOINTS
  6
CONTINUOUS
 62
    30
 10
-441.9324424225602
 20
23.0
 30
0.0
 50
180.0
  0
LINE
  8
SIZE
  6
CONTINUOUS
 62
    30
 10
-20.0
 20
-47.5
 30
0.0
 11
-594.43175842256016
 21
-47.5
 31
0.0
  0
LINE
  8
SIZE
  6
CONTINUOUS
 62
    30
 10
-20.0
 20
47.5
 30
0.0
 11
-594.43175842256016
 21
47.5
 31
0.0
  0
LINE
  8
SIZE
  6
CONTINUOUS
 62
    30
 10
-574.43175842256016
 20
-35.5
 30
0.0
 11
-574.43175842256016
 21
35.5
 31
0.0
  0
LINE
  8
SIZE
  6
CONTINUOUS
 62
    30
 10
-574.43175842256016
 20
47.5
 30
0.0
 11
-574.43175842256016
 21
270.68240600000001
 31
0.0
  0
CIRCLE
  8
SIZE
  6
CONTINUOUS
 62
    30
 10
-574.43175842256016
 20
-47.5
 30
0.0
 40
6.0
  0
LINE
  8
SIZE
  6
CONTINUOUS
 62
    30
 10
-574.43175842256016
 20
-47.5
 30
0.0
 11
-574.43175842256016
 21
-35.5
 31
0.0
  0
CIRCLE
  8
SIZE
  6
CONTINUOUS
 62
    30
 10
-574.43175842256016
 20
47.5
 30
0.0
 40
6.0
  0
LINE
  8
SIZE
  6
CONTINUOUS
 62
    30
 10
-574.43175842256016
 20
47.5
 30
0.0
 11
-574.43175842256016
 21
35.5
 31
0.0
  0
TEXT
  8
SIZE
  6
CONTINUOUS
 62
    30
 10
-611.40043517428512
 20
89.477709763316753
 30
0.0
 40
64.0
  1
φ95
 50
90.0
 41
0.9
 72
     1
 11
-611.40043517428512
 21
176.42628119188819
 31
0.0
  0
POINT
  8
DEFPOINTS
  6
CONTINUOUS
 62
    30
 10
0.0
 20
-47.5
 30
0.0
 50
180.0
  0
POINT
  8
DEFPOINTS
  6
CONTINUOUS
 62
    30
 10
0.0
 20
47.5
 30
0.0
 50
180.0
  0
POINT
  8
DEFPOINTS
  6
CONTINUOUS
 62
    30
 10
-574.43175842256016
 20
47.5
 30
0.0
 50
180.0
  0
LINE
  8
SIZE
  6
CONTINUOUS
 62
    30
 10
-19.697793000000051
 20
79.99996299999998
 30
0.0
 11
-324.39010100380852
 21
79.99996299999998
 31
0.0
  0
LINE
  8
SIZE
  6
CONTINUOUS
 62
    30
 10
-110.0
 20
0.0
 30
0.0
 11
-324.39010100380852
 21
0.0
 31
0.0
  0
LINE
  8
SIZE
  6
CONTINUOUS
 62
    30
 10
-304.39010100380852
 20
12.0
 30
0.0
 11
-304.39010100380852
 21
67.99996299999998
 31
0.0
  0
LINE
  8
SIZE
  6
CONTINUOUS
 62
    30
 10
-304.39010100380852
 20
79.99996299999998
 30
0.0
 11
-304.39010100380852
 21
235.25710599999999
 31
0.0
  0
CIRCLE
  8
SIZE
  6
CONTINUOUS
 62
    30
 10
-304.39010100380852
 20
0.0
 30
0.0
 40
6.0
  0
LINE
  8
SIZE
  6
CONTINUOUS
 62
    30
 10
-304.39010100380852
 20
0.0
 30
0.0
 11
-304.39010100380852
 21
12.0
 31
0.0
  0
CIRCLE
  8
SIZE
  6
CONTINUOUS
 62
    30
 10
-304.39010100380852
 20
79.99996299999998
 30
0.0
 40
6.0
  0
LINE
  8
SIZE
  6
CONTINUOUS
 62
    30
 10
-304.39010100380852
 20
79.99996299999998
 30
0.0
 11
-304.39010100380852
 21
67.99996299999998
 31
0.0
  0
TEXT
  8
SIZE
  6
CONTINUOUS
 62
    30
 10
-323.67585987073198
 20
120.4295517633167
 30
0.0
 40
64.0
  1
80
 50
90.0
 41
0.9
 72
     1
 11
-323.67585987073198
 21
167.0581231918882
 31
0.0
  0
POINT
  8
DEFPOINTS
  6
CONTINUOUS
 62
    30
 10
0.302206999999953
 20
79.99996299999998
 30
0.0
 50
180.0
  0
POINT
  8
DEFPOINTS
  6
CONTINUOUS
 62
    30
 10
-304.39010100380852
 20
0.0
 30
0.0
 50
180.0
  0
LINE
  8
SIZE
  6
CONTINUOUS
 62
    30
 10
49.99999200000002
 20
-30.000021
 30
0.0
 11
49.99999200000002
 21
-417.03967699999998
 31
0.0
  0
LINE
  8
SIZE
  6
CONTINUOUS
 62
    30
 10
0.0
 20
-145.208901
 30
0.0
 11
0.0
 21
-417.03967699999998
 31
0.0
  0
LINE
  8
SIZE
  6
CONTINUOUS
 62
    30
 10
-12.0
 20
-397.03967699999998
 30
0.0
 11
-24.0
 21
-397.03967699999998
 31
0.0
  0
LINE
  8
SIZE
  6
CONTINUOUS
 62
    30
 10
61.99999200000002
 20
-397.03967699999998
 30
0.0
 11
217.25713500000009
 21
-397.03967699999998
 31
0.0
  0
LINE
  8
SIZE
  6
CONTINUOUS
 62
    30
 10
0.0
 20
-397.03967699999998
 30
0.0
 11
49.99999200000002
 21
-397.03967699999998
 31
0.0
  0
CIRCLE
  8
SIZE
  6
CONTINUOUS
 62
    30
 10
0.0
 20
-397.03967699999998
 30
0.0
 40
6.0
  0
LINE
  8
SIZE
  6
CONTINUOUS
 62
    30
 10
0.0
 20
-397.03967699999998
 30
0.0
 11
-12.0
 21
-397.03967699999998
 31
0.0
  0
CIRCLE
  8
SIZE
  6
CONTINUOUS
 62
    30
 10
49.99999200000002
 20
-397.03967699999998
 30
0.0
 40
6.0
  0
LINE
  8
SIZE
  6
CONTINUOUS
 62
    30
 10
49.99999200000002
 20
-397.03967699999998
 30
0.0
 11
61.99999200000002
 21
-397.03967699999998
 31
0.0
  0
TEXT
  8
SIZE
  6
CONTINUOUS
 62
    30
 10
98.999991571428595
 20
-372.03967699999998
 30
0.0
 40
64.0
  1
50
 41
0.9
 72
     1
 11
145.62856300000001
 21
-372.03967699999998
 31
0.0
  0
POINT
  8
DEFPOINTS
  6
CONTINUOUS
 62
    30
 10
49.99999200000002
 20
-10.000021
 30
0.0
 50
180.0
  0
POINT
  8
DEFPOINTS
  6
CONTINUOUS
 62
    30
 10
0.0
 20
-125.208901
 30
0.0
 50
180.0
  0
POINT
  8
DEFPOINTS
  6
CONTINUOUS
 62
    30
 10
0.0
 20
-397.03967699999998
 30
0.0
 50
180.0
  0
LINE
  8
SIZE
  6
CONTINUOUS
 62
    30
 10
0.0
 20
125.519175
 30
0.0
 11
0.0
 21
332.90893540557772
 31
0.0
  0
LINE
  8
SIZE
  6
CONTINUOUS
 62
    30
 10
95.000004000000004
 20
90.056495999999981
 30
0.0
 11
95.000004000000004
 21
332.90893540557772
 31
0.0
  0
LINE
  8
SIZE
  6
CONTINUOUS
 62
    30
 10
12.0
 20
312.90893540557772
 30
0.0
 11
83.000003999999976
 21
312.90893540557772
 31
0.0
  0
LINE
  8
SIZE
  6
CONTINUOUS
 62
    30
 10
95.000004000000004
 20
312.90893540557772
 30
0.0
 11
705.36282897488843
 21
312.90893540557772
 31
0.0
  0
CIRCLE
  8
SIZE
  6
CONTINUOUS
 62
    30
 10
0.0
 20
312.90893540557772
 30
0.0
 40
6.0
  0
LINE
  8
SIZE
  6
CONTINUOUS
 62
    30
 10
0.0
 20
312.90893540557772
 30
0.0
 11
12.0
 21
312.90893540557772
 31
0.0
  0
CIRCLE
  8
SIZE
  6
CONTINUOUS
 62
    30
 10
95.000004000000004
 20
312.90893540557772
 30
0.0
 40
6.0
  0
LINE
  8
SIZE
  6
CONTINUOUS
 62
    30
 10
95.000004000000004
 20
312.90893540557772
 30
0.0
 11
83.000003999999976
 21
312.90893540557772
 31
0.0
  0
TEXT
  8
SIZE
  6
CONTINUOUS
 62
    30
 10
150.75727094898949
 20
354.67083940557768
 30
0.0
 40
64.0
  1
(95)
 41
0.9
 72
     1
 11
234.41441380613239
 21
354.67083940557768
 31
0.0
  0
POINT
  8
DEFPOINTS
  6
CONTINUOUS
 62
    30
 10
95.000004000000004
 20
70.056495999999981
 30
0.0
 50
180.0
  0
POINT
  8
DEFPOINTS
  6
CONTINUOUS
 62
    30
 10
95.000004000000004
 20
312.90893540557772
 30
0.0
 50
180.0
  0
TEXT
  8
SIZE
  6
CONTINUOUS
 62
    30
 10
110.0400190000001
 20
214.33569640557769
 30
0.0
 40
64.0
  1
（シャッター開時）
 41
0.9
  0
POINT
  8
DEFPOINTS
  6
CONTINUOUS
 62
    30
 10
0.0
 20
-125.208901
 30
0.0
 50
180.0
  0
LINE
  8
SIZE
  6
CONTINUOUS
 62
    30
 10
0.0
 20
-145.208901
 30
0.0
 11
0.0
 21
-417.03967699999998
 31
0.0
  0
LINE
  8
SIZE
  6
CONTINUOUS
 62
    30
 10
-64.0
 20
-34.095684346438247
 30
0.0
 11
-64.0
 21
-417.03967699999998
 31
0.0
  0
LINE
  8
SIZE
  6
CONTINUOUS
 62
    30
 10
12.0
 20
-397.03967699999998
 30
0.0
 11
24.0
 21
-397.03967699999998
 31
0.0
  0
LINE
  8
SIZE
  6
CONTINUOUS
 62
    30
 10
-76.0
 20
-397.03967699999998
 30
0.0
 11
-246.95881200000011
 21
-397.03967699999998
 31
0.0
  0
LINE
  8
SIZE
  6
CONTINUOUS
 62
    30
 10
0.0
 20
-397.03967699999998
 30
0.0
 11
-64.0
 21
-397.03967699999998
 31
0.0
  0
CIRCLE
  8
SIZE
  6
CONTINUOUS
 62
    30
 10
0.0
 20
-397.03967699999998
 30
0.0
 40
6.0
  0
LINE
  8
SIZE
  6
CONTINUOUS
 62
    30
 10
0.0
 20
-397.03967699999998
 30
0.0
 11
12.0
 21
-397.03967699999998
 31
0.0
  0
CIRCLE
  8
SIZE
  6
CONTINUOUS
 62
    30
 10
-64.0
 20
-397.03967699999998
 30
0.0
 40
6.0
  0
LINE
  8
SIZE
  6
CONTINUOUS
 62
    30
 10
-64.0
 20
-397.03967699999998
 30
0.0
 11
-76.0
 21
-397.03967699999998
 31
0.0
  0
TEXT
  8
SIZE
  6
CONTINUOUS
 62
    30
 10
-221.95881200000011
 20
-372.03967699999998
 30
0.0
 40
64.0
  1
64
 41
0.9
 72
     1
 11
-173.95881200000011
 21
-372.03967699999998
 31
0.0
  0
POINT
  8
DEFPOINTS
  6
CONTINUOUS
 62
    30
 10
0.0
 20
-125.208901
 30
0.0
 50
180.0
  0
POINT
  8
DEFPOINTS
  6
CONTINUOUS
 62
    30
 10
-64.0
 20
-397.03967699999998
 30
0.0
 50
180.0
  0
LINE
  8
NOTE
  6
CONTINUOUS
 62
     4
 10
-206.28976700000001
 20
317.52058599999998
 30
0.0
 11
-607.22092840177447
 21
317.52058599999998
 31
0.0
  0
LINE
  8
SIZE
  6
CONTINUOUS
 62
    30
 10
0.0
 20
-145.208901
 30
0.0
 11
0.0
 21
-265.40736241317973
 31
0.0
  0
LINE
  8
SIZE
  6
CONTINUOUS
 62
    30
 10
-35.999999993599893
 20
-61.263849072431412
 30
0.0
 11
-35.999999993599893
 21
-265.40736241317973
 31
0.0
  0
LINE
  8
SIZE
  6
CONTINUOUS
 62
    30
 10
12.0
 20
-245.4073624131797
 30
0.0
 11
24.0
 21
-245.4073624131797
 31
0.0
  0
LINE
  8
SIZE
  6
CONTINUOUS
 62
    30
 10
-47.999999993599893
 20
-245.4073624131797
 30
0.0
 11
-200.51428570788559
 21
-245.4073624131797
 31
0.0
  0
LINE
  8
SIZE
  6
CONTINUOUS
 62
    30
 10
0.0
 20
-245.4073624131797
 30
0.0
 11
-35.999999993599893
 21
-245.4073624131797
 31
0.0
  0
CIRCLE
  8
SIZE
  6
CONTINUOUS
 62
    30
 10
0.0
 20
-245.4073624131797
 30
0.0
 40
6.0
  0
LINE
  8
SIZE
  6
CONTINUOUS
 62
    30
 10
0.0
 20
-245.4073624131797
 30
0.0
 11
12.0
 21
-245.4073624131797
 31
0.0
  0
CIRCLE
  8
SIZE
  6
CONTINUOUS
 62
    30
 10
-35.999999993599893
 20
-245.4073624131797
 30
0.0
 40
6.0
  0
LINE
  8
SIZE
  6
CONTINUOUS
 62
    30
 10
-35.999999993599893
 20
-245.4073624131797
 30
0.0
 11
-47.999999993599893
 21
-245.4073624131797
 31
0.0
  0
TEXT
  8
SIZE
  6
CONTINUOUS
 62
    30
 10
-175.5142857078857
 20
-220.4073624131797
 30
0.0
 40
64.0
  1
36
 41
0.9
 72
     1
 11
-130.25714285074289
 21
-220.4073624131797
 31
0.0
  0
POINT
  8
DEFPOINTS
  6
CONTINUOUS
 62
    30
 10
0.0
 20
-125.208901
 30
0.0
  0
POINT
  8
DEFPOINTS
  6
CONTINUOUS
 62
    30
 10
-35.999999993599893
 20
-41.263849072431412
 30
0.0
  0
POINT
  8
DEFPOINTS
  6
CONTINUOUS
 62
    30
 10
-35.999999993599893
 20
-245.4073624131797
 30
0.0
  0
LINE
  8
SIZE
  6
CONTINUOUS
 62
    30
 10
-40.0
 20
6.0
 30
0.0
 11
-201.42317445139409
 21
6.0000000000000568
 31
0.0
  0
LINE
  8
SIZE
  6
CONTINUOUS
 62
    30
 10
-110.0
 20
0.0
 30
0.0
 11
-201.42317445139409
 21
0.0000000000000568
 31
0.0
  0
LINE
  8
SIZE
  6
CONTINUOUS
 62
    30
 10
-181.42317445139409
 20
-12.0
 30
0.0
 11
-181.42317445139409
 21
-24.0
 31
0.0
  0
LINE
  8
SIZE
  6
CONTINUOUS
 62
    30
 10
-181.42317445139409
 20
18.00000000000006
 30
0.0
 11
-181.42317445139409
 21
183.43795092371809
 31
0.0
  0
LINE
  8
SIZE
  6
CONTINUOUS
 62
    30
 10
-181.42317445139409
 20
0.0
 30
0.0
 11
-181.42317445139409
 21
6.0000000000000568
 31
0.0
  0
CIRCLE
  8
SIZE
  6
CONTINUOUS
 62
    30
 10
-181.42317445139409
 20
0.0
 30
0.0
 40
6.0
  0
LINE
  8
SIZE
  6
CONTINUOUS
 62
    30
 10
-181.42317445139409
 20
0.0
 30
0.0
 11
-181.42317445139409
 21
-12.0
 31
0.0
  0
CIRCLE
  8
SIZE
  6
CONTINUOUS
 62
    30
 10
-181.42317445139409
 20
6.0000000000000568
 30
0.0
 40
6.0
  0
LINE
  8
SIZE
  6
CONTINUOUS
 62
    30
 10
-181.42317445139409
 20
6.0000000000000568
 30
0.0
 11
-181.42317445139409
 21
18.00000000000006
 31
0.0
  0
TEXT
  8
SIZE
  6
CONTINUOUS
 62
    30
 10
-206.42317445139409
 20
122.7808080665752
 30
0.0
 40
64.0
  1
6
 50
90.0
 41
0.9
 72
     1
 11
-206.42317445139409
 21
140.60937949514661
 31
0.0
  0
POINT
  8
DEFPOINTS
  6
CONTINUOUS
 62
    30
 10
-20.0
 20
6.0
 30
0.0
  0
POINT
  8
DEFPOINTS
  6
CONTINUOUS
 62
    30
 10
-90.0
 20
0.0
 30
0.0
  0
POINT
  8
DEFPOINTS
  6
CONTINUOUS
 62
    30
 10
-181.42317445139409
 20
0.0
 30
0.0
  0
CIRCLE
  8
FIX
  6
CONTINUOUS
 62
    11
 10
0.0
 20
6.0
 30
0.0
 40
5.0
  0
LINE
  8
DETAIL
  6
CONTINUOUS
 62
     5
 10
3.0172202665009991
 20
-99.976362869493087
 30
0.0
 11
3.0172202665009991
 21
-101.1465569825254
 31
0.0
  0
LINE
  8
DETAIL
  6
CONTINUOUS
 62
     5
 10
3.0172202665009991
 20
-101.1465569825254
 30
0.0
 11
0.3026660000000447
 21
-101.1465569825254
 31
0.0
  0
LINE
  8
DETAIL
  6
CONTINUOUS
 62
     5
 10
0.3026660000000447
 20
-101.1465569825254
 30
0.0
 11
0.3026660000000447
 21
-99.999988239322377
 31
0.0
  0
TEXT
  8
NOTE
  6
CONTINUOUS
 62
     4
 10
-235.73685481161871
 20
477.67817715874628
 30
0.0
 40
64.0
  1
EL
 41
0.9
  0
LINE
  8
NOTE
  6
CONTINUOUS
 62
     4
 10
11.84525302231896
 20
71.113825866846923
 30
0.0
 11
14.81795302231899
 21
31.22444086684698
 31
0.0
  0
LINE
  8
NOTE
  6
CONTINUOUS
 62
     4
 10
14.81795302231899
 20
31.22444086684698
 30
0.0
 11
-7.7011739776810364
 21
64.28331186684693
 31
0.0
  0
LINE
  8
NOTE
  6
CONTINUOUS
 62
     4
 10
14.81795302231899
 20
31.22444086684698
 30
0.0
 11
-125.97489738304741
 21
451.06269015874602
 31
0.0
  0
LINE
  8
NOTE
  6
CONTINUOUS
 62
     4
 10
14.81795302231899
 20
11.22444086684698
 30
0.0
 11
14.81795302231899
 21
51.224440866846983
 31
0.0
  0
LINE
  8
NOTE
  6
CONTINUOUS
 62
     4
 10
34.817953022318989
 20
31.22444086684698
 30
0.0
 11
-5.1820469776810114
 21
31.22444086684698
 31
0.0
  0
LINE
  8
NOTE
  6
CONTINUOUS
 62
     4
 10
-125.97489738304741
 20
451.06269015874602
 30
0.0
 11
-266.83373938304732
 21
451.06269015874602
 31
0.0
  0
CIRCLE
  8
ARRANGE
  6
CONTINUOUS
 62
     1
 10
0.0
 20
0.0
 30
0.0
 40
40.0
  0
POINT
  8
ARRANGE
  6
CONTINUOUS
 62
     1
 10
0.0
 20
0.0
 30
0.0
 50
180.0
  0
ARC
  8
DETAIL
  6
DIVIDE
 62
     5
 10
-576.93258999999989
 20
223.35115999999991
 30
0.0
 40
689.23472100000004
 50
334.94559900000303
 51
347.12078500000399
  0
ARC
  8
DETAIL
  6
DIVIDE
 62
     5
 10
-620.05282499999998
 20
240.171954
 30
0.0
 40
725.79263700000001
 50
335.68619299999449
 51
346.78855800000161
  0
LINE
  8
DETAIL
  6
CONTINUOUS
 62
     5
 10
38.008284000000003
 20
42.579635999999937
 30
0.0
 11
38.611508999999842
 21
33.992649000000029
 31
0.0
  0
LINE
  8
DETAIL
  6
CONTINUOUS
 62
     5
 10
42.816745999999974
 20
25.82667199999992
 30
0.0
 11
42.301272000000147
 21
34.603825000000029
 31
0.0
  0
ARC
  8
DETAIL
  6
CONTINUOUS
 62
     5
 10
-639.06307400000014
 20
-10.000020999999951
 30
0.0
 40
689.06306600000016
 50
355.18767399999928
 51
7.3643769999987372
  0
LINE
  8
DETAIL
  6
CONTINUOUS
 62
     5
 10
0.0
 20
79.700381999999991
 30
0.0
 11
0.0
 21
-99.700423999999998
 31
0.0
  0
LINE
  8
DETAIL
  6
CONTINUOUS
 62
     5
 10
38.599799999999959
 20
-93.463301000000001
 30
0.0
 11
37.896024000000118
 21
-99.046307999999954
 31
0.0
  0
LINE
  8
DETAIL
  6
CONTINUOUS
 62
     5
 10
43.719954000000143
 20
-96.608067000000005
 30
0.0
 11
37.711452000000008
 21
-99.529089999999997
 31
0.0
  0
LINE
  8
DETAIL
  6
CONTINUOUS
 62
     5
 10
34.85647999999992
 20
-99.699109000000021
 30
0.0
 11
0.302206999999953
 21
-100.000005
 31
0.0
  0
LINE
  8
DETAIL
  6
CONTINUOUS
 62
     5
 10
37.069584999999961
 20
-99.67979600000001
 30
0.0
 11
34.85647999999992
 21
-99.699109000000021
 31
0.0
  0
ARC
  8
DETAIL
  6
CONTINUOUS
 62
     5
 10
37.056513000000002
 20
-98.181889999999953
 30
0.0
 40
1.4979629999999999
 50
270.50000000000449
 51
295.92662299999199
  0
ARC
  8
DETAIL
  6
CONTINUOUS
 62
     5
 10
0.2995929999999589
 20
-99.700411000000031
 30
0.0
 40
0.299593
 50
180.00247000000181
 51
270.49997800000892
  0
LINE
  8
DETAIL
  6
CONTINUOUS
 62
     5
 10
39.825432000000092
 20
-26.25981100000001
 30
0.0
 11
39.568534999999883
 21
-34.864317000000028
 31
0.0
  0
LINE
  8
DETAIL
  6
CONTINUOUS
 62
     5
 10
43.271510000000028
 20
-35.696429999999957
 30
0.0
 11
43.544558000000052
 21
-26.908636000000001
 31
0.0
  0
LINE
  8
DETAIL
  6
DIVIDE
 62
     5
 10
41.364966999999979
 20
-58.661536999999953
 30
0.0
 11
44.168153000000068
 21
-64.401358999999957
 31
0.0
  0
LINE
  8
DETAIL
  6
CONTINUOUS
 62
     5
 10
41.776988999999958
 20
-62.028665000000053
 30
0.0
 11
47.555503000000037
 21
-67.807181000000014
 31
0.0
  0
LINE
  8
DETAIL
  6
CONTINUOUS
 62
     5
 10
38.165969000000132
 20
-60.523212000000058
 30
0.0
 11
47.410183999999838
 21
-69.767426999999998
 31
0.0
  0
LINE
  8
DETAIL
  6
CONTINUOUS
 62
     5
 10
41.551234000000022
 20
-63.908478000000059
 30
0.0
 11
41.42518599999994
 21
-65.48165199999994
 31
0.0
  0
LINE
  8
DETAIL
  6
DIVIDE
 62
     5
 10
44.168153000000068
 20
-64.401358999999957
 30
0.0
 11
45.900965000000042
 21
-67.969906000000037
 31
0.0
  0
ARC
  8
DETAIL
  6
CONTINUOUS
 62
     5
 10
42.934027000000007
 20
-94.991426999999931
 30
0.0
 40
1.7975559999999999
 50
295.92662299999199
 51
352.89627200000189
  0
ARC
  8
DETAIL
  6
CONTINUOUS
 62
     5
 10
-639.05595900000026
 20
-10.000020999999951
 30
0.0
 40
689.06306600000016
 50
352.89627200000189
 51
354.51114200000018
  0
ARC
  8
DETAIL
  6
CONTINUOUS
 62
     5
 10
45.564021000000139
 20
-68.420585000000074
 30
0.0
 40
0.5991850000000001
 50
96.408015000007083
 51
98.840469999995861
  0
LINE
  8
DETAIL
  6
DIVIDE
 62
     5
 10
45.497147000000041
 20
-67.825144000000023
 30
0.0
 11
47.449358999999959
 21
-68.52498300000002
 31
0.0
  0
LINE
  8
DETAIL
  6
CONTINUOUS
 62
     5
 10
45.497147000000041
 20
-67.825144000000023
 30
0.0
 11
47.570930999999973
 21
-67.807046000000014
 31
0.0
  0
ARC
  8
DETAIL
  6
CONTINUOUS
 62
     5
 10
-639.05595900000026
 20
-10.000020999999951
 30
0.0
 40
689.06306600000016
 50
354.51213900000289
 51
355.02407100000471
  0
LINE
  8
DETAIL
  6
CONTINUOUS
 62
     5
 10
40.148043000000143
 20
-79.687435999999934
 30
0.0
 11
39.662917999999991
 21
-84.282752000000073
 31
0.0
  0
LINE
  8
DETAIL
  6
CONTINUOUS
 62
     5
 10
39.146836999999998
 20
-88.874703999999952
 30
0.0
 11
38.599799999999959
 21
-93.463301000000001
 31
0.0
  0
LINE
  8
DETAIL
  6
CONTINUOUS
 62
     5
 10
39.662917999999991
 20
-84.282752000000073
 30
0.0
 11
39.146836999999998
 21
-88.874703999999952
 31
0.0
  0
LINE
  8
DETAIL
  6
CONTINUOUS
 62
     5
 10
41.191906000000017
 20
-68.284828000000061
 30
0.0
 11
41.003487999999827
 21
-70.467674999999986
 31
0.0
  0
LINE
  8
DETAIL
  6
CONTINUOUS
 62
     5
 10
41.309983000000102
 20
-66.883358000000044
 30
0.0
 11
41.191906000000017
 21
-68.284828000000061
 31
0.0
  0
LINE
  8
DETAIL
  6
CONTINUOUS
 62
     5
 10
41.42518599999994
 20
-65.48165199999994
 30
0.0
 11
41.309983000000102
 21
-66.883358000000044
 31
0.0
  0
LINE
  8
DETAIL
  6
CONTINUOUS
 62
     5
 10
40.602210000000007
 20
-75.088751999999999
 30
0.0
 11
40.148043000000143
 21
-79.687435999999934
 31
0.0
  0
LINE
  8
DETAIL
  6
CONTINUOUS
 62
     5
 10
41.025388000000021
 20
-70.486975000000029
 30
0.0
 11
40.602210000000007
 21
-75.088751999999999
 31
0.0
  0
LINE
  8
DETAIL
  6
CONTINUOUS
 62
     5
 10
39.203841000000011
 20
-43.472080000000012
 30
0.0
 11
38.732074000000011
 21
-52.065969000000003
 31
0.0
  0
LINE
  8
DETAIL
  6
CONTINUOUS
 62
     5
 10
42.387651999999889
 20
-53.25787200000002
 30
0.0
 11
42.885852999999997
 21
-44.479982999999947
 31
0.0
  0
LINE
  8
DETAIL
  6
CONTINUOUS
 62
     5
 10
38.731850000000122
 20
-52.069631000000072
 30
0.0
 11
38.162008000000007
 21
-60.51925099999994
 31
0.0
  0
LINE
  8
DETAIL
  6
CONTINUOUS
 62
     5
 10
41.776988999999958
 20
-62.028665000000053
 30
0.0
 11
42.387651999999889
 21
-53.25787200000002
 31
0.0
  0
LINE
  8
DETAIL
  6
CONTINUOUS
 62
     5
 10
40.591170000000147
 20
-61.557090000000017
 30
0.0
 11
40.428335000000061
 21
-61.543952999999988
 31
0.0
  0
LINE
  8
DETAIL
  6
CONTINUOUS
 62
     5
 10
40.750111999999937
 20
-61.578403999999978
 30
0.0
 11
40.591170000000147
 21
-61.557090000000017
 31
0.0
  0
LINE
  8
DETAIL
  6
CONTINUOUS
 62
     5
 10
40.905862999999947
 20
-61.60793799999999
 30
0.0
 11
40.750111999999937
 21
-61.578403999999978
 31
0.0
  0
LINE
  8
DETAIL
  6
CONTINUOUS
 62
     5
 10
41.056321000000032
 20
-61.645455999999967
 30
0.0
 11
40.905862999999947
 21
-61.60793799999999
 31
0.0
  0
LINE
  8
DETAIL
  6
CONTINUOUS
 62
     5
 10
41.199859999999937
 20
-61.690712000000083
 30
0.0
 11
41.056321000000032
 21
-61.645455999999967
 31
0.0
  0
LINE
  8
DETAIL
  6
CONTINUOUS
 62
     5
 10
41.335765000000038
 20
-61.74373700000001
 30
0.0
 11
41.199859999999937
 21
-61.690712000000083
 31
0.0
  0
LINE
  8
DETAIL
  6
CONTINUOUS
 62
     5
 10
41.463543999999963
 20
-61.804712999999992
 30
0.0
 11
41.335765000000038
 21
-61.74373700000001
 31
0.0
  0
LINE
  8
DETAIL
  6
CONTINUOUS
 62
     5
 10
41.580903999999919
 20
-61.872879000000012
 30
0.0
 11
41.463543999999963
 21
-61.804712999999992
 31
0.0
  0
LINE
  8
DETAIL
  6
CONTINUOUS
 62
     5
 10
41.685077999999983
 20
-61.947478000000046
 30
0.0
 11
41.580903999999919
 21
-61.872879000000012
 31
0.0
  0
LINE
  8
DETAIL
  6
CONTINUOUS
 62
     5
 10
41.776988999999958
 20
-62.028665000000053
 30
0.0
 11
41.685077999999983
 21
-61.947478000000046
 31
0.0
  0
LINE
  8
DETAIL
  6
CONTINUOUS
 62
     5
 10
40.530516000000027
 20
-62.892934999999973
 30
0.0
 11
40.532900000000147
 21
-62.890142999999973
 31
0.0
  0
LINE
  8
DETAIL
  6
CONTINUOUS
 62
     5
 10
40.523013999999883
 20
-62.900834000000032
 30
0.0
 11
40.530516000000027
 21
-62.892934999999973
 31
0.0
  0
LINE
  8
DETAIL
  6
CONTINUOUS
 62
     5
 10
38.161675999999943
 20
-60.524805000000008
 30
0.0
 11
38.165969000000132
 21
-60.523212000000058
 31
0.0
  0
LINE
  8
DETAIL
  6
CONTINUOUS
 62
     5
 10
38.149417999999969
 20
-60.52968199999998
 30
0.0
 11
38.161675999999943
 21
-60.524805000000008
 31
0.0
  0
LINE
  8
DETAIL
  6
CONTINUOUS
 62
     5
 10
40.428335000000061
 20
-61.543952999999988
 30
0.0
 11
39.186709999999948
 21
-61.543952999999988
 31
0.0
  0
LINE
  8
DETAIL
  6
CONTINUOUS
 62
     5
 10
39.568401999999878
 20
-34.867982999999981
 30
0.0
 11
39.204020000000128
 21
-43.468414000000053
 31
0.0
  0
LINE
  8
DETAIL
  6
CONTINUOUS
 62
     5
 10
42.885852999999997
 20
-44.479982999999947
 30
0.0
 11
43.271510000000028
 21
-35.696429999999957
 31
0.0
  0
LINE
  8
DETAIL
  6
CONTINUOUS
 62
     5
 10
39.777360999999928
 20
8.1825840000000198
 30
0.0
 11
39.950741000000107
 21
-0.4231379999999945
 31
0.0
  0
LINE
  8
DETAIL
  6
CONTINUOUS
 62
     5
 10
43.68767200000002
 20
-0.5341240000000198
 30
0.0
 11
43.51000299999987
 21
8.2562550000000101
 31
0.0
  0
LINE
  8
DETAIL
  6
CONTINUOUS
 62
     5
 10
40.016628999999973
 20
-9.0378150000000232
 30
0.0
 11
39.974874999999876
 21
-17.645651999999931
 31
0.0
  0
LINE
  8
DETAIL
  6
CONTINUOUS
 62
     5
 10
43.704950000000053
 20
-18.11801400000002
 30
0.0
 11
43.752657999999883
 21
-9.3260259999999562
 31
0.0
  0
LINE
  8
DETAIL
  6
CONTINUOUS
 62
     5
 10
39.974834000000101
 20
-17.649319999999989
 30
0.0
 11
39.825518000000102
 21
-26.256141999999951
 31
0.0
  0
LINE
  8
DETAIL
  6
CONTINUOUS
 62
     5
 10
43.544558000000052
 20
-26.908636000000001
 30
0.0
 11
43.704950000000053
 21
-18.11801400000002
 31
0.0
  0
LINE
  8
DETAIL
  6
CONTINUOUS
 62
     5
 10
39.950792000000092
 20
-0.4268059999999423
 30
0.0
 11
40.016623999999872
 21
-9.0341450000000805
 31
0.0
  0
LINE
  8
DETAIL
  6
CONTINUOUS
 62
     5
 10
43.752657999999883
 20
-9.3260259999999562
 30
0.0
 11
43.68767200000002
 21
-0.5341240000000198
 31
0.0
  0
LINE
  8
DETAIL
  6
CONTINUOUS
 62
     5
 10
39.107798999999893
 20
25.391639000000051
 30
0.0
 11
39.49620300000015
 21
16.792802999999939
 31
0.0
  0
LINE
  8
DETAIL
  6
CONTINUOUS
 62
     5
 10
43.219677000000047
 20
17.043668000000029
 30
0.0
 11
42.816745999999974
 21
25.82667199999992
 31
0.0
  0
LINE
  8
DETAIL
  6
CONTINUOUS
 62
     5
 10
39.496345000000019
 20
16.789136999999979
 30
0.0
 11
39.777264000000059
 21
8.1862519999999677
 31
0.0
  0
LINE
  8
DETAIL
  6
CONTINUOUS
 62
     5
 10
43.51000299999987
 20
8.2562550000000101
 30
0.0
 11
43.219677000000047
 21
17.043668000000029
 31
0.0
  0
LINE
  8
DETAIL
  6
CONTINUOUS
 62
     5
 10
38.611742999999933
 20
33.988988000000063
 30
0.0
 11
39.107610999999913
 21
25.39530400000001
 31
0.0
  0
LINE
  8
DETAIL
  6
CONTINUOUS
 62
     5
 10
0.302206999999953
 20
79.99996299999998
 30
0.0
 11
34.231174999999887
 21
79.704523999999992
 31
0.0
  0
LINE
  8
DETAIL
  6
DIVIDE
 62
     5
 10
94.032071000000087
 20
71.457552999999962
 30
0.0
 11
86.530461999999943
 21
74.295468000000028
 31
0.0
  0
ARC
  8
DETAIL
  6
DIVIDE
 62
     5
 10
93.502040999999963
 20
70.056495999999925
 30
0.0
 40
1.4979629999999999
 50
347.14237700000223
 51
69.27800000000326
  0
LINE
  8
DETAIL
  6
CONTINUOUS
 62
     5
 10
35.554581999999982
 20
68.295722000000069
 30
0.0
 11
36.479121999999961
 21
59.738748999999977
 31
0.0
  0
LINE
  8
DETAIL
  6
CONTINUOUS
 62
     5
 10
40.080554999999997
 20
60.885800000000017
 30
0.0
 11
39.115960000000094
 21
69.625164000000041
 31
0.0
  0
LINE
  8
DETAIL
  6
CONTINUOUS
 62
     5
 10
37.297470999999859
 20
51.162252999999957
 30
0.0
 11
38.008002999999917
 21
42.583296000000018
 31
0.0
  0
LINE
  8
DETAIL
  6
CONTINUOUS
 62
     5
 10
41.673344000000043
 20
43.373689000000013
 30
0.0
 11
40.933062999999947
 21
52.134826999999973
 31
0.0
  0
LINE
  8
DETAIL
  6
CONTINUOUS
 62
     5
 10
42.301272000000147
 20
34.603825000000029
 30
0.0
 11
41.673344000000043
 21
43.373689000000013
 31
0.0
  0
LINE
  8
DETAIL
  6
CONTINUOUS
 62
     5
 10
36.479494000000159
 20
59.735097999999986
 30
0.0
 11
37.297145
 21
51.165906999999947
 31
0.0
  0
LINE
  8
DETAIL
  6
CONTINUOUS
 62
     5
 10
40.933062999999947
 20
52.134826999999973
 30
0.0
 11
40.080554999999997
 21
60.885800000000017
 31
0.0
  0
ARC
  8
DETAIL
  6
CONTINUOUS
 62
     5
 10
42.830335999999988
 20
78.13139799999999
 30
0.0
 40
1.4979629999999999
 50
7.3643769999987372
 51
89.500000000008455
  0
LINE
  8
DETAIL
  6
CONTINUOUS
 62
     5
 10
34.522660000000087
 20
76.844939999999951
 30
0.0
 11
35.554165000000012
 21
68.299367999999959
 31
0.0
  0
LINE
  8
DETAIL
  6
CONTINUOUS
 62
     5
 10
39.115960000000094
 20
69.625164000000041
 30
0.0
 11
37.950820000000022
 21
79.069843999999989
 31
0.0
  0
LINE
  8
DETAIL
  6
CONTINUOUS
 62
     5
 10
34.525001999999859
 20
79.448282000000063
 30
0.0
 11
34.524313999999997
 21
76.828457000000071
 31
0.0
  0
LINE
  8
DETAIL
  6
CONTINUOUS
 62
     5
 10
34.823484999999891
 20
79.69208500000002
 30
0.0
 11
34.823245999999934
 21
79.699295000000006
 31
0.0
  0
LINE
  8
DETAIL
  6
CONTINUOUS
 62
     5
 10
42.843407999999947
 20
79.629304000000047
 30
0.0
 11
34.823245999999934
 21
79.699295000000006
 31
0.0
  0
ARC
  8
DETAIL
  6
CONTINUOUS
 62
     5
 10
34.820631000000049
 20
79.399714000000017
 30
0.0
 40
0.299593
 50
89.500000000008455
 51
170.88459000000009
  0
ARC
  8
DETAIL
  6
CONTINUOUS
 62
     5
 10
34.2285609999999
 20
79.404943000000003
 30
0.0
 40
0.299593
 50
8.1087370000006533
 51
89.500000000008455
  0
ARC
  8
DETAIL
  6
CONTINUOUS
 62
     5
 10
0.2995929999999589
 20
79.700371000000018
 30
0.0
 40
0.299593
 50
89.500018000002555
 51
179.99798099999961
  0
ARC
  8
OUTLINE
  6
CONTINUOUS
 62
     3
 10
-639.06307400000014
 20
-10.000020999999951
 30
0.0
 40
689.06306600000016
 50
355.18767399999928
 51
7.3643769999987372
  0
LINE
  8
OUTLINE
  6
CONTINUOUS
 62
     3
 10
0.0
 20
79.700381999999991
 30
0.0
 11
0.0
 21
-99.700423999999998
 31
0.0
  0
LINE
  8
OUTLINE
  6
CONTINUOUS
 62
     3
 10
43.719954000000143
 20
-96.608067000000005
 30
0.0
 11
37.711452000000008
 21
-99.529089999999997
 31
0.0
  0
LINE
  8
OUTLINE
  6
CONTINUOUS
 62
     3
 10
34.85647999999992
 20
-99.699109000000021
 30
0.0
 11
0.302206999999953
 21
-100.000005
 31
0.0
  0
LINE
  8
OUTLINE
  6
CONTINUOUS
 62
     3
 10
37.069584999999961
 20
-99.67979600000001
 30
0.0
 11
34.85647999999992
 21
-99.699109000000021
 31
0.0
  0
ARC
  8
OUTLINE
  6
CONTINUOUS
 62
     3
 10
37.056513000000002
 20
-98.181889999999953
 30
0.0
 40
1.4979629999999999
 50
270.50000000000449
 51
295.92662299999199
  0
ARC
  8
OUTLINE
  6
CONTINUOUS
 62
     3
 10
0.2995929999999589
 20
-99.700411000000031
 30
0.0
 40
0.299593
 50
180.00247000000181
 51
270.49997800000892
  0
LINE
  8
OUTLINE
  6
CONTINUOUS
 62
     3
 10
45.471935999999907
 20
-67.828518000000031
 30
0.0
 11
47.410183999999838
 21
-69.767426999999998
 31
0.0
  0
ARC
  8
OUTLINE
  6
CONTINUOUS
 62
     3
 10
42.934027000000007
 20
-94.991426999999931
 30
0.0
 40
1.7975559999999999
 50
295.92662299999199
 51
352.89627200000189
  0
ARC
  8
OUTLINE
  6
CONTINUOUS
 62
     3
 10
-639.05595900000026
 20
-10.000020999999951
 30
0.0
 40
689.06306600000016
 50
352.89627200000189
 51
354.51114200000018
  0
ARC
  8
OUTLINE
  6
CONTINUOUS
 62
     3
 10
45.564021000000139
 20
-68.420585000000074
 30
0.0
 40
0.5991850000000001
 50
96.408015000007083
 51
98.840469999995861
  0
LINE
  8
OUTLINE
  6
CONTINUOUS
 62
     3
 10
45.497147000000041
 20
-67.825144000000023
 30
0.0
 11
47.570930999999973
 21
-67.807046000000014
 31
0.0
  0
ARC
  8
OUTLINE
  6
CONTINUOUS
 62
     3
 10
-639.05595900000026
 20
-10.000020999999951
 30
0.0
 40
689.06306600000016
 50
354.51213900000289
 51
355.02407100000471
  0
LINE
  8
OUTLINE
  6
CONTINUOUS
 62
     3
 10
0.302206999999953
 20
79.99996299999998
 30
0.0
 11
34.231174999999887
 21
79.704523999999992
 31
0.0
  0
ARC
  8
OUTLINE
  6
CONTINUOUS
 62
     3
 10
42.830335999999988
 20
78.13139799999999
 30
0.0
 40
1.4979629999999999
 50
7.3643769999987372
 51
89.500000000008455
  0
LINE
  8
OUTLINE
  6
CONTINUOUS
 62
     3
 10
42.843407999999947
 20
79.629304000000047
 30
0.0
 11
34.231174999999887
 21
79.704523999999992
 31
0.0
  0
ARC
  8
OUTLINE
  6
CONTINUOUS
 62
     3
 10
0.2995929999999589
 20
79.700371000000018
 30
0.0
 40
0.299593
 50
89.500018000002555
 51
179.99798099999961
  0
LINE
  8
DETAIL
  6
CONTINUOUS
 62
     5
 10
-25.441340777599631
 20
54.358370080109133
 30
0.0
 11
-25.944134073599798
 21
54.358370080109133
 31
0.0
  0
LINE
  8
DETAIL
  6
CONTINUOUS
 62
     5
 10
-27.048541442516129
 20
51.181955955518788
 30
0.0
 11
-25.441340777599631
 21
54.358370080109133
 31
0.0
  0
LINE
  8
DETAIL
  6
CONTINUOUS
 62
     5
 10
-27.553636291046249
 20
51.177407249109933
 30
0.0
 11
-25.944134073599798
 21
54.358370080109133
 31
0.0
  0
LINE
  8
DETAIL
  6
CONTINUOUS
 62
     5
 10
-19.106145247998938
 20
-34.253998149193187
 30
0.0
 11
-19.167253756491849
 21
-34.429709721731108
 31
0.0
  0
LINE
  8
DETAIL
  6
CONTINUOUS
 62
     5
 10
-19.167253756491849
 20
-34.429709721731108
 30
0.0
 11
-19.348722529958199
 21
-34.602215690485082
 31
0.0
  0
LINE
  8
DETAIL
  6
CONTINUOUS
 62
     5
 10
-19.348722529958199
 20
-34.602215690485082
 30
0.0
 11
-19.64503772892931
 21
-34.766274546400382
 31
0.0
  0
LINE
  8
DETAIL
  6
CONTINUOUS
 62
     5
 10
-19.64503772892931
 20
-34.766274546400382
 30
0.0
 11
-20.047195961756191
 21
-34.916901441793023
 31
0.0
  0
LINE
  8
DETAIL
  6
CONTINUOUS
 62
     5
 10
-20.047195961756191
 20
-34.916901441793023
 30
0.0
 11
-20.542977848239389
 21
-35.049519652496429
 31
0.0
  0
LINE
  8
DETAIL
  6
CONTINUOUS
 62
     5
 10
-20.542977848239389
 20
-35.049519652496429
 30
0.0
 11
-21.11731929948883
 21
-35.160099639374607
 31
0.0
  0
LINE
  8
DETAIL
  6
CONTINUOUS
 62
     5
 10
-21.11731929948883
 20
-35.160099639374607
 30
0.0
 11
-21.752769232862189
 21
-35.245281483888903
 31
0.0
  0
LINE
  8
DETAIL
  6
CONTINUOUS
 62
     5
 10
-21.752769232862189
 20
-35.245281483888903
 30
0.0
 11
-22.43001981452835
 21
-35.302476977569768
 31
0.0
  0
LINE
  8
DETAIL
  6
CONTINUOUS
 62
     5
 10
-22.43001981452835
 20
-35.302476977569768
 30
0.0
 11
-23.128493118505052
 21
-35.329948263459869
 31
0.0
  0
LINE
  8
DETAIL
  6
CONTINUOUS
 62
     5
 10
-26.949720665600129
 20
-35.396648038399917
 30
0.0
 11
-23.128490935989252
 21
-35.329948225363978
 31
0.0
  0
ARC
  8
DETAIL
  6
CONTINUOUS
 62
     5
 10
-24.93854748159993
 20
-25.139664799999991
 30
0.0
 40
3.0167597760001161
 50
270.0
 51
0.0000000000000064
  0
LINE
  8
DETAIL
  6
CONTINUOUS
 62
     5
 10
-21.921787705599851
 20
-24.609474785739959
 30
0.0
 11
-21.921787705599851
 21
-25.139664799999991
 31
0.0
  0
ARC
  8
DETAIL
  6
CONTINUOUS
 62
     5
 10
-25.944134073599798
 20
-29.162011167999939
 30
0.0
 40
1.005586591999942
 50
90.0
 51
180.0
  0
LINE
  8
DETAIL
  6
CONTINUOUS
 62
     5
 10
-25.944134073599798
 20
-28.156424575999949
 30
0.0
 11
-24.93854748159993
 21
-28.156424575999949
 31
0.0
  0
ARC
  8
DETAIL
  6
CONTINUOUS
 62
     5
 10
-25.944134073599798
 20
-36.060543498926897
 30
0.0
 40
1.00558659200004
 50
180.0
 51
269.00000000001131
  0
LINE
  8
DETAIL
  6
CONTINUOUS
 62
     5
 10
-26.949720665600129
 20
-36.060543498926897
 30
0.0
 11
-26.949720665600129
 21
-29.162011167999939
 31
0.0
  0
ARC
  8
DETAIL
  6
CONTINUOUS
 62
     5
 10
-33.988826809600603
 20
-41.263849072431412
 30
0.0
 40
2.011173184000083
 50
180.0
 51
268.99999999999818
  0
LINE
  8
DETAIL
  6
CONTINUOUS
 62
     5
 10
-23.128491615999341
 20
-43.464896470455187
 30
0.0
 11
-22.343770767805839
 21
-43.497918831498737
 31
0.0
  0
LINE
  8
DETAIL
  6
CONTINUOUS
 62
     5
 10
-22.343770767805839
 20
-43.497918831498737
 30
0.0
 11
-21.589206301731789
 21
-43.568322177102118
 31
0.0
  0
LINE
  8
DETAIL
  6
CONTINUOUS
 62
     5
 10
-21.589206301731789
 20
-43.568322177102118
 30
0.0
 11
-20.893795707044319
 21
-43.673400946176677
 31
0.0
  0
LINE
  8
DETAIL
  6
CONTINUOUS
 62
     5
 10
-20.893795707044319
 20
-43.673400946176677
 30
0.0
 11
-20.284263222906251
 21
-43.809117020555391
 31
0.0
  0
LINE
  8
DETAIL
  6
CONTINUOUS
 62
     5
 10
-20.284263222906251
 20
-43.809117020555391
 30
0.0
 11
-19.784032840852429
 21
-43.970254907610517
 31
0.0
  0
LINE
  8
DETAIL
  6
CONTINUOUS
 62
     5
 10
-19.784032840852429
 20
-43.970254907610517
 30
0.0
 11
-19.412328133933439
 21
-44.150622168709788
 31
0.0
  0
LINE
  8
DETAIL
  6
CONTINUOUS
 62
     5
 10
-19.412328133933439
 20
-44.150622168709788
 30
0.0
 11
-19.183433505581888
 21
-44.343287391160167
 31
0.0
  0
LINE
  8
DETAIL
  6
CONTINUOUS
 62
     5
 10
-19.183433505581888
 20
-44.343287391160167
 30
0.0
 11
-19.106145247998938
 21
-44.54084655851068
 31
0.0
  0
LINE
  8
DETAIL
  6
CONTINUOUS
 62
     5
 10
-34.023926621423023
 20
-43.274715945014243
 30
0.0
 11
-23.128491615999341
 21
-43.464896470455074
 31
0.0
  0
LINE
  8
DETAIL
  6
CONTINUOUS
 62
     5
 10
-35.999999993599893
 20
-19.81005586239996
 30
0.0
 11
-35.999999993599893
 21
-41.263849072431412
 31
0.0
  0
ARC
  8
DETAIL
  6
CONTINUOUS
 62
     5
 10
-18.603351951999681
 20
-47.038329177475823
 30
0.0
 40
0.5027932960002364
 50
180.0
 51
268.99999999999818
  0
LINE
  8
DETAIL
  6
CONTINUOUS
 62
     5
 10
-18.612126904954948
 20
-47.541045895621778
 30
0.0
 11
0.0
 21
-47.61269481011584
 31
0.0
  0
LINE
  8
DETAIL
  6
CONTINUOUS
 62
     5
 10
-33.988826809599693
 20
-24.93882320386933
 30
0.0
 11
-33.988826809599693
 21
-11.06664916209343
 31
0.0
  0
ARC
  8
DETAIL
  6
CONTINUOUS
 62
     5
 10
-23.329608934399861
 20
-17.712587466504029
 30
0.0
 40
7.0391061439999998
 50
271.00000000000182
 51
306.86989764583751
  0
LINE
  8
DETAIL
  6
CONTINUOUS
 62
     5
 10
-23.2067595930198
 20
-24.750621520543518
 30
0.0
 11
-33.988826809599693
 21
-24.938823203869109
 31
0.0
  0
ARC
  8
DETAIL
  6
CONTINUOUS
 62
     5
 10
-23.631284911999501
 20
-16.5152416225061
 30
0.0
 40
4.5251396640002319
 50
0.0000000000000064
 51
85.000000000000213
  0
LINE
  8
DETAIL
  6
CONTINUOUS
 62
     5
 10
-19.106145247999851
 20
-47.038329177475823
 30
0.0
 11
-19.106145247999851
 21
-16.5152416225061
 31
0.0
  0
ARC
  8
DETAIL
  6
CONTINUOUS
 62
     5
 10
-33.988826809599693
 20
-9.0477936232591674
 30
0.0
 40
2.0111731840000382
 50
180.0
 51
265.00000000000023
  0
LINE
  8
DETAIL
  6
CONTINUOUS
 62
     5
 10
-34.164112102245333
 20
-11.051313686104439
 30
0.0
 11
-23.23689300354636
 21
-12.007321481104441
 31
0.0
  0
LINE
  8
DETAIL
  6
CONTINUOUS
 62
     5
 10
0.0
 20
47.50607321040502
 30
0.0
 11
-26.145251392000318
 21
47.049706149792662
 31
0.0
  0
LINE
  8
DETAIL
  6
CONTINUOUS
 62
     5
 10
0.0
 20
46.557527568983907
 30
0.0
 11
-26.145251392000318
 21
46.101160508375067
 31
0.0
  0
ARC
  8
DETAIL
  6
CONTINUOUS
 62
     5
 10
-31.474860329599782
 20
43.911423901732633
 30
0.0
 40
0.5027932960000177
 50
180.0
 51
270.99999999997573
  0
ARC
  8
DETAIL
  6
CONTINUOUS
 62
     5
 10
-31.474860329599782
 20
44.234873883398897
 30
0.0
 40
0.5027932960001131
 50
113.0556104238032
 51
180.0
  0
LINE
  8
DETAIL
  6
CONTINUOUS
 62
     5
 10
-31.977653625599942
 20
43.911423901732633
 30
0.0
 11
-31.977653625599942
 21
44.391403942968509
 31
0.0
  0
LINE
  8
DETAIL
  6
CONTINUOUS
 62
     5
 10
-31.35252457357274
 20
44.833382619342608
 30
0.0
 11
-33.494808466555703
 21
44.795988914895823
 31
0.0
  0
ARC
  8
DETAIL
  6
CONTINUOUS
 62
     5
 10
-33.486033513599978
 20
44.293272196750188
 30
0.0
 40
0.5027932960001131
 50
91.00000000004087
 51
180.0
  0
ARC
  8
DETAIL
  6
CONTINUOUS
 62
     5
 10
-31.977653625599942
 20
41.906377467563289
 30
0.0
 40
2.0111731839999329
 50
180.0
 51
267.00000000000739
  0
ARC
  8
DETAIL
  6
CONTINUOUS
 62
     5
 10
-31.977653625599942
 20
43.917550651563261
 30
0.0
 40
2.0111731839999329
 50
180.0
 51
267.00000000000739
  0
LINE
  8
DETAIL
  6
CONTINUOUS
 62
     5
 10
-34.200288965133041
 20
44.48063379290636
 30
0.0
 11
-35.011963307511003
 21
44.466465964559568
 31
0.0
  0
ARC
  8
DETAIL
  6
CONTINUOUS
 62
     5
 10
-34.994413401600013
 20
43.46103252826822
 30
0.0
 40
1.0055865919996581
 50
90.999999999975714
 51
180.0
  0
LINE
  8
DETAIL
  6
CONTINUOUS
 62
     5
 10
0.0
 20
43.957949746872941
 30
0.0
 11
-31.466085376644511
 21
43.408707183587012
 31
0.0
  0
LINE
  8
DETAIL
  6
CONTINUOUS
 62
     5
 10
-26.145251392000318
 20
46.10116050837496
 30
0.0
 11
-31.74733871589569
 21
43.488864287590097
 31
0.0
  0
LINE
  8
DETAIL
  6
CONTINUOUS
 62
     5
 10
-26.145251392000318
 20
47.049706149792662
 30
0.0
 11
-31.671766438645591
 21
44.69750665647382
 31
0.0
  0
LINE
  8
DETAIL
  6
CONTINUOUS
 62
     5
 10
-35.999999993599893
 20
22.92737429759995
 30
0.0
 11
-35.999999993599893
 21
43.46103252826822
 31
0.0
  0
ARC
  8
DETAIL
  6
CONTINUOUS
 62
     5
 10
-21.117318432000051
 20
39.320518182856858
 30
0.0
 40
2.0111731839999618
 50
0.0000000000000064
 51
86.999999999994401
  0
ARC
  8
DETAIL
  6
CONTINUOUS
 62
     5
 10
-19.608938544000011
 20
38.740744065714132
 30
0.0
 40
0.5027932959999723
 50
0.0000000000000064
 51
86.999999999994401
  0
LINE
  8
DETAIL
  6
CONTINUOUS
 62
     5
 10
-19.58262437606118
 20
39.242848300976327
 30
0.0
 11
-32.082910297354367
 21
39.897960526514453
 31
0.0
  0
LINE
  8
DETAIL
  6
CONTINUOUS
 62
     5
 10
-21.01206176024516
 20
41.328935123905687
 30
0.0
 11
-32.082910297354367
 21
41.909133710514418
 31
0.0
  0
LINE
  8
DETAIL
  6
CONTINUOUS
 62
     5
 10
-26.949720665600129
 20
24.815955149089181
 30
0.0
 11
-26.949720665600129
 21
39.628941457275353
 31
0.0
  0
ARC
  8
DETAIL
  6
CONTINUOUS
 62
     5
 10
-23.329608934399861
 20
17.712587466503919
 30
0.0
 40
7.0391061440000042
 50
53.130102354162489
 51
88.999999999998238
  0
ARC
  8
DETAIL
  6
CONTINUOUS
 62
     5
 10
-23.12849161600025
 20
8.0032317678296749
 30
0.0
 40
4.022346368000342
 50
275.10216525235171
 51
0.0000000000000064
  0
LINE
  8
DETAIL
  6
CONTINUOUS
 62
     5
 10
-19.106145247999851
 20
8.0032317678296749
 30
0.0
 11
-19.106145247999851
 21
39.320518182856858
 31
0.0
  0
LINE
  8
DETAIL
  6
CONTINUOUS
 62
     5
 10
-33.988826809599693
 20
23.622585211892101
 30
0.0
 11
-33.988826809599693
 21
24.427177028722891
 31
0.0
  0
ARC
  8
DETAIL
  6
CONTINUOUS
 62
     5
 10
-33.486033513599978
 20
24.427177028722891
 30
0.0
 40
0.5027932960001131
 50
89.000000000024286
 51
180.0
  0
LINE
  8
DETAIL
  6
CONTINUOUS
 62
     5
 10
-23.2067595930198
 20
24.750621520543518
 30
0.0
 11
-33.477258560644259
 21
24.929893746868629
 31
0.0
  0
ARC
  8
DETAIL
  6
CONTINUOUS
 62
     5
 10
-33.988826809599693
 20
0.9760377464851899
 30
0.0
 40
2.0111731839998872
 50
95.102165252364841
 51
180.0
  0
LINE
  8
DETAIL
  6
CONTINUOUS
 62
     5
 10
-22.770776558289072
 20
3.99682312146706
 30
0.0
 11
-34.167684338455729
 21
2.9792420696664981
 31
0.0
  0
LINE
  8
DETAIL
  6
CONTINUOUS
 62
     5
 10
-33.988826809599693
 20
2.9952114918856978
 30
0.0
 11
-33.988826809599693
 21
44.293272196750188
 31
0.0
  0
ARC
  8
DETAIL
  6
CONTINUOUS
 62
     5
 10
-38.715083791999398
 20
-23.53072625280004
 30
0.0
 40
0.5027932959999723
 50
0.0000000000000064
 51
90.0
  0
ARC
  8
DETAIL
  6
CONTINUOUS
 62
     5
 10
-61.743016748799619
 20
-20.413407817600049
 30
0.0
 40
2.6145251392000528
 50
180.0
 51
270.0
  0
LINE
  8
DETAIL
  6
CONTINUOUS
 62
     5
 10
-38.715083791999398
 20
-23.02793295679999
 30
0.0
 11
-61.743016748799619
 21
-23.02793295679999
 31
0.0
  0
LINE
  8
DETAIL
  6
CONTINUOUS
 62
     5
 10
-36.804469267199693
 20
-27.65363128000001
 30
0.0
 11
-35.999999993599893
 21
-27.65363128000001
 31
0.0
  0
LINE
  8
DETAIL
  6
CONTINUOUS
 62
     5
 10
-35.497206697599722
 20
-22.424581001600021
 30
0.0
 11
-33.988826809599693
 21
-22.424581001600021
 31
0.0
  0
ARC
  8
DETAIL
  6
CONTINUOUS
 62
     5
 10
-35.497206697599722
 20
-22.92737429759995
 30
0.0
 40
0.5027932960001257
 50
90.0
 51
179.9999874195862
  0
LINE
  8
DETAIL
  6
CONTINUOUS
 62
     5
 10
-35.999999993599893
 20
-27.65363128000001
 30
0.0
 11
-35.999999993599893
 21
24.751292066873479
 31
0.0
  0
LINE
  8
DETAIL
  6
CONTINUOUS
 62
     5
 10
-38.212290496000151
 20
24.134076526960829
 30
0.0
 11
-38.212290496000151
 21
-24.134076526960829
 31
0.0
  0
LINE
  8
DETAIL
  6
CONTINUOUS
 62
     5
 10
-37.608938540799947
 20
24.134076570402389
 30
0.0
 11
-37.608938540799947
 21
-24.134076570402271
 31
0.0
  0
LINE
  8
DETAIL
  6
CONTINUOUS
 62
     5
 10
-36.804469267199693
 20
-27.65363128000001
 30
0.0
 11
-36.804469267199693
 21
24.75142170206891
 31
0.0
  0
LINE
  8
DETAIL
  6
CONTINUOUS
 62
     5
 10
-36.804469267199693
 20
-24.134078207999892
 30
0.0
 11
-38.212290496000151
 21
-24.134078207999892
 31
0.0
  0
LINE
  8
DETAIL
  6
CONTINUOUS
 62
     5
 10
-64.35754188799956
 20
0.0
 30
0.0
 11
-64.35754188799956
 21
-20.413407817600049
 31
0.0
  0
LINE
  8
DETAIL
  6
CONTINUOUS
 62
     5
 10
-35.497206697599722
 20
22.424581001600021
 30
0.0
 11
-33.988826809599693
 21
22.424581001600021
 31
0.0
  0
LINE
  8
DETAIL
  6
CONTINUOUS
 62
     5
 10
-64.35754188799956
 20
0.0
 30
0.0
 11
-64.35754188799956
 21
20.43202778773173
 31
0.0
  0
ARC
  8
DETAIL
  6
CONTINUOUS
 62
     5
 10
-38.715083792000307
 20
23.530726252799919
 30
0.0
 40
0.5027932960001131
 50
270.0
 51
0.0000000000000064
  0
ARC
  8
DETAIL
  6
CONTINUOUS
 62
     5
 10
-35.497206697599722
 20
22.92737429759995
 30
0.0
 40
0.5027932959999723
 50
180.00001258040729
 51
270.0
  0
LINE
  8
DETAIL
  6
CONTINUOUS
 62
     5
 10
-38.715083792000307
 20
23.02793295679999
 30
0.0
 11
-45.653631276800297
 21
23.02793295679999
 31
0.0
  0
LINE
  8
DETAIL
  6
CONTINUOUS
 62
     5
 10
-36.804469267199693
 20
24.134078207999892
 30
0.0
 11
-38.212290496000151
 21
24.134078207999892
 31
0.0
  0
LINE
  8
DETAIL
  6
CONTINUOUS
 62
     5
 10
-36.804469267199693
 20
24.7514321642924
 30
0.0
 11
-35.999999993599893
 21
24.7514321642924
 31
0.0
  0
LINE
  8
DETAIL
  6
CONTINUOUS
 62
     5
 10
-45.653631276800297
 20
26.063312702931629
 30
0.0
 11
-58.726256972800464
 21
26.063312702931629
 31
0.0
  0
LINE
  8
DETAIL
  6
CONTINUOUS
 62
     5
 10
-46.659217868799708
 20
20.641568155488589
 30
0.0
 11
-61.358301485402542
 21
20.641568155488589
 31
0.0
  0
LINE
  8
DETAIL
  6
CONTINUOUS
 62
     5
 10
-45.653631276800297
 20
13.99627359893179
 30
0.0
 11
-45.653631276800297
 21
26.063312702931629
 31
0.0
  0
ARC
  8
DETAIL
  6
CONTINUOUS
 62
     5
 10
-58.726256972800464
 20
20.43202778773173
 30
0.0
 40
5.6312849151994513
 50
90.0
 51
180.0
  0
LINE
  8
DETAIL
  6
CONTINUOUS
 62
     5
 10
-46.659217868799708
 20
16.007446782931769
 30
0.0
 11
-46.659217868799708
 21
26.063312702931629
 31
0.0
  0
LINE
  8
DETAIL
  6
CONTINUOUS
 62
     5
 10
-45.653631276800297
 20
16.007446782931769
 30
0.0
 11
-46.659217868799708
 21
16.007446782931769
 31
0.0
  0
LINE
  8
DETAIL
  6
CONTINUOUS
 62
     5
 10
-38.212290496000151
 20
13.99627359893179
 30
0.0
 11
-45.653631276800297
 21
13.99627359893179
 31
0.0
  0
LINE
  8
DETAIL
  6
CONTINUOUS
 62
     5
 10
-35.993514206928012
 20
43.575058730531282
 30
0.0
 11
-38.212290496000151
 21
24.134078207999892
 31
0.0
  0
LINE
  8
DETAIL
  6
CONTINUOUS
 62
     5
 10
-42.323179881426768
 20
43.983856081392787
 30
0.0
 11
-44.223909754140998
 21
27.329607243398641
 31
0.0
  0
ARC
  8
DETAIL
  6
CONTINUOUS
 62
     5
 10
-46.222111364797911
 20
27.557659647924769
 30
0.0
 40
2.0111731840003499
 50
286.41908188130509
 51
353.48907153111969
  0
ARC
  8
DETAIL
  6
CONTINUOUS
 62
     5
 10
-34.330373438800052
 20
43.071646463288062
 30
0.0
 40
8.0446927360002434
 50
91.000000000001776
 51
173.48907153111981
  0
LINE
  8
DETAIL
  6
CONTINUOUS
 62
     5
 10
0.0
 20
51.42554559846451
 30
0.0
 11
-34.470772686091998
 21
51.115113953619129
 31
0.0
  0
LINE
  8
OUTLINE
  6
CONTINUOUS
 62
     3
 10
-25.441340777599631
 20
54.358370080109133
 30
0.0
 11
-25.944134073599798
 21
54.358370080109133
 31
0.0
  0
LINE
  8
OUTLINE
  6
CONTINUOUS
 62
     3
 10
-27.048541442516129
 20
51.181955955518788
 30
0.0
 11
-25.441340777599631
 21
54.358370080109133
 31
0.0
  0
LINE
  8
OUTLINE
  6
CONTINUOUS
 62
     3
 10
-27.553636291046249
 20
51.177407249109933
 30
0.0
 11
-25.944134073599798
 21
54.358370080109133
 31
0.0
  0
ARC
  8
OUTLINE
  6
CONTINUOUS
 62
     3
 10
-33.988826809600603
 20
-41.263849072431412
 30
0.0
 40
2.011173184000083
 50
180.0
 51
268.99999999999818
  0
LINE
  8
OUTLINE
  6
CONTINUOUS
 62
     3
 10
-23.128491615999341
 20
-43.464896470455187
 30
0.0
 11
-22.343770767805839
 21
-43.497918831498737
 31
0.0
  0
LINE
  8
OUTLINE
  6
CONTINUOUS
 62
     3
 10
-22.343770767805839
 20
-43.497918831498737
 30
0.0
 11
-21.589206301731789
 21
-43.568322177102118
 31
0.0
  0
LINE
  8
OUTLINE
  6
CONTINUOUS
 62
     3
 10
-21.589206301731789
 20
-43.568322177102118
 30
0.0
 11
-20.893795707044319
 21
-43.673400946176677
 31
0.0
  0
LINE
  8
OUTLINE
  6
CONTINUOUS
 62
     3
 10
-20.893795707044319
 20
-43.673400946176677
 30
0.0
 11
-20.284263222906251
 21
-43.809117020555391
 31
0.0
  0
LINE
  8
OUTLINE
  6
CONTINUOUS
 62
     3
 10
-20.284263222906251
 20
-43.809117020555391
 30
0.0
 11
-19.784032840852429
 21
-43.970254907610517
 31
0.0
  0
LINE
  8
OUTLINE
  6
CONTINUOUS
 62
     3
 10
-19.784032840852429
 20
-43.970254907610517
 30
0.0
 11
-19.412328133933439
 21
-44.150622168709788
 31
0.0
  0
LINE
  8
OUTLINE
  6
CONTINUOUS
 62
     3
 10
-19.412328133933439
 20
-44.150622168709788
 30
0.0
 11
-19.183433505581888
 21
-44.343287391160167
 31
0.0
  0
LINE
  8
OUTLINE
  6
CONTINUOUS
 62
     3
 10
-19.183433505581888
 20
-44.343287391160167
 30
0.0
 11
-19.106145247998938
 21
-44.54084655851068
 31
0.0
  0
LINE
  8
OUTLINE
  6
CONTINUOUS
 62
     3
 10
-34.023926621423023
 20
-43.274715945014243
 30
0.0
 11
-23.128491615999341
 21
-43.464896470455074
 31
0.0
  0
LINE
  8
OUTLINE
  6
CONTINUOUS
 62
     3
 10
-35.999999993599893
 20
-27.65363128000001
 30
0.0
 11
-35.999999993599893
 21
-41.263849072431412
 31
0.0
  0
ARC
  8
OUTLINE
  6
CONTINUOUS
 62
     3
 10
-18.603351951999681
 20
-47.038329177475823
 30
0.0
 40
0.5027932960002364
 50
180.0
 51
268.99999999999818
  0
LINE
  8
OUTLINE
  6
CONTINUOUS
 62
     3
 10
-18.612126904954948
 20
-47.541045895621778
 30
0.0
 11
0.0
 21
-47.61269481011584
 31
0.0
  0
LINE
  8
OUTLINE
  6
CONTINUOUS
 62
     3
 10
-19.106145247999851
 20
-47.038329177475823
 30
0.0
 11
-19.106145247999851
 21
-44.540846558508292
 31
0.0
  0
ARC
  8
OUTLINE
  6
CONTINUOUS
 62
     3
 10
-38.715083791999398
 20
-23.53072625280004
 30
0.0
 40
0.5027932959999723
 50
0.0000000000000064
 51
90.0
  0
ARC
  8
OUTLINE
  6
CONTINUOUS
 62
     3
 10
-61.743016748799619
 20
-20.413407817600049
 30
0.0
 40
2.6145251392000528
 50
180.0
 51
270.0
  0
LINE
  8
OUTLINE
  6
CONTINUOUS
 62
     3
 10
-38.715083791999398
 20
-23.02793295679999
 30
0.0
 11
-61.743016748799619
 21
-23.02793295679999
 31
0.0
  0
LINE
  8
OUTLINE
  6
CONTINUOUS
 62
     3
 10
-36.804469267199693
 20
-27.65363128000001
 30
0.0
 11
-35.999999993599893
 21
-27.65363128000001
 31
0.0
  0
LINE
  8
OUTLINE
  6
CONTINUOUS
 62
     3
 10
-38.212290496000151
 20
-23.53072625280004
 30
0.0
 11
-38.212290496000151
 21
-24.134076526960829
 31
0.0
  0
LINE
  8
OUTLINE
  6
CONTINUOUS
 62
     3
 10
-36.804469267199693
 20
-27.65363128000001
 30
0.0
 11
-36.804469267199693
 21
-24.134078207999892
 31
0.0
  0
LINE
  8
OUTLINE
  6
CONTINUOUS
 62
     3
 10
-36.804469267199693
 20
-24.134078207999892
 30
0.0
 11
-38.212290496000151
 21
-24.134078207999892
 31
0.0
  0
LINE
  8
OUTLINE
  6
CONTINUOUS
 62
     3
 10
-64.35754188799956
 20
0.0
 30
0.0
 11
-64.35754188799956
 21
-20.413407817600049
 31
0.0
  0
LINE
  8
OUTLINE
  6
CONTINUOUS
 62
     3
 10
-64.35754188799956
 20
0.0
 30
0.0
 11
-64.35754188799956
 21
20.43202778773173
 31
0.0
  0
LINE
  8
OUTLINE
  6
CONTINUOUS
 62
     3
 10
-45.653631276800297
 20
26.063312702931629
 30
0.0
 11
-58.726256972800464
 21
26.063312702931629
 31
0.0
  0
LINE
  8
OUTLINE
  6
CONTINUOUS
 62
     3
 10
-45.653631276800297
 20
25.628502327851489
 30
0.0
 11
-45.653631276800297
 21
26.063312702931629
 31
0.0
  0
ARC
  8
OUTLINE
  6
CONTINUOUS
 62
     3
 10
-58.726256972800464
 20
20.43202778773173
 30
0.0
 40
5.6312849151994513
 50
90.0
 51
180.0
  0
LINE
  8
OUTLINE
  6
CONTINUOUS
 62
     3
 10
-42.323179881426768
 20
43.983856081392787
 30
0.0
 11
-44.223909754140998
 21
27.329607243398641
 31
0.0
  0
ARC
  8
OUTLINE
  6
CONTINUOUS
 62
     3
 10
-46.222111364797911
 20
27.557659647924769
 30
0.0
 40
2.0111731840003499
 50
286.41908188130509
 51
353.48907153111969
  0
ARC
  8
OUTLINE
  6
CONTINUOUS
 62
     3
 10
-34.330373438800052
 20
43.071646463288062
 30
0.0
 40
8.0446927360002434
 50
91.000000000001776
 51
173.48907153111981
  0
LINE
  8
OUTLINE
  6
CONTINUOUS
 62
     3
 10
0.0
 20
51.42554559846451
 30
0.0
 11
-27.048541442516129
 21
51.181955955518788
 31
0.0
  0
LINE
  8
OUTLINE
  6
CONTINUOUS
 62
     3
 10
-27.553636291046249
 20
51.177407249109933
 30
0.0
 11
-34.470772686091998
 21
51.115113953619129
 31
0.0
  0
ENDSEC
  0
EOF
