  0
SECTION
  2
HEADER
  9
$ACADVER
  1
AC1009
  9
$INSBASE
 10
0.0
 20
0.0
 30
0.0
  9
$EXTMIN
 10
-521.97209899999996
 20
-455.19782599999991
 30
0.0
  9
$EXTMAX
 10
821.3620983402094
 20
490.41105800000008
 30
50.0
  9
$LIMMIN
 10
-2970.0
 20
-2100.0
  9
$LIMMAX
 10
2970.0
 20
2100.0
  9
$ORTHOMODE
 70
     1
  9
$REGENMODE
 70
     1
  9
$FILLMODE
 70
     1
  9
$QTEXTMODE
 70
     0
  9
$MIRRTEXT
 70
     0
  9
$DRAGMODE
 70
     2
  9
$LTSCALE
 40
5.0
  9
$OSMODE
 70
   167
  9
$ATTMODE
 70
     1
  9
$TEXTSIZE
 40
64.0
  9
$TRACEWID
 40
0.05
  9
$TEXTSTYLE
  7
STANDARD
  9
$CLAYER
  8
SIZE
  9
$CELTYPE
  6
CONTINUOUS
  9
$CECOLOR
 62
     7
  9
$DIMSCALE
 40
1.0
  9
$DIMASZ
 40
12.0
  9
$DIMEXO
 40
20.0
  9
$DIMDLI
 40
200.0
  9
$DIMRND
 40
0.0
  9
$DIMDLE
 40
0.0
  9
$DIMEXE
 40
20.0
  9
$DIMTP
 40
0.0
  9
$DIMTM
 40
0.0
  9
$DIMTXT
 40
64.0
  9
$DIMCEN
 40
0.09
  9
$DIMTSZ
 40
0.0
  9
$DIMTOL
 70
     0
  9
$DIMLIM
 70
     0
  9
$DIMTIH
 70
     0
  9
$DIMTOH
 70
     0
  9
$DIMSE1
 70
     0
  9
$DIMSE2
 70
     0
  9
$DIMTAD
 70
     1
  9
$DIMZIN
 70
     8
  9
$DIMBLK
  1
DOT1
  9
$DIMASO
 70
     1
  9
$DIMSHO
 70
     0
  9
$DIMPOST
  1

  9
$DIMAPOST
  1

  9
$DIMALT
 70
     0
  9
$DIMALTD
 70
     2
  9
$DIMALTF
 40
25.399999999999999
  9
$DIMLFAC
 40
1.0
  9
$DIMTOFL
 70
     1
  9
$DIMTVP
 40
0.0
  9
$DIMTIX
 70
     1
  9
$DIMSOXD
 70
     0
  9
$DIMSAH
 70
     1
  9
$DIMBLK1
  1
ORIGIN
  9
$DIMBLK2
  1
ORIGIN
  9
$DIMSTYLE
  2
STANDARD
  9
$DIMCLRD
 70
     7
  9
$DIMCLRE
 70
     7
  9
$DIMCLRT
 70
     7
  9
$DIMTFAC
 40
1.0
  9
$DIMGAP
 40
25.0
  9
$LUNITS
 70
     2
  9
$LUPREC
 70
     4
  9
$SKETCHINC
 40
0.1
  9
$FILLETRAD
 40
3.0
  9
$AUNITS
 70
     1
  9
$AUPREC
 70
     3
  9
$MENU
  1
ACAD
  9
$ELEVATION
 40
0.0
  9
$PELEVATION
 40
0.0
  9
$THICKNESS
 40
50.0
  9
$LIMCHECK
 70
     0
  9
$BLIPMODE
 70
     0
  9
$CHAMFERA
 40
0.0
  9
$CHAMFERB
 40
0.0
  9
$SKPOLY
 70
     0
  9
$TDCREATE
 40
2453019.6230103699
  9
$TDUPDATE
 40
2454565.9651645599
  9
$TDINDWG
 40
1.2100540509
  9
$TDUSRTIMER
 40
1.2100540509
  9
$USRTIMER
 70
     1
  9
$ANGBASE
 50
0.0
  9
$ANGDIR
 70
     0
  9
$PDMODE
 70
     3
  9
$PDSIZE
 40
-2.0
  9
$PLINEWID
 40
0.0
  9
$COORDS
 70
     2
  9
$SPLFRAME
 70
     0
  9
$SPLINETYPE
 70
     6
  9
$SPLINESEGS
 70
     8
  9
$ATTDIA
 70
     0
  9
$ATTREQ
 70
     1
  9
$HANDLING
 70
 22529
  9
$HANDSEED
  5
459
  9
$SURFTAB1
 70
     6
  9
$SURFTAB2
 70
     6
  9
$SURFTYPE
 70
     6
  9
$SURFU
 70
     6
  9
$SURFV
 70
     6
  9
$UCSNAME
  2

  9
$UCSORG
 10
0.0
 20
0.0
 30
0.0
  9
$UCSXDIR
 10
1.0
 20
0.0
 30
0.0
  9
$UCSYDIR
 10
0.0
 20
1.0
 30
0.0
  9
$PUCSNAME
  2

  9
$PUCSORG
 10
0.0
 20
0.0
 30
0.0
  9
$PUCSXDIR
 10
1.0
 20
0.0
 30
0.0
  9
$PUCSYDIR
 10
0.0
 20
1.0
 30
0.0
  9
$USERI1
 70
     0
  9
$USERI2
 70
     0
  9
$USERI3
 70
     0
  9
$USERI4
 70
     0
  9
$USERI5
 70
     0
  9
$USERR1
 40
20.0
  9
$USERR2
 40
0.0
  9
$USERR3
 40
0.0
  9
$USERR4
 40
0.0
  9
$USERR5
 40
0.0
  9
$WORLDVIEW
 70
     1
  9
$SHADEDGE
 70
     3
  9
$SHADEDIF
 70
    70
  9
$TILEMODE
 70
     1
  9
$MAXACTVP
 70
    48
  9
$PLIMCHECK
 70
     0
  9
$PEXTMIN
 10
-1.0000000000000000E+020
 20
-1.0000000000000000E+020
 30
-1.0000000000000000E+020
  9
$PEXTMAX
 10
1.0000000000000000E+020
 20
1.0000000000000000E+020
 30
1.0000000000000000E+020
  9
$PLIMMIN
 10
0.0
 20
0.0
  9
$PLIMMAX
 10
12.0
 20
9.0
  9
$UNITMODE
 70
     0
  9
$VISRETAIN
 70
     0
  9
$PLINEGEN
 70
     0
  9
$PSLTSCALE
 70
     0
  0
ENDSEC
  0
SECTION
  2
TABLES
  0
TABLE
  2
VPORT
 70
     8
  0
VPORT
  2
*ACTIVE
 70
     0
 10
0.0
 20
0.0
 11
1.0
 21
1.0
 12
130.8324276025271
 22
17.607242253811702
 13
0.0
 23
0.0
 14
1.0
 24
1.0
 15
0.0
 25
0.0
 16
0.0
 26
0.0
 36
1.0
 17
0.0
 27
0.0
 37
0.0
 40
1007.328680439038
 41
1.670382165605095
 42
50.0
 43
0.0
 44
0.0
 50
0.0
 51
0.0
 71
     0
 72
  1000
 73
     1
 74
     0
 75
     0
 76
     0
 77
     0
 78
     0
  0
ENDTAB
  0
TABLE
  2
LTYPE
 70
     3
  0
LTYPE
  2
CONTINUOUS
 70
     0
  3
実線
 72
    65
 73
     0
 40
0.0
  0
LTYPE
  2
DASHDOT
 70
     0
  3
____ _ ____ _ ____ _ ____ _ ____ _ ____ _ ____
 72
    65
 73
     4
 40
5.5
 49
4.0
 49
-0.6
 49
0.3
 49
-0.6
  0
LTYPE
  2
DASHED
 70
     0
  3
-- -- -- -- -- -- -- -- -- -- -- -- -- -- --
 72
    65
 73
     2
 40
0.75
 49
0.5
 49
-0.25
  0
ENDTAB
  0
TABLE
  2
LAYER
 70
    12
  0
LAYER
  2
0
 70
     0
 62
     7
  6
CONTINUOUS
  0
LAYER
  2
SIZE
 70
     0
 62
    30
  6
CONTINUOUS
  0
LAYER
  2
BASIS
 70
     0
 62
     6
  6
DASHDOT
  0
LAYER
  2
OUTLINE
 70
     0
 62
     3
  6
CONTINUOUS
  0
LAYER
  2
DETAIL
 70
     0
 62
     5
  6
CONTINUOUS
  0
LAYER
  2
ARRANGE
 70
     0
 62
     1
  6
CONTINUOUS
  0
LAYER
  2
DEFPOINTS
 70
     0
 62
     7
  6
CONTINUOUS
  0
LAYER
  2
ETC
 70
     0
 62
    61
  6
CONTINUOUS
  0
LAYER
  2
FIX
 70
     0
 62
    11
  6
CONTINUOUS
  0
LAYER
  2
NOTE
 70
     0
 62
     4
  6
CONTINUOUS
  0
LAYER
  2
SERVICESPACE
 70
     0
 62
     2
  6
DASHDOT
  0
LAYER
  2
SYMBOLLINE
 70
     0
 62
    15
  6
CONTINUOUS
  0
ENDTAB
  0
TABLE
  2
STYLE
 70
     1
  0
STYLE
  2
STANDARD
 70
     0
 40
64.0
 41
0.9
 50
0.0
 71
     0
 42
64.0
  3
SIMPLEX.shx
  4
BIGFONT.shx
  0
ENDTAB
  0
TABLE
  2
VIEW
 70
     1
  0
VIEW
  2
ALL
 70
     0
 40
4282.6198079999986
 10
0.0
 20
41.309903999999989
 41
5940.0
 11
0.0
 21
0.0
 31
1.0
 12
0.0
 22
0.0
 32
0.0
 42
50.0
 43
0.0
 44
0.0
 50
0.0
 71
     0
  0
ENDTAB
  0
TABLE
  2
UCS
 70
     0
  0
ENDTAB
  0
TABLE
  2
APPID
 70
    15
  0
APPID
  2
ACAD
 70
     0
  0
APPID
  2
AUTOCAD_POSTSCRIPT_FIGURE
 70
     0
  0
APPID
  2
ACAD_EXEMPT_FROM_CAD_STANDARDS
 70
     0
  0
APPID
  2
ACAD_PSEXT
 70
     0
  0
APPID
  2
ACAUTHENVIRON
 70
     0
  0
APPID
  2
GENIUS_GENOENT_13
 70
     0
  0
APPID
  2
GENIUS_GENCFG_13
 70
     0
  0
APPID
  2
GENIUS_GENCFG0_13
 70
     0
  0
APPID
  2
GENIUS_GENCFG1_13
 70
     0
  0
APPID
  2
GENIUS_GENCFG2_13
 70
     0
  0
APPID
  2
GENIUS_GENCFG3_13
 70
     0
  0
APPID
  2
GENIUS_GENCFG4_13
 70
     0
  0
APPID
  2
GENIUS_GEVCFG0_13
 70
     0
  0
APPID
  2
CONTENTBLOCKDESCRIPTION
 70
     0
  0
APPID
  2
CONTENTBLOCKICON
 70
     0
  0
ENDTAB
  0
TABLE
  2
DIMSTYLE
 70
     1
  0
DIMSTYLE
  2
STANDARD
 70
     0
  3

  4

  5

  6

  7

 40
1.0
 41
0.18
 42
0.0625
 43
0.38
 44
0.18
 45
0.0
 46
0.0
 47
0.0
 48
0.0
140
0.18
141
0.09
142
0.0
143
25.399999999999999
144
1.0
145
0.0
146
1.0
147
0.09
 71
     0
 72
     0
 73
     1
 74
     1
 75
     0
 76
     0
 77
     0
 78
     0
170
     0
171
     2
172
     0
173
     0
174
     0
175
     0
176
     7
177
     7
178
     7
  0
ENDTAB
  0
ENDSEC
  0
SECTION
  2
BLOCKS
  0
BLOCK
  8
0
  2
$MODEL_SPACE
 70
     0
 10
0.0
 20
0.0
 30
0.0
  3
$MODEL_SPACE
  1

  0
ENDBLK
  5
20
  8
0
  0
BLOCK
 67
     1
  8
0
  2
$PAPER_SPACE
 70
     0
 10
0.0
 20
0.0
 30
0.0
  3
$PAPER_SPACE
  1

  0
ENDBLK
  5
1C
 67
     1
  8
0
  0
BLOCK
  8
0
  2
DOT1
 70
     0
 10
0.0
 20
0.0
 30
0.0
  3
DOT1
  1

  0
CIRCLE
  5
44
  8
SIZE
  6
CONTINUOUS
 62
     7
 10
0.0
 20
0.0
 30
0.0
 40
3.0
  0
ENDBLK
  5
45
  8
0
  0
BLOCK
  8
0
  2
_ORIGIN
 70
     0
 10
0.0
 20
0.0
 30
0.0
  3
_ORIGIN
  1

  0
CIRCLE
  5
48
  8
0
  6
CONTINUOUS
 62
     7
 10
0.0
 20
0.0
 30
0.0
 40
0.5
  0
LINE
  5
49
  8
0
  6
CONTINUOUS
 62
     7
 10
0.0
 20
0.0
 30
0.0
 11
-1.0
 21
0.0
 31
0.0
  0
ENDBLK
  5
4A
  8
0
  0
ENDSEC
  0
SECTION
  2
ENTITIES
  0
POINT
  5
4B
  8
ARRANGE
  6
CONTINUOUS
 62
     1
 10
0.0
 20
0.0
 30
0.0
 39
50.0
  0
LINE
  5
4C
  8
NOTE
  6
CONTINUOUS
 62
     4
 10
64.889672424589349
 20
70.61027534030427
 30
0.0
 11
56.500000424589338
 21
31.500003340304289
 31
0.0
  0
LINE
  5
4D
  8
NOTE
  6
CONTINUOUS
 62
     4
 10
56.500000424589338
 20
31.500003340304289
 30
0.0
 11
83.320806424589335
 21
61.175656340304279
 31
0.0
  0
TEXT
  5
4E
  8
NOTE
  6
CONTINUOUS
 62
     4
 10
167.74720342458929
 20
287.85147334030421
 30
0.0
 40
64.0
  1
EL
 41
0.9
  0
LINE
  5
4F
  8
NOTE
  6
CONTINUOUS
 62
     4
 39
50.0
 10
163.26402242458931
 20
277.75118934030422
 30
0.0
 11
259.98081542458931
 21
277.75118934030422
 31
0.0
  0
TEXT
  5
50
  8
NOTE
  6
CONTINUOUS
 62
     4
 10
-509.35021799999993
 20
70.368432999999996
 30
0.0
 40
64.0
  1
2-4×10
 41
0.9
  0
LINE
  5
51
  8
NOTE
  6
CONTINUOUS
 62
     4
 10
-118.37078200000001
 20
14.671766
 30
0.0
 11
-80.108630999999988
 21
3.009526999999999
 31
0.0
  0
LINE
  5
52
  8
NOTE
  6
CONTINUOUS
 62
     4
 10
-80.108630999999988
 20
3.009526999999999
 30
0.0
 11
-107.413506
 21
32.240397999999992
 31
0.0
  0
LINE
  5
53
  8
NOTE
  6
CONTINUOUS
 62
     4
 39
50.0
 10
163.26402242458931
 20
277.75118934030422
 30
0.0
 11
56.500000424589338
 21
31.500002340304299
 31
0.0
  0
LINE
  5
54
  8
NOTE
  6
CONTINUOUS
 62
     4
 39
50.0
 10
-521.97209899999996
 20
54.239210999999997
 30
0.0
 11
-159.6928739999999
 21
54.239210999999997
 31
0.0
  0
LINE
  5
55
  8
NOTE
  6
CONTINUOUS
 62
     4
 39
50.0
 10
-159.6928739999999
 20
54.239210999999997
 30
0.0
 11
-80.108630999999988
 21
3.009526999999999
 31
0.0
  0
LINE
  5
56
  8
BASIS
  6
DASHDOT
 62
     6
 39
50.0
 10
0.0
 20
-108.8452909999999
 30
0.0
 11
0.0
 21
108.8452909999999
 31
0.0
  0
LINE
  5
5A
  8
BASIS
  6
DASHDOT
 62
     6
 39
50.0
 10
124.54178
 20
0.000003
 30
0.0
 11
-124.54178
 21
-0.000003
 31
0.0
  0
CIRCLE
  5
5B
  8
ARRANGE
  6
CONTINUOUS
 62
     1
 39
25.0
 10
0.0
 20
0.0
 30
0.0
 40
20.0
  0
ARC
  5
5C
  8
DETAIL
  6
CONTINUOUS
 62
     5
 10
-10.172800000000001
 20
-0.1864
 30
0.0
 40
0.2
 50
0.5
 51
90.0
  0
LINE
  5
5D
  8
DETAIL
  6
CONTINUOUS
 62
     5
 10
-10.894539
 20
0.007852
 30
0.0
 11
-10.965849
 21
0.0136
 31
0.0
  0
LINE
  5
5E
  8
DETAIL
  6
CONTINUOUS
 62
     5
 10
-10.965849
 20
0.0136
 30
0.0
 11
-10.886832999999999
 21
0.007976
 31
0.0
  0
LINE
  5
5F
  8
NOTE
  6
CONTINUOUS
 62
     4
 10
56.500001424589342
 20
11.513603340304289
 30
0.0
 11
56.500001424589342
 21
51.513603340304293
 31
0.0
  0
LINE
  5
60
  8
NOTE
  6
CONTINUOUS
 62
     4
 10
36.500001424589342
 20
31.513603340304289
 30
0.0
 11
76.500001424589342
 21
31.513603340304289
 31
0.0
  0
LINE
  5
61
  8
NOTE
  6
CONTINUOUS
 62
     4
 10
-80.108630000000005
 20
-16.990473999999988
 30
0.0
 11
-80.108630000000005
 21
23.009526000000001
 31
0.0
  0
LINE
  5
62
  8
NOTE
  6
CONTINUOUS
 62
     4
 10
-100.10863000000001
 20
3.0095259999999988
 30
0.0
 11
-60.108629999999998
 21
3.0095259999999988
 31
0.0
  0
LINE
  5
63
  8
NOTE
  6
CONTINUOUS
 62
     4
 10
79.891369999999995
 20
-16.990473999999988
 30
0.0
 11
79.891369999999995
 21
23.009526000000001
 31
0.0
  0
LINE
  5
64
  8
NOTE
  6
CONTINUOUS
 62
     4
 10
59.891369999999988
 20
3.0095259999999988
 30
0.0
 11
99.891369999999995
 21
3.0095259999999988
 31
0.0
  0
CIRCLE
  5
65
  8
DETAIL
  6
DASHED
 62
     5
 10
0.0
 20
0.0136
 30
0.0
 40
45.257905999999991
  0
ARC
  5
66
  8
DETAIL
  6
DASHED
 62
     5
 10
-0.00584
 20
0.067646
 30
0.0
 40
42.291004000000001
 50
45.950709999999987
 51
115.6499699999999
  0
ARC
  5
67
  8
DETAIL
  6
DASHED
 62
     5
 10
14.017725
 20
26.307286999999999
 30
0.0
 40
34.44509
 50
159.81775400000001
 51
180.0
  0
LINE
  5
68
  8
DETAIL
  6
CONTINUOUS
 62
     5
 10
-74.898158999999993
 20
78.326137000000003
 30
0.0
 11
-74.898158999999993
 21
-67.793446000000003
 31
0.0
  0
LINE
  5
69
  8
DETAIL
  6
CONTINUOUS
 62
     5
 10
-89.999995999999996
 20
-98.488499000000004
 30
0.0
 11
-89.999995999999996
 21
78.51565699999999
 31
0.0
  0
LINE
  5
6A
  8
DETAIL
  6
CONTINUOUS
 62
     5
 10
74.898158999999993
 20
78.326137000000003
 30
0.0
 11
74.898158999999993
 21
-67.793446000000003
 31
0.0
  0
LINE
  5
6B
  8
DETAIL
  6
CONTINUOUS
 62
     5
 10
89.999995999999996
 20
78.51565699999999
 30
0.0
 11
89.999995999999996
 21
-98.488499000000004
 31
0.0
  0
LINE
  5
6C
  8
DETAIL
  6
CONTINUOUS
 62
     5
 10
-83.740985999999992
 20
-96.883115000000004
 30
0.0
 11
-81.997585999999998
 21
-96.476095999999998
 31
0.0
  0
LINE
  5
6D
  8
DETAIL
  6
CONTINUOUS
 62
     5
 10
82.008277000000007
 20
-96.478487999999999
 30
0.0
 11
83.749756999999974
 21
-96.885238000000001
 31
0.0
  0
LINE
  5
6E
  8
DETAIL
  6
CONTINUOUS
 62
     5
 10
-10.98254
 20
-99.986417000000003
 30
0.0
 11
-88.502077999999983
 21
-99.986417000000003
 31
0.0
  0
LINE
  5
6F
  8
DETAIL
  6
CONTINUOUS
 62
     5
 10
-85.464190999999985
 20
-97.319710999999998
 30
0.0
 11
-83.740985999999992
 21
-96.883115000000004
 31
0.0
  0
LINE
  5
70
  8
DETAIL
  6
CONTINUOUS
 62
     5
 10
-87.162678999999997
 20
-97.785166000000004
 30
0.0
 11
-85.464190999999985
 21
-97.319710999999998
 31
0.0
  0
LINE
  5
71
  8
DETAIL
  6
CONTINUOUS
 62
     5
 10
-88.835238000000004
 20
-98.279709999999994
 30
0.0
 11
-87.162678999999997
 21
-97.785166000000004
 31
0.0
  0
LINE
  5
72
  8
DETAIL
  6
CONTINUOUS
 62
     5
 10
-89.992781999999991
 20
-98.635190000000009
 30
0.0
 11
-89.999983999999998
 21
-98.488499000000004
 31
0.0
  0
LINE
  5
73
  8
DETAIL
  6
CONTINUOUS
 62
     5
 10
-89.971237000000016
 20
-98.780539000000005
 30
0.0
 11
-89.992781999999991
 21
-98.635190000000009
 31
0.0
  0
LINE
  5
74
  8
DETAIL
  6
CONTINUOUS
 62
     5
 10
-89.935531999999995
 20
-98.923151000000004
 30
0.0
 11
-89.971237000000016
 21
-98.780539000000005
 31
0.0
  0
LINE
  5
75
  8
DETAIL
  6
CONTINUOUS
 62
     5
 10
-89.885998000000015
 20
-99.061629000000011
 30
0.0
 11
-89.935531999999995
 21
-98.923151000000004
 31
0.0
  0
LINE
  5
76
  8
DETAIL
  6
CONTINUOUS
 62
     5
 10
-89.823099999999997
 20
-99.194624000000005
 30
0.0
 11
-89.885998000000015
 21
-99.061629000000011
 31
0.0
  0
LINE
  5
77
  8
DETAIL
  6
CONTINUOUS
 62
     5
 10
-89.747449000000003
 20
-99.320823000000004
 30
0.0
 11
-89.823099999999997
 21
-99.194624000000005
 31
0.0
  0
LINE
  5
78
  8
DETAIL
  6
CONTINUOUS
 62
     5
 10
-89.659794999999988
 20
-99.438974000000002
 30
0.0
 11
-89.747449000000003
 21
-99.320823000000004
 31
0.0
  0
LINE
  5
79
  8
DETAIL
  6
CONTINUOUS
 62
     5
 10
-89.560976999999994
 20
-99.547955000000016
 30
0.0
 11
-89.659794999999988
 21
-99.438974000000002
 31
0.0
  0
LINE
  5
7A
  8
DETAIL
  6
CONTINUOUS
 62
     5
 10
-89.451947000000004
 20
-99.646714000000003
 30
0.0
 11
-89.560976999999994
 21
-99.547955000000016
 31
0.0
  0
LINE
  5
7B
  8
DETAIL
  6
CONTINUOUS
 62
     5
 10
-89.333746999999988
 20
-99.734307000000015
 30
0.0
 11
-89.451947000000004
 21
-99.646714000000003
 31
0.0
  0
LINE
  5
7C
  8
DETAIL
  6
CONTINUOUS
 62
     5
 10
-89.207464000000002
 20
-99.809916000000015
 30
0.0
 11
-89.333746999999988
 21
-99.734307000000015
 31
0.0
  0
LINE
  5
7D
  8
DETAIL
  6
CONTINUOUS
 62
     5
 10
-89.074438999999998
 20
-99.872737000000015
 30
0.0
 11
-89.207464000000002
 21
-99.809916000000015
 31
0.0
  0
LINE
  5
7E
  8
DETAIL
  6
CONTINUOUS
 62
     5
 10
-88.936128999999994
 20
-99.922134999999997
 30
0.0
 11
-89.074438999999998
 21
-99.872737000000015
 31
0.0
  0
LINE
  5
7F
  8
DETAIL
  6
CONTINUOUS
 62
     5
 10
-88.793751999999998
 20
-99.957729999999984
 30
0.0
 11
-88.936128999999994
 21
-99.922134999999997
 31
0.0
  0
LINE
  5
80
  8
DETAIL
  6
CONTINUOUS
 62
     5
 10
-88.648593999999974
 20
-99.979220999999995
 30
0.0
 11
-88.793751999999998
 21
-99.957729999999984
 31
0.0
  0
LINE
  5
81
  8
DETAIL
  6
CONTINUOUS
 62
     5
 10
-88.502077999999983
 20
-99.986405000000005
 30
0.0
 11
-88.648593999999974
 21
-99.979220999999995
 31
0.0
  0
LINE
  5
82
  8
DETAIL
  6
CONTINUOUS
 62
     5
 10
66.475418000000005
 20
-99.893216000000024
 30
0.0
 11
35.260738000000003
 21
-99.893509999999992
 31
0.0
  0
LINE
  5
83
  8
DETAIL
  6
CONTINUOUS
 62
     5
 10
35.386078999999988
 20
-99.980289000000013
 30
0.0
 11
66.600758999999996
 21
-99.979995999999986
 31
0.0
  0
LINE
  5
84
  8
DETAIL
  6
CONTINUOUS
 62
     5
 10
19.972842
 20
-99.986417000000003
 30
0.0
 11
10.98254
 21
-99.986417000000003
 31
0.0
  0
LINE
  5
85
  8
DETAIL
  6
CONTINUOUS
 62
     5
 10
-4.9058699999999993
 20
-99.849564000000015
 30
0.0
 11
6.7821360000000004
 21
-99.852194999999995
 31
0.0
  0
LINE
  5
86
  8
DETAIL
  6
CONTINUOUS
 62
     5
 10
-10.652915
 20
-99.930445999999989
 30
0.0
 11
-10.76031399999999
 21
-99.961371
 31
0.0
  0
LINE
  5
87
  8
DETAIL
  6
CONTINUOUS
 62
     5
 10
-10.549617
 20
-99.887701000000007
 30
0.0
 11
-10.652915
 21
-99.930445999999989
 31
0.0
  0
LINE
  5
88
  8
DETAIL
  6
CONTINUOUS
 62
     5
 10
-10.543732999999991
 20
-99.884453000000022
 30
0.0
 11
-10.549617
 21
-99.887701000000007
 31
0.0
  0
LINE
  5
89
  8
DETAIL
  6
CONTINUOUS
 62
     5
 10
-10.98254
 20
-99.986405000000005
 30
0.0
 11
-10.89749499999999
 21
-99.901359999999997
 31
0.0
  0
LINE
  5
8A
  8
DETAIL
  6
CONTINUOUS
 62
     5
 10
-10.87067
 20
-99.980121999999994
 30
0.0
 11
-10.98254
 21
-99.986405000000005
 31
0.0
  0
LINE
  5
8B
  8
DETAIL
  6
CONTINUOUS
 62
     5
 10
-10.76031399999999
 20
-99.961371
 30
0.0
 11
-10.87067
 21
-99.980121999999994
 31
0.0
  0
LINE
  5
8C
  8
DETAIL
  6
CONTINUOUS
 62
     5
 10
-10.753507000000001
 20
-99.890418999999994
 30
0.0
 11
-10.682441000000001
 21
-99.888510999999994
 31
0.0
  0
LINE
  5
8D
  8
DETAIL
  6
CONTINUOUS
 62
     5
 10
-10.831471999999991
 20
-99.894062000000005
 30
0.0
 11
-10.753507000000001
 21
-99.890418999999994
 31
0.0
  0
LINE
  5
8E
  8
DETAIL
  6
CONTINUOUS
 62
     5
 10
-10.879429
 20
-99.897705000000002
 30
0.0
 11
-10.831471999999991
 21
-99.894062000000005
 31
0.0
  0
LINE
  5
8F
  8
DETAIL
  6
CONTINUOUS
 62
     5
 10
-10.89749499999999
 20
-99.901359999999997
 30
0.0
 11
-10.879429
 21
-99.897705000000002
 31
0.0
  0
LINE
  5
90
  8
DETAIL
  6
CONTINUOUS
 62
     5
 10
-6.8207570000000004
 20
-99.852307999999994
 30
0.0
 11
-4.9058699999999993
 21
-99.849563000000003
 31
0.0
  0
LINE
  5
91
  8
DETAIL
  6
CONTINUOUS
 62
     5
 10
-6.979603
 20
-99.852758999999992
 30
0.0
 11
-6.8207570000000004
 21
-99.852307999999994
 31
0.0
  0
LINE
  5
92
  8
DETAIL
  6
CONTINUOUS
 62
     5
 10
-8.4763579999999994
 20
-99.859881000000001
 30
0.0
 11
-6.8207570000000004
 21
-99.852307999999994
 31
0.0
  0
LINE
  5
93
  8
DETAIL
  6
CONTINUOUS
 62
     5
 10
-9.5809829999999998
 20
-99.869206000000005
 30
0.0
 11
-8.4763579999999994
 21
-99.859881000000001
 31
0.0
  0
LINE
  5
94
  8
DETAIL
  6
CONTINUOUS
 62
     5
 10
-9.6840130000000002
 20
-99.870265000000003
 30
0.0
 11
-9.5809829999999998
 21
-99.869206000000005
 31
0.0
  0
LINE
  5
95
  8
DETAIL
  6
CONTINUOUS
 62
     5
 10
-10.121644
 20
-99.876234999999994
 30
0.0
 11
-9.5809829999999998
 21
-99.869206000000005
 31
0.0
  0
LINE
  5
96
  8
DETAIL
  6
CONTINUOUS
 62
     5
 10
-10.14894399999999
 20
-99.87650600000002
 30
0.0
 11
-10.121644
 21
-99.876234999999994
 31
0.0
  0
LINE
  5
97
  8
DETAIL
  6
CONTINUOUS
 62
     5
 10
-10.392737999999991
 20
-99.881045
 30
0.0
 11
-10.121644
 21
-99.876234999999994
 31
0.0
  0
LINE
  5
98
  8
DETAIL
  6
CONTINUOUS
 62
     5
 10
-10.537853999999991
 20
-99.884302000000005
 30
0.0
 11
-10.392737999999991
 21
-99.881045
 31
0.0
  0
LINE
  5
99
  8
DETAIL
  6
CONTINUOUS
 62
     5
 10
-10.628201999999989
 20
-99.886766000000009
 30
0.0
 11
-10.537853999999991
 21
-99.884302000000005
 31
0.0
  0
LINE
  5
9A
  8
DETAIL
  6
CONTINUOUS
 62
     5
 10
-10.537853999999991
 20
-99.884302000000005
 30
0.0
 11
-10.508493
 21
-99.883281000000025
 31
0.0
  0
LINE
  5
9B
  8
DETAIL
  6
CONTINUOUS
 62
     5
 10
-10.64588399999999
 20
-99.88681600000001
 30
0.0
 11
-10.628201999999989
 21
-99.886766000000009
 31
0.0
  0
LINE
  5
9C
  8
DETAIL
  6
CONTINUOUS
 62
     5
 10
-10.682441000000001
 20
-99.888510999999994
 30
0.0
 11
-10.628201999999989
 21
-99.886766000000009
 31
0.0
  0
LINE
  5
9D
  8
DETAIL
  6
CONTINUOUS
 62
     5
 10
-10.665609
 20
-99.887940999999984
 30
0.0
 11
-10.64588399999999
 21
-99.88681600000001
 31
0.0
  0
LINE
  5
9E
  8
DETAIL
  6
CONTINUOUS
 62
     5
 10
-10.725591
 20
-99.890131999999994
 30
0.0
 11
-10.682441000000001
 21
-99.888510999999994
 31
0.0
  0
LINE
  5
9F
  8
DETAIL
  6
CONTINUOUS
 62
     5
 10
-10.748208
 20
-99.891116000000011
 30
0.0
 11
-10.725591
 21
-99.890131999999994
 31
0.0
  0
LINE
  5
A0
  8
DETAIL
  6
CONTINUOUS
 62
     5
 10
-10.76563099999999
 20
-99.891979000000006
 30
0.0
 11
-10.748208
 21
-99.891116000000011
 31
0.0
  0
LINE
  5
A1
  8
DETAIL
  6
CONTINUOUS
 62
     5
 10
-10.777426
 20
-99.892651999999998
 30
0.0
 11
-10.76563099999999
 21
-99.891979000000006
 31
0.0
  0
LINE
  5
A2
  8
DETAIL
  6
CONTINUOUS
 62
     5
 10
-10.785681
 20
-99.895088999999999
 30
0.0
 11
-10.768204999999989
 21
-99.892121000000003
 31
0.0
  0
LINE
  5
A3
  8
DETAIL
  6
CONTINUOUS
 62
     5
 10
-10.89749499999999
 20
-99.901359999999997
 30
0.0
 11
-10.785681
 21
-99.895088999999999
 31
0.0
  0
LINE
  5
A4
  8
DETAIL
  6
CONTINUOUS
 62
     5
 10
-10.781026000000001
 20
-99.892883999999995
 30
0.0
 11
-10.777426
 21
-99.892651999999998
 31
0.0
  0
LINE
  5
A5
  8
DETAIL
  6
CONTINUOUS
 62
     5
 10
-10.782821999999999
 20
-99.893010000000004
 30
0.0
 11
-10.781026000000001
 21
-99.892883999999995
 31
0.0
  0
LINE
  5
A6
  8
DETAIL
  6
CONTINUOUS
 62
     5
 10
-10.782992999999999
 20
-99.893022000000002
 30
0.0
 11
-10.782821999999999
 21
-99.893010000000004
 31
0.0
  0
LINE
  5
A7
  8
DETAIL
  6
CONTINUOUS
 62
     5
 10
6.5733670000000002
 20
-99.851592000000011
 30
0.0
 11
6.7821360000000004
 21
-99.852194999999995
 31
0.0
  0
LINE
  5
A8
  8
DETAIL
  6
CONTINUOUS
 62
     5
 10
10.89749499999999
 20
-99.901359999999997
 30
0.0
 11
10.98254
 21
-99.986405000000005
 31
0.0
  0
LINE
  5
A9
  8
DETAIL
  6
CONTINUOUS
 62
     5
 10
10.549617
 20
-99.887701000000007
 30
0.0
 11
10.543730999999999
 21
-99.88445200000001
 31
0.0
  0
LINE
  5
AA
  8
DETAIL
  6
CONTINUOUS
 62
     5
 10
10.652915
 20
-99.930445999999989
 30
0.0
 11
10.549617
 21
-99.887701000000007
 31
0.0
  0
LINE
  5
AB
  8
DETAIL
  6
CONTINUOUS
 62
     5
 10
10.76031399999999
 20
-99.961371
 30
0.0
 11
10.652915
 21
-99.930445999999989
 31
0.0
  0
LINE
  5
AC
  8
DETAIL
  6
CONTINUOUS
 62
     5
 10
10.775641
 20
-99.892543000000003
 30
0.0
 11
10.777727999999991
 21
-99.892670999999993
 31
0.0
  0
LINE
  5
AD
  8
DETAIL
  6
CONTINUOUS
 62
     5
 10
10.762255
 20
-99.891801999999984
 30
0.0
 11
10.775641
 21
-99.892543000000003
 31
0.0
  0
LINE
  5
AE
  8
DETAIL
  6
CONTINUOUS
 62
     5
 10
10.87067
 20
-99.980121999999994
 30
0.0
 11
10.76031399999999
 21
-99.961371
 31
0.0
  0
LINE
  5
AF
  8
DETAIL
  6
CONTINUOUS
 62
     5
 10
10.98254
 20
-99.986405000000005
 30
0.0
 11
10.87067
 21
-99.980121999999994
 31
0.0
  0
LINE
  5
B0
  8
DETAIL
  6
CONTINUOUS
 62
     5
 10
10.785681
 20
-99.895088999999999
 30
0.0
 11
10.768198999999999
 21
-99.892120000000006
 31
0.0
  0
LINE
  5
B1
  8
DETAIL
  6
CONTINUOUS
 62
     5
 10
10.89749499999999
 20
-99.901359999999997
 30
0.0
 11
10.785681
 21
-99.895088999999999
 31
0.0
  0
LINE
  5
B2
  8
DETAIL
  6
CONTINUOUS
 62
     5
 10
10.742974999999991
 20
-99.890877000000003
 30
0.0
 11
10.762255
 21
-99.891801999999984
 31
0.0
  0
LINE
  5
B3
  8
DETAIL
  6
CONTINUOUS
 62
     5
 10
10.879429
 20
-99.897705000000002
 30
0.0
 11
10.89749499999999
 21
-99.901359999999997
 31
0.0
  0
LINE
  5
B4
  8
DETAIL
  6
CONTINUOUS
 62
     5
 10
10.831471999999991
 20
-99.894062000000005
 30
0.0
 11
10.879429
 21
-99.897705000000002
 31
0.0
  0
LINE
  5
B5
  8
DETAIL
  6
CONTINUOUS
 62
     5
 10
10.762255
 20
-99.891801999999984
 30
0.0
 11
10.831471999999991
 21
-99.894062000000005
 31
0.0
  0
LINE
  5
B6
  8
DETAIL
  6
CONTINUOUS
 62
     5
 10
10.71814
 20
-99.889831999999984
 30
0.0
 11
10.742974999999991
 21
-99.890877000000003
 31
0.0
  0
LINE
  5
B7
  8
DETAIL
  6
CONTINUOUS
 62
     5
 10
10.670763000000001
 20
-99.888113000000004
 30
0.0
 11
10.71814
 21
-99.889831999999984
 31
0.0
  0
LINE
  5
B8
  8
DETAIL
  6
CONTINUOUS
 62
     5
 10
10.703692999999999
 20
-99.889275999999995
 30
0.0
 11
10.753507000000001
 21
-99.890418999999994
 31
0.0
  0
LINE
  5
B9
  8
DETAIL
  6
CONTINUOUS
 62
     5
 10
10.61135099999999
 20
-99.886270999999994
 30
0.0
 11
10.670763000000001
 21
-99.888113000000004
 31
0.0
  0
LINE
  5
BA
  8
DETAIL
  6
CONTINUOUS
 62
     5
 10
10.51336199999999
 20
-99.883702999999997
 30
0.0
 11
10.61135099999999
 21
-99.886270999999994
 31
0.0
  0
LINE
  5
BB
  8
DETAIL
  6
CONTINUOUS
 62
     5
 10
10.588881999999989
 20
-99.885638999999998
 30
0.0
 11
10.64588399999999
 21
-99.88681600000001
 31
0.0
  0
LINE
  5
BC
  8
DETAIL
  6
CONTINUOUS
 62
     5
 10
10.359914
 20
-99.880390000000006
 30
0.0
 11
10.51336199999999
 21
-99.883702999999997
 31
0.0
  0
LINE
  5
BD
  8
DETAIL
  6
CONTINUOUS
 62
     5
 10
10.508493
 20
-99.883281000000025
 30
0.0
 11
10.51336199999999
 21
-99.883702999999997
 31
0.0
  0
LINE
  5
BE
  8
DETAIL
  6
CONTINUOUS
 62
     5
 10
10.485455
 20
-99.883047000000005
 30
0.0
 11
10.508493
 21
-99.883281000000025
 31
0.0
  0
LINE
  5
BF
  8
DETAIL
  6
CONTINUOUS
 62
     5
 10
10.342599
 20
-99.879835
 30
0.0
 11
10.359914
 21
-99.880390000000006
 31
0.0
  0
LINE
  5
C0
  8
DETAIL
  6
CONTINUOUS
 62
     5
 10
10.086182000000001
 20
-99.875690000000006
 30
0.0
 11
10.359914
 21
-99.880390000000006
 31
0.0
  0
LINE
  5
C1
  8
DETAIL
  6
CONTINUOUS
 62
     5
 10
9.5748429999999995
 20
-99.869139000000004
 30
0.0
 11
10.086182000000001
 21
-99.875690000000006
 31
0.0
  0
LINE
  5
C2
  8
DETAIL
  6
CONTINUOUS
 62
     5
 10
8.4579500000000003
 20
-99.859762000000003
 30
0.0
 11
9.5748429999999995
 21
-99.869139000000004
 31
0.0
  0
LINE
  5
C3
  8
DETAIL
  6
CONTINUOUS
 62
     5
 10
6.7821360000000004
 20
-99.852194999999995
 30
0.0
 11
8.4579500000000003
 21
-99.859762000000003
 31
0.0
  0
LINE
  5
C4
  8
DETAIL
  6
CONTINUOUS
 62
     5
 10
34.952474000000002
 20
-99.986417000000003
 30
0.0
 11
34.453153
 21
-99.986417000000003
 31
0.0
  0
LINE
  5
C5
  8
DETAIL
  6
CONTINUOUS
 62
     5
 10
34.453153
 20
-99.975969999999975
 30
0.0
 11
34.453153
 21
-99.897534999999991
 31
0.0
  0
LINE
  5
C6
  8
DETAIL
  6
CONTINUOUS
 62
     5
 10
33.953831999999991
 20
-99.980328
 30
0.0
 11
33.953831999999991
 21
-99.893176999999994
 31
0.0
  0
LINE
  5
C7
  8
DETAIL
  6
CONTINUOUS
 62
     5
 10
34.349924000000001
 20
-99.894882999999993
 30
0.0
 11
34.257762
 21
-99.894078000000022
 31
0.0
  0
LINE
  5
C8
  8
DETAIL
  6
CONTINUOUS
 62
     5
 10
34.386254000000001
 20
-99.895356000000007
 30
0.0
 11
34.349924000000001
 21
-99.894882999999993
 31
0.0
  0
LINE
  5
C9
  8
DETAIL
  6
CONTINUOUS
 62
     5
 10
34.415092999999992
 20
-99.895868000000007
 30
0.0
 11
34.386254000000001
 21
-99.895356000000007
 31
0.0
  0
LINE
  5
CA
  8
DETAIL
  6
CONTINUOUS
 62
     5
 10
34.436138999999997
 20
-99.896406999999996
 30
0.0
 11
34.415092999999992
 21
-99.895868000000007
 31
0.0
  0
LINE
  5
CB
  8
DETAIL
  6
CONTINUOUS
 62
     5
 10
34.448754999999998
 20
-99.896961000000005
 30
0.0
 11
34.436138999999997
 21
-99.896406999999996
 31
0.0
  0
LINE
  5
CC
  8
DETAIL
  6
CONTINUOUS
 62
     5
 10
34.453153
 20
-99.897534999999991
 30
0.0
 11
34.448754999999998
 21
-99.896961000000005
 31
0.0
  0
LINE
  5
CD
  8
DETAIL
  6
CONTINUOUS
 62
     5
 10
34.257762
 20
-99.894078000000022
 30
0.0
 11
34.019548
 21
-99.893216000000024
 31
0.0
  0
LINE
  5
CE
  8
DETAIL
  6
CONTINUOUS
 62
     5
 10
34.144889999999997
 20
-99.979995999999986
 30
0.0
 11
34.306902000000001
 21
-99.979050999999998
 31
0.0
  0
LINE
  5
CF
  8
DETAIL
  6
CONTINUOUS
 62
     5
 10
34.306902000000001
 20
-99.979050999999998
 30
0.0
 11
34.386254000000001
 21
-99.978149000000016
 31
0.0
  0
LINE
  5
D0
  8
DETAIL
  6
CONTINUOUS
 62
     5
 10
34.448754999999998
 20
-99.976544000000004
 30
0.0
 11
34.453153
 21
-99.975969999999975
 31
0.0
  0
LINE
  5
D1
  8
DETAIL
  6
CONTINUOUS
 62
     5
 10
34.436138999999997
 20
-99.977097999999998
 30
0.0
 11
34.448754999999998
 21
-99.976544000000004
 31
0.0
  0
LINE
  5
D2
  8
DETAIL
  6
CONTINUOUS
 62
     5
 10
34.415092999999992
 20
-99.977638000000013
 30
0.0
 11
34.436138999999997
 21
-99.977097999999998
 31
0.0
  0
LINE
  5
D3
  8
DETAIL
  6
CONTINUOUS
 62
     5
 10
34.386254000000001
 20
-99.978149000000016
 30
0.0
 11
34.415092999999992
 21
-99.977638000000013
 31
0.0
  0
LINE
  5
D4
  8
DETAIL
  6
CONTINUOUS
 62
     5
 10
34.019548
 20
-99.893216000000024
 30
0.0
 11
20.281106000000001
 21
-99.893509999999992
 31
0.0
  0
LINE
  5
D5
  8
DETAIL
  6
CONTINUOUS
 62
     5
 10
20.406447
 20
-99.980289000000013
 30
0.0
 11
34.144889999999997
 21
-99.979995999999986
 31
0.0
  0
LINE
  5
D6
  8
DETAIL
  6
CONTINUOUS
 62
     5
 10
34.453153
 20
-99.986405000000005
 30
0.0
 11
19.972842
 21
-99.986417000000003
 31
0.0
  0
LINE
  5
D7
  8
DETAIL
  6
CONTINUOUS
 62
     5
 10
20.472163999999999
 20
-99.980328
 30
0.0
 11
20.472163999999999
 21
-99.893176999999994
 31
0.0
  0
LINE
  5
D8
  8
DETAIL
  6
CONTINUOUS
 62
     5
 10
19.972842
 20
-99.897534999999991
 30
0.0
 11
19.972842
 21
-99.975969999999975
 31
0.0
  0
LINE
  5
D9
  8
DETAIL
  6
CONTINUOUS
 62
     5
 10
19.977240999999999
 20
-99.976544000000004
 30
0.0
 11
19.989857000000001
 21
-99.977097999999998
 31
0.0
  0
LINE
  5
DA
  8
DETAIL
  6
CONTINUOUS
 62
     5
 10
19.972842
 20
-99.975969999999975
 30
0.0
 11
19.977240999999999
 21
-99.976544000000004
 31
0.0
  0
LINE
  5
DB
  8
DETAIL
  6
CONTINUOUS
 62
     5
 10
20.076072
 20
-99.978623000000013
 30
0.0
 11
20.168233999999991
 21
-99.979427000000015
 31
0.0
  0
LINE
  5
DC
  8
DETAIL
  6
CONTINUOUS
 62
     5
 10
20.039740999999999
 20
-99.978149000000016
 30
0.0
 11
20.076072
 21
-99.978623000000013
 31
0.0
  0
LINE
  5
DD
  8
DETAIL
  6
CONTINUOUS
 62
     5
 10
20.010902999999988
 20
-99.977638000000013
 30
0.0
 11
20.039740999999999
 21
-99.978149000000016
 31
0.0
  0
LINE
  5
DE
  8
DETAIL
  6
CONTINUOUS
 62
     5
 10
19.989857000000001
 20
-99.977097999999998
 30
0.0
 11
20.010902999999988
 21
-99.977638000000013
 31
0.0
  0
LINE
  5
DF
  8
DETAIL
  6
CONTINUOUS
 62
     5
 10
20.168233999999991
 20
-99.979427000000015
 30
0.0
 11
20.406447
 21
-99.980289000000013
 31
0.0
  0
LINE
  5
E0
  8
DETAIL
  6
CONTINUOUS
 62
     5
 10
20.281106000000001
 20
-99.893509999999992
 30
0.0
 11
20.11909399999999
 21
-99.89445400000001
 31
0.0
  0
LINE
  5
E1
  8
DETAIL
  6
CONTINUOUS
 62
     5
 10
20.11909399999999
 20
-99.89445400000001
 30
0.0
 11
20.039740999999999
 21
-99.895356000000007
 31
0.0
  0
LINE
  5
E2
  8
DETAIL
  6
CONTINUOUS
 62
     5
 10
19.977240999999999
 20
-99.896961000000005
 30
0.0
 11
19.972842
 21
-99.897534999999991
 31
0.0
  0
LINE
  5
E3
  8
DETAIL
  6
CONTINUOUS
 62
     5
 10
19.989857000000001
 20
-99.896406999999996
 30
0.0
 11
19.977240999999999
 21
-99.896961000000005
 31
0.0
  0
LINE
  5
E4
  8
DETAIL
  6
CONTINUOUS
 62
     5
 10
20.010902999999988
 20
-99.895868000000007
 30
0.0
 11
19.989857000000001
 21
-99.896406999999996
 31
0.0
  0
LINE
  5
E5
  8
DETAIL
  6
CONTINUOUS
 62
     5
 10
20.039740999999999
 20
-99.895356000000007
 30
0.0
 11
20.010902999999988
 21
-99.895868000000007
 31
0.0
  0
LINE
  5
E6
  8
DETAIL
  6
CONTINUOUS
 62
     5
 10
35.451794999999997
 20
-99.980328
 30
0.0
 11
35.451794999999997
 21
-99.893176999999994
 31
0.0
  0
LINE
  5
E7
  8
DETAIL
  6
CONTINUOUS
 62
     5
 10
34.952474000000002
 20
-99.897534999999991
 30
0.0
 11
34.952474000000002
 21
-99.975969999999975
 31
0.0
  0
LINE
  5
E8
  8
DETAIL
  6
CONTINUOUS
 62
     5
 10
34.956873000000002
 20
-99.976544000000004
 30
0.0
 11
34.969489000000003
 21
-99.977097999999998
 31
0.0
  0
LINE
  5
E9
  8
DETAIL
  6
CONTINUOUS
 62
     5
 10
34.952474000000002
 20
-99.975969999999975
 30
0.0
 11
34.956873000000002
 21
-99.976544000000004
 31
0.0
  0
LINE
  5
EA
  8
DETAIL
  6
CONTINUOUS
 62
     5
 10
35.055703999999992
 20
-99.978623000000013
 30
0.0
 11
35.147866
 21
-99.979427000000015
 31
0.0
  0
LINE
  5
EB
  8
DETAIL
  6
CONTINUOUS
 62
     5
 10
35.019373000000002
 20
-99.978149000000016
 30
0.0
 11
35.055703999999992
 21
-99.978623000000013
 31
0.0
  0
LINE
  5
EC
  8
DETAIL
  6
CONTINUOUS
 62
     5
 10
34.990534999999987
 20
-99.977638000000013
 30
0.0
 11
35.019373000000002
 21
-99.978149000000016
 31
0.0
  0
LINE
  5
ED
  8
DETAIL
  6
CONTINUOUS
 62
     5
 10
34.969489000000003
 20
-99.977097999999998
 30
0.0
 11
34.990534999999987
 21
-99.977638000000013
 31
0.0
  0
LINE
  5
EE
  8
DETAIL
  6
CONTINUOUS
 62
     5
 10
35.147866
 20
-99.979427000000015
 30
0.0
 11
35.386078999999988
 21
-99.980289000000013
 31
0.0
  0
LINE
  5
EF
  8
DETAIL
  6
CONTINUOUS
 62
     5
 10
35.260738000000003
 20
-99.893509999999992
 30
0.0
 11
35.098725999999999
 21
-99.89445400000001
 31
0.0
  0
LINE
  5
F0
  8
DETAIL
  6
CONTINUOUS
 62
     5
 10
35.098725999999999
 20
-99.89445400000001
 30
0.0
 11
35.019373000000002
 21
-99.895356000000007
 31
0.0
  0
LINE
  5
F1
  8
DETAIL
  6
CONTINUOUS
 62
     5
 10
34.956873000000002
 20
-99.896961000000005
 30
0.0
 11
34.952474000000002
 21
-99.897534999999991
 31
0.0
  0
LINE
  5
F2
  8
DETAIL
  6
CONTINUOUS
 62
     5
 10
34.969489000000003
 20
-99.896406999999996
 30
0.0
 11
34.956873000000002
 21
-99.896961000000005
 31
0.0
  0
LINE
  5
F3
  8
DETAIL
  6
CONTINUOUS
 62
     5
 10
34.990534999999987
 20
-99.895868000000007
 30
0.0
 11
34.969489000000003
 21
-99.896406999999996
 31
0.0
  0
LINE
  5
F4
  8
DETAIL
  6
CONTINUOUS
 62
     5
 10
35.019373000000002
 20
-99.895356000000007
 30
0.0
 11
34.990534999999987
 21
-99.895868000000007
 31
0.0
  0
LINE
  5
F5
  8
DETAIL
  6
CONTINUOUS
 62
     5
 10
88.502077999999983
 20
-99.986417000000003
 30
0.0
 11
66.909021999999993
 21
-99.986417000000003
 31
0.0
  0
LINE
  5
F6
  8
DETAIL
  6
CONTINUOUS
 62
     5
 10
66.909021999999993
 20
-99.975969999999975
 30
0.0
 11
66.909021999999993
 21
-99.897534999999991
 31
0.0
  0
LINE
  5
F7
  8
DETAIL
  6
CONTINUOUS
 62
     5
 10
66.409700999999998
 20
-99.980328
 30
0.0
 11
66.409700999999998
 21
-99.893176999999994
 31
0.0
  0
LINE
  5
F8
  8
DETAIL
  6
CONTINUOUS
 62
     5
 10
66.805793000000008
 20
-99.894882999999993
 30
0.0
 11
66.713631000000007
 21
-99.894078000000022
 31
0.0
  0
LINE
  5
F9
  8
DETAIL
  6
CONTINUOUS
 62
     5
 10
66.842123999999984
 20
-99.895356000000007
 30
0.0
 11
66.805793000000008
 21
-99.894882999999993
 31
0.0
  0
LINE
  5
FA
  8
DETAIL
  6
CONTINUOUS
 62
     5
 10
66.870962000000006
 20
-99.895868000000007
 30
0.0
 11
66.842123999999984
 21
-99.895356000000007
 31
0.0
  0
LINE
  5
FB
  8
DETAIL
  6
CONTINUOUS
 62
     5
 10
66.89200799999999
 20
-99.896406999999996
 30
0.0
 11
66.870962000000006
 21
-99.895868000000007
 31
0.0
  0
LINE
  5
FC
  8
DETAIL
  6
CONTINUOUS
 62
     5
 10
66.904623999999998
 20
-99.896961000000005
 30
0.0
 11
66.89200799999999
 21
-99.896406999999996
 31
0.0
  0
LINE
  5
FD
  8
DETAIL
  6
CONTINUOUS
 62
     5
 10
66.909021999999993
 20
-99.897534999999991
 30
0.0
 11
66.904623999999998
 21
-99.896961000000005
 31
0.0
  0
LINE
  5
FE
  8
DETAIL
  6
CONTINUOUS
 62
     5
 10
66.713631000000007
 20
-99.894078000000022
 30
0.0
 11
66.475418000000005
 21
-99.893216000000024
 31
0.0
  0
LINE
  5
FF
  8
DETAIL
  6
CONTINUOUS
 62
     5
 10
66.600758999999996
 20
-99.979995999999986
 30
0.0
 11
66.762771000000001
 21
-99.979050999999998
 31
0.0
  0
LINE
  5
100
  8
DETAIL
  6
CONTINUOUS
 62
     5
 10
66.762771000000001
 20
-99.979050999999998
 30
0.0
 11
66.842123999999984
 21
-99.978149000000016
 31
0.0
  0
LINE
  5
101
  8
DETAIL
  6
CONTINUOUS
 62
     5
 10
66.904623999999998
 20
-99.976544000000004
 30
0.0
 11
66.909021999999993
 21
-99.975969999999975
 31
0.0
  0
LINE
  5
102
  8
DETAIL
  6
CONTINUOUS
 62
     5
 10
66.89200799999999
 20
-99.977097999999998
 30
0.0
 11
66.904623999999998
 21
-99.976544000000004
 31
0.0
  0
LINE
  5
103
  8
DETAIL
  6
CONTINUOUS
 62
     5
 10
66.870962000000006
 20
-99.977638000000013
 30
0.0
 11
66.89200799999999
 21
-99.977097999999998
 31
0.0
  0
LINE
  5
104
  8
DETAIL
  6
CONTINUOUS
 62
     5
 10
66.842123999999984
 20
-99.978149000000016
 30
0.0
 11
66.870962000000006
 21
-99.977638000000013
 31
0.0
  0
LINE
  5
105
  8
DETAIL
  6
CONTINUOUS
 62
     5
 10
88.648593999999974
 20
-99.979220999999995
 30
0.0
 11
88.502077999999983
 21
-99.986405000000005
 31
0.0
  0
LINE
  5
106
  8
DETAIL
  6
CONTINUOUS
 62
     5
 10
88.793751999999998
 20
-99.957729999999984
 30
0.0
 11
88.648593999999974
 21
-99.979220999999995
 31
0.0
  0
LINE
  5
107
  8
DETAIL
  6
CONTINUOUS
 62
     5
 10
88.936128999999994
 20
-99.922134999999997
 30
0.0
 11
88.793751999999998
 21
-99.957729999999984
 31
0.0
  0
LINE
  5
108
  8
DETAIL
  6
CONTINUOUS
 62
     5
 10
89.074438999999998
 20
-99.872737000000015
 30
0.0
 11
88.936128999999994
 21
-99.922134999999997
 31
0.0
  0
LINE
  5
109
  8
DETAIL
  6
CONTINUOUS
 62
     5
 10
89.207464000000002
 20
-99.809916000000015
 30
0.0
 11
89.074438999999998
 21
-99.872737000000015
 31
0.0
  0
LINE
  5
10A
  8
DETAIL
  6
CONTINUOUS
 62
     5
 10
89.333746999999988
 20
-99.734307000000015
 30
0.0
 11
89.207464000000002
 21
-99.809916000000015
 31
0.0
  0
LINE
  5
10B
  8
DETAIL
  6
CONTINUOUS
 62
     5
 10
89.451947000000004
 20
-99.646714000000003
 30
0.0
 11
89.333746999999988
 21
-99.734307000000015
 31
0.0
  0
LINE
  5
10C
  8
DETAIL
  6
CONTINUOUS
 62
     5
 10
89.560976999999994
 20
-99.547955000000016
 30
0.0
 11
89.451947000000004
 21
-99.646714000000003
 31
0.0
  0
LINE
  5
10D
  8
DETAIL
  6
CONTINUOUS
 62
     5
 10
89.659794999999988
 20
-99.438974000000002
 30
0.0
 11
89.560976999999994
 21
-99.547955000000016
 31
0.0
  0
LINE
  5
10E
  8
DETAIL
  6
CONTINUOUS
 62
     5
 10
89.747449000000003
 20
-99.320823000000004
 30
0.0
 11
89.659794999999988
 21
-99.438974000000002
 31
0.0
  0
LINE
  5
10F
  8
DETAIL
  6
CONTINUOUS
 62
     5
 10
89.823099999999997
 20
-99.194624000000005
 30
0.0
 11
89.747449000000003
 21
-99.320823000000004
 31
0.0
  0
LINE
  5
110
  8
DETAIL
  6
CONTINUOUS
 62
     5
 10
89.885998000000015
 20
-99.061629000000011
 30
0.0
 11
89.823099999999997
 21
-99.194624000000005
 31
0.0
  0
LINE
  5
111
  8
DETAIL
  6
CONTINUOUS
 62
     5
 10
89.935531999999995
 20
-98.923151000000004
 30
0.0
 11
89.885998000000015
 21
-99.061629000000011
 31
0.0
  0
LINE
  5
112
  8
DETAIL
  6
CONTINUOUS
 62
     5
 10
89.971237000000016
 20
-98.780539000000005
 30
0.0
 11
89.935531999999995
 21
-98.923151000000004
 31
0.0
  0
LINE
  5
113
  8
DETAIL
  6
CONTINUOUS
 62
     5
 10
89.992781999999991
 20
-98.635190000000009
 30
0.0
 11
89.971237000000016
 21
-98.780539000000005
 31
0.0
  0
LINE
  5
114
  8
DETAIL
  6
CONTINUOUS
 62
     5
 10
89.999983999999998
 20
-98.488499000000004
 30
0.0
 11
89.992781999999991
 21
-98.635190000000009
 31
0.0
  0
LINE
  5
115
  8
DETAIL
  6
CONTINUOUS
 62
     5
 10
88.858593999999997
 20
-98.262033000000017
 30
0.0
 11
88.835238000000004
 21
-98.279709999999994
 31
0.0
  0
LINE
  5
116
  8
DETAIL
  6
CONTINUOUS
 62
     5
 10
88.879919999999998
 20
-98.242446000000001
 30
0.0
 11
88.858593999999997
 21
-98.262033000000017
 31
0.0
  0
LINE
  5
117
  8
DETAIL
  6
CONTINUOUS
 62
     5
 10
88.899302000000006
 20
-98.220844000000014
 30
0.0
 11
88.879919999999998
 21
-98.242446000000001
 31
0.0
  0
LINE
  5
118
  8
DETAIL
  6
CONTINUOUS
 62
     5
 10
88.916484999999994
 20
-98.197540000000004
 30
0.0
 11
88.899302000000006
 21
-98.220844000000014
 31
0.0
  0
LINE
  5
119
  8
DETAIL
  6
CONTINUOUS
 62
     5
 10
88.931273000000004
 20
-98.172730000000001
 30
0.0
 11
88.916484999999994
 21
-98.197540000000004
 31
0.0
  0
LINE
  5
11A
  8
DETAIL
  6
CONTINUOUS
 62
     5
 10
88.943566000000004
 20
-98.146665000000013
 30
0.0
 11
88.931273000000004
 21
-98.172730000000001
 31
0.0
  0
LINE
  5
11B
  8
DETAIL
  6
CONTINUOUS
 62
     5
 10
88.953217000000009
 20
-98.119575999999995
 30
0.0
 11
88.943566000000004
 21
-98.146665000000013
 31
0.0
  0
LINE
  5
11C
  8
DETAIL
  6
CONTINUOUS
 62
     5
 10
88.960177999999999
 20
-98.091715000000008
 30
0.0
 11
88.953217000000009
 21
-98.119575999999995
 31
0.0
  0
LINE
  5
11D
  8
DETAIL
  6
CONTINUOUS
 62
     5
 10
88.964340000000007
 20
-98.063451999999998
 30
0.0
 11
88.960177999999999
 21
-98.091715000000008
 31
0.0
  0
LINE
  5
11E
  8
DETAIL
  6
CONTINUOUS
 62
     5
 10
88.965740999999994
 20
-98.034662999999995
 30
0.0
 11
88.964340000000007
 21
-98.063451999999998
 31
0.0
  0
LINE
  5
11F
  8
DETAIL
  6
CONTINUOUS
 62
     5
 10
87.165852000000001
 20
-97.786059999999992
 30
0.0
 11
88.835238000000004
 21
-98.279709999999994
 31
0.0
  0
LINE
  5
120
  8
DETAIL
  6
CONTINUOUS
 62
     5
 10
85.470224999999999
 20
-97.321302000000003
 30
0.0
 11
87.165852000000001
 21
-97.786059999999992
 31
0.0
  0
LINE
  5
121
  8
DETAIL
  6
CONTINUOUS
 62
     5
 10
83.749756999999974
 20
-96.885238000000001
 30
0.0
 11
85.470224999999999
 21
-97.321302000000003
 31
0.0
  0
ARC
  5
122
  8
DETAIL
  6
DASHED
 62
     5
 10
-12.65004199999999
 20
16.658094999999989
 30
0.0
 40
21.846976000000002
 50
244.172088
 51
268.41343000000001
  0
ARC
  5
123
  8
DETAIL
  6
DASHED
 62
     5
 10
-29.779864
 20
-0.9935379999999998
 30
0.0
 40
34.44509
 50
279.81775399999992
 51
300.0
  0
ARC
  5
124
  8
DETAIL
  6
DASHED
 62
     5
 10
4.5631559999999993
 20
23.782771
 30
0.0
 40
24.51661099999999
 50
201.95908799999989
 51
227.808088
  0
LINE
  5
125
  8
DETAIL
  6
CONTINUOUS
 62
     5
 10
-74.895769000000001
 20
-95.200124000000002
 30
0.0
 11
74.895768000000004
 21
-95.200124000000002
 31
0.0
  0
LINE
  5
126
  8
DETAIL
  6
CONTINUOUS
 62
     5
 10
-74.943256999999988
 20
-67.793581000000003
 30
0.0
 11
74.898158999999993
 21
-67.793446000000003
 31
0.0
  0
LINE
  5
127
  8
DETAIL
  6
CONTINUOUS
 62
     5
 10
74.533170999999996
 20
-69.753827000000001
 30
0.0
 11
-74.533199999999994
 21
-69.753827000000001
 31
0.0
  0
LINE
  5
128
  8
DETAIL
  6
CONTINUOUS
 62
     5
 10
-74.898158999999993
 20
-75.896800999999996
 30
0.0
 11
74.898158999999993
 21
-75.896800999999996
 31
0.0
  0
LINE
  5
129
  8
DETAIL
  6
CONTINUOUS
 62
     5
 10
-19.473041999999989
 20
-67.811543999999998
 30
0.0
 11
19.473041999999989
 21
-67.811543999999998
 31
0.0
  0
LINE
  5
12A
  8
DETAIL
  6
CONTINUOUS
 62
     5
 10
19.972842
 20
-67.907663999999997
 30
0.0
 11
-19.972842
 21
-67.907663999999997
 31
0.0
  0
ARC
  5
12B
  8
DETAIL
  6
DASHED
 62
     5
 10
-0.043885
 20
-0.018481
 30
0.0
 40
42.291004000000001
 50
165.95070999999999
 51
235.64997
  0
LINE
  5
12C
  8
DETAIL
  6
CONTINUOUS
 62
     5
 10
-80.237904999999998
 20
-96.099305000000001
 30
0.0
 11
-78.465598
 21
-95.752707000000001
 31
0.0
  0
ARC
  5
12D
  8
DETAIL
  6
CONTINUOUS
 62
     5
 10
-53.266066000000002
 20
1.010178
 30
0.0
 40
79.891369999999995
 50
242.6258959999999
 51
254.28997799999991
  0
LINE
  5
12E
  8
DETAIL
  6
CONTINUOUS
 62
     5
 10
-79.930087
 20
-67.872624999999999
 30
0.0
 11
-78.136003000000002
 21
-68.544460000000001
 31
0.0
  0
LINE
  5
12F
  8
DETAIL
  6
CONTINUOUS
 62
     5
 10
-79.600890000000007
 20
-66.170287999999985
 30
0.0
 11
-77.276544999999984
 21
-67.019574000000006
 31
0.0
  0
LINE
  5
130
  8
DETAIL
  6
CONTINUOUS
 62
     5
 10
-89.999995999999996
 20
-63.187620999999993
 30
0.0
 11
-87.011506000000011
 21
-64.732624000000001
 31
0.0
  0
LINE
  5
131
  8
DETAIL
  6
CONTINUOUS
 62
     5
 10
-86.489163000000005
 20
-63.168716000000003
 30
0.0
 11
-84.211039
 21
-64.245786999999993
 31
0.0
  0
LINE
  5
132
  8
DETAIL
  6
CONTINUOUS
 62
     5
 10
-81.997585999999998
 20
-96.476095999999998
 30
0.0
 11
-80.237904999999998
 21
-96.099305000000001
 31
0.0
  0
LINE
  5
133
  8
DETAIL
  6
CONTINUOUS
 62
     5
 10
-81.716709999999992
 20
-67.155726000000001
 30
0.0
 11
-79.930087
 21
-67.872624999999999
 31
0.0
  0
LINE
  5
134
  8
DETAIL
  6
CONTINUOUS
 62
     5
 10
-83.493923999999993
 20
-66.39349
 30
0.0
 11
-81.716709999999992
 21
-67.155726000000001
 31
0.0
  0
LINE
  5
135
  8
DETAIL
  6
CONTINUOUS
 62
     5
 10
-85.259815999999987
 20
-65.585848999999996
 30
0.0
 11
-83.493923999999993
 21
-66.39349
 31
0.0
  0
LINE
  5
136
  8
DETAIL
  6
CONTINUOUS
 62
     5
 10
-87.011506000000011
 20
-64.732624000000001
 30
0.0
 11
-85.259815999999987
 21
-65.585848999999996
 31
0.0
  0
LINE
  5
137
  8
DETAIL
  6
CONTINUOUS
 62
     5
 10
-89.656047000000001
 20
-70.11225300000001
 30
0.0
 11
-89.670850999999999
 21
-70.104676999999995
 31
0.0
  0
LINE
  5
138
  8
DETAIL
  6
CONTINUOUS
 62
     5
 10
-81.913657000000001
 20
-65.246001000000007
 30
0.0
 11
-79.600890000000007
 21
-66.170287999999985
 31
0.0
  0
LINE
  5
139
  8
DETAIL
  6
CONTINUOUS
 62
     5
 10
-84.211039
 20
-64.245786999999993
 30
0.0
 11
-81.913657000000001
 21
-65.246001000000007
 31
0.0
  0
LINE
  5
13A
  8
DETAIL
  6
CONTINUOUS
 62
     5
 10
-89.163323999999989
 20
-61.791113000000003
 30
0.0
 11
-89.999995999999996
 21
-61.337062000000003
 31
0.0
  0
LINE
  5
13B
  8
DETAIL
  6
CONTINUOUS
 62
     5
 10
-88.745110999999994
 20
-62.015065
 30
0.0
 11
-89.999995999999996
 21
-61.343077000000001
 31
0.0
  0
LINE
  5
13C
  8
DETAIL
  6
CONTINUOUS
 62
     5
 10
-88.745109999999997
 20
-62.015065
 30
0.0
 11
-86.489163000000005
 21
-63.168716000000003
 31
0.0
  0
ARC
  5
13D
  8
DETAIL
  6
CONTINUOUS
 62
     5
 10
-79.537068999999988
 20
-35.896892000000001
 30
0.0
 40
10.615418999999999
 50
183.93255999999991
 51
189.723299
  0
ARC
  5
13E
  8
DETAIL
  6
CONTINUOUS
 62
     5
 10
-79.537068999999988
 20
-35.896892000000001
 30
0.0
 40
10.615418999999999
 50
170.276701
 51
176.06744
  0
LINE
  5
13F
  8
DETAIL
  6
CONTINUOUS
 62
     5
 10
-90.909980000000004
 20
-36.24438099999999
 30
0.0
 11
-90.368393000000026
 21
-36.351438000000002
 31
0.0
  0
LINE
  5
140
  8
DETAIL
  6
CONTINUOUS
 62
     5
 10
-90.368393000000026
 20
-35.442346999999998
 30
0.0
 11
-90.909980000000004
 21
-35.549403999999988
 31
0.0
  0
ARC
  5
141
  8
DETAIL
  6
CONTINUOUS
 62
     5
 10
-90.851855999999998
 20
-35.950340999999987
 30
0.0
 40
0.299729
 50
180.0
 51
258.81831599999998
  0
ARC
  5
142
  8
DETAIL
  6
CONTINUOUS
 62
     5
 10
-90.851855999999998
 20
-35.843443000000001
 30
0.0
 40
0.299729
 50
101.1816839999999
 51
180.0
  0
LINE
  5
143
  8
DETAIL
  6
CONTINUOUS
 62
     5
 10
-91.151585999999995
 20
-35.843443000000001
 30
0.0
 11
-91.151585999999995
 21
-35.950340999999987
 31
0.0
  0
ARC
  5
144
  8
DETAIL
  6
CONTINUOUS
 62
     5
 10
-90.426517000000004
 20
-36.645477999999997
 30
0.0
 40
0.299729
 50
3.9325599999999992
 51
78.81831600000001
  0
ARC
  5
145
  8
DETAIL
  6
CONTINUOUS
 62
     5
 10
-90.426517000000004
 20
-35.148307000000003
 30
0.0
 40
0.299729
 50
281.1816839999999
 51
356.06743999999992
  0
LINE
  5
146
  8
DETAIL
  6
DASHED
 62
     5
 10
-38.49765399999999
 20
-85.904043000000016
 30
0.0
 11
-38.626218000000001
 21
-84.677432999999994
 31
0.0
  0
LINE
  5
147
  8
DETAIL
  6
DASHED
 62
     5
 10
-38.626218000000001
 20
-84.677432999999994
 30
0.0
 11
-39.006968000000001
 21
-83.497962000000001
 31
0.0
  0
LINE
  5
148
  8
DETAIL
  6
DASHED
 62
     5
 10
-39.006968000000001
 20
-83.497962000000001
 30
0.0
 11
-39.62527399999999
 21
-82.410955000000001
 31
0.0
  0
LINE
  5
149
  8
DETAIL
  6
DASHED
 62
     5
 10
-39.62527399999999
 20
-82.410955000000001
 30
0.0
 11
-40.457374000000002
 21
-81.458185999999998
 31
0.0
  0
LINE
  5
14A
  8
DETAIL
  6
DASHED
 62
     5
 10
-40.457374000000002
 20
-81.458185999999998
 30
0.0
 11
-41.471290000000003
 21
-80.676268000000007
 31
0.0
  0
LINE
  5
14B
  8
DETAIL
  6
DASHED
 62
     5
 10
-41.471290000000003
 20
-80.676268000000007
 30
0.0
 11
-42.628059
 21
-80.095249999999993
 31
0.0
  0
LINE
  5
14C
  8
DETAIL
  6
DASHED
 62
     5
 10
-42.628059
 20
-80.095249999999993
 30
0.0
 11
-43.883226000000001
 21
-79.737461999999994
 31
0.0
  0
LINE
  5
14D
  8
DETAIL
  6
DASHED
 62
     5
 10
-43.883226000000001
 20
-79.737461999999994
 30
0.0
 11
-45.188555999999998
 21
-79.616651000000005
 31
0.0
  0
LINE
  5
14E
  8
DETAIL
  6
DASHED
 62
     5
 10
-45.188555999999998
 20
-79.616651000000005
 30
0.0
 11
-46.493885999999989
 21
-79.737461999999994
 31
0.0
  0
LINE
  5
14F
  8
DETAIL
  6
DASHED
 62
     5
 10
-46.493885999999989
 20
-79.737461999999994
 30
0.0
 11
-47.749054000000001
 21
-80.095249999999993
 31
0.0
  0
LINE
  5
150
  8
DETAIL
  6
DASHED
 62
     5
 10
-47.749054000000001
 20
-80.095249999999993
 30
0.0
 11
-48.905822000000001
 21
-80.676268000000007
 31
0.0
  0
LINE
  5
151
  8
DETAIL
  6
DASHED
 62
     5
 10
-48.905822000000001
 20
-80.676268000000007
 30
0.0
 11
-49.919738000000002
 21
-81.458185999999998
 31
0.0
  0
LINE
  5
152
  8
DETAIL
  6
DASHED
 62
     5
 10
-49.919738000000002
 20
-81.458185999999998
 30
0.0
 11
-50.751837999999999
 21
-82.410955000000001
 31
0.0
  0
LINE
  5
153
  8
DETAIL
  6
DASHED
 62
     5
 10
-50.751837999999999
 20
-82.410955000000001
 30
0.0
 11
-51.370144000000003
 21
-83.497962000000001
 31
0.0
  0
LINE
  5
154
  8
DETAIL
  6
DASHED
 62
     5
 10
-51.370144000000003
 20
-83.497962000000001
 30
0.0
 11
-51.750895
 21
-84.677432999999994
 31
0.0
  0
LINE
  5
155
  8
DETAIL
  6
DASHED
 62
     5
 10
-51.750895
 20
-84.677432999999994
 30
0.0
 11
-51.879458
 21
-85.904043000000016
 31
0.0
  0
LINE
  5
156
  8
DETAIL
  6
DASHED
 62
     5
 10
-51.879458
 20
-85.904043000000016
 30
0.0
 11
-51.750895
 21
-87.130651999999998
 31
0.0
  0
LINE
  5
157
  8
DETAIL
  6
DASHED
 62
     5
 10
-51.750895
 20
-87.130651999999998
 30
0.0
 11
-51.370144000000003
 21
-88.310123000000004
 31
0.0
  0
LINE
  5
158
  8
DETAIL
  6
DASHED
 62
     5
 10
-51.370144000000003
 20
-88.310123000000004
 30
0.0
 11
-50.751837999999999
 21
-89.397130000000004
 31
0.0
  0
LINE
  5
159
  8
DETAIL
  6
DASHED
 62
     5
 10
-50.751837999999999
 20
-89.397130000000004
 30
0.0
 11
-49.919738000000002
 21
-90.349900000000005
 31
0.0
  0
LINE
  5
15A
  8
DETAIL
  6
DASHED
 62
     5
 10
-49.919738000000002
 20
-90.349900000000005
 30
0.0
 11
-48.905822000000001
 21
-91.13181800000001
 31
0.0
  0
LINE
  5
15B
  8
DETAIL
  6
DASHED
 62
     5
 10
-48.905822000000001
 20
-91.13181800000001
 30
0.0
 11
-47.749054000000001
 21
-91.712834999999984
 31
0.0
  0
LINE
  5
15C
  8
DETAIL
  6
DASHED
 62
     5
 10
-47.749054000000001
 20
-91.712834999999984
 30
0.0
 11
-46.493885999999989
 21
-92.070623999999995
 31
0.0
  0
LINE
  5
15D
  8
DETAIL
  6
DASHED
 62
     5
 10
-46.493885999999989
 20
-92.070623999999995
 30
0.0
 11
-45.188555999999998
 21
-92.191434000000001
 31
0.0
  0
LINE
  5
15E
  8
DETAIL
  6
DASHED
 62
     5
 10
-45.188555999999998
 20
-92.191434000000001
 30
0.0
 11
-43.883226000000001
 21
-92.070623999999995
 31
0.0
  0
LINE
  5
15F
  8
DETAIL
  6
DASHED
 62
     5
 10
-43.883226000000001
 20
-92.070623999999995
 30
0.0
 11
-42.628059
 21
-91.712834999999984
 31
0.0
  0
LINE
  5
160
  8
DETAIL
  6
DASHED
 62
     5
 10
-42.628059
 20
-91.712834999999984
 30
0.0
 11
-41.471290000000003
 21
-91.13181800000001
 31
0.0
  0
LINE
  5
161
  8
DETAIL
  6
DASHED
 62
     5
 10
-41.471290000000003
 20
-91.13181800000001
 30
0.0
 11
-40.457374000000002
 21
-90.349900000000005
 31
0.0
  0
LINE
  5
162
  8
DETAIL
  6
DASHED
 62
     5
 10
-40.457374000000002
 20
-90.349900000000005
 30
0.0
 11
-39.62527399999999
 21
-89.397130000000004
 31
0.0
  0
LINE
  5
163
  8
DETAIL
  6
DASHED
 62
     5
 10
-39.62527399999999
 20
-89.397130000000004
 30
0.0
 11
-39.006968000000001
 21
-88.310123000000004
 31
0.0
  0
LINE
  5
164
  8
DETAIL
  6
DASHED
 62
     5
 10
-39.006968000000001
 20
-88.310123000000004
 30
0.0
 11
-38.626218000000001
 21
-87.130651999999998
 31
0.0
  0
LINE
  5
165
  8
DETAIL
  6
DASHED
 62
     5
 10
-38.626218000000001
 20
-87.130651999999998
 30
0.0
 11
-38.49765399999999
 21
-85.904043000000016
 31
0.0
  0
LINE
  5
166
  8
DETAIL
  6
CONTINUOUS
 62
     5
 10
-72.900396000000001
 20
-67.811543999999998
 30
0.0
 11
-45.438695999999993
 21
-67.811543999999998
 31
0.0
  0
LINE
  5
167
  8
DETAIL
  6
CONTINUOUS
 62
     5
 10
-73.400195999999994
 20
-67.907663999999997
 30
0.0
 11
-44.661834999999989
 21
-67.907663999999997
 31
0.0
  0
LINE
  5
168
  8
DETAIL
  6
CONTINUOUS
 62
     5
 10
-62.165471999999987
 20
-76.895443999999983
 30
0.0
 11
-28.211639999999999
 21
-76.895443999999983
 31
0.0
  0
LINE
  5
169
  8
DETAIL
  6
CONTINUOUS
 62
     5
 10
-28.211639999999999
 20
-92.283396999999994
 30
0.0
 11
-62.165471999999987
 21
-92.283396999999994
 31
0.0
  0
LINE
  5
16A
  8
DETAIL
  6
CONTINUOUS
 62
     5
 10
-70.903591000000006
 20
-78.996814000000001
 30
0.0
 11
-70.903591000000006
 21
-84.977259000000004
 31
0.0
  0
LINE
  5
16B
  8
DETAIL
  6
CONTINUOUS
 62
     5
 10
-73.899517000000003
 20
-78.996814000000001
 30
0.0
 11
-73.899517000000003
 21
-84.977259000000004
 31
0.0
  0
LINE
  5
16C
  8
DETAIL
  6
CONTINUOUS
 62
     5
 10
-74.898156999999998
 20
-75.896800999999996
 30
0.0
 11
-74.898156999999998
 21
-95.150912999999989
 31
0.0
  0
LINE
  5
16D
  8
DETAIL
  6
CONTINUOUS
 62
     5
 10
-62.165471999999987
 20
-76.895443999999983
 30
0.0
 11
-62.165471999999987
 21
-92.283396999999994
 31
0.0
  0
LINE
  5
16E
  8
DETAIL
  6
CONTINUOUS
 62
     5
 10
-61.174703000000001
 20
-80.056567000000015
 30
0.0
 11
-61.088126000000003
 21
-80.457308999999995
 31
0.0
  0
LINE
  5
16F
  8
DETAIL
  6
CONTINUOUS
 62
     5
 10
-73.899517000000003
 20
-84.977259000000004
 30
0.0
 11
-70.903591000000006
 21
-84.977259000000004
 31
0.0
  0
LINE
  5
170
  8
DETAIL
  6
CONTINUOUS
 62
     5
 10
-76.685217000000009
 20
-95.436503999999999
 30
0.0
 11
-74.898156999999998
 21
-95.150637000000003
 31
0.0
  0
LINE
  5
171
  8
DETAIL
  6
CONTINUOUS
 62
     5
 10
-78.465598
 20
-95.752707000000001
 30
0.0
 11
-76.685217000000009
 21
-95.436503999999999
 31
0.0
  0
LINE
  5
172
  8
DETAIL
  6
CONTINUOUS
 62
     5
 10
-74.898054999999999
 20
-95.159227999999999
 30
0.0
 11
-74.898156999999998
 21
-95.150912999999989
 31
0.0
  0
LINE
  5
173
  8
DETAIL
  6
CONTINUOUS
 62
     5
 10
-74.897838000000007
 20
-95.167496
 30
0.0
 11
-74.898054999999999
 21
-95.159227999999999
 31
0.0
  0
LINE
  5
174
  8
DETAIL
  6
CONTINUOUS
 62
     5
 10
-74.897508999999999
 20
-95.175717000000006
 30
0.0
 11
-74.897838000000007
 21
-95.167496
 31
0.0
  0
LINE
  5
175
  8
DETAIL
  6
CONTINUOUS
 62
     5
 10
-74.897058999999999
 20
-95.183893999999995
 30
0.0
 11
-74.897508999999999
 21
-95.175717000000006
 31
0.0
  0
LINE
  5
176
  8
DETAIL
  6
CONTINUOUS
 62
     5
 10
-74.896478000000002
 20
-95.192030000000003
 30
0.0
 11
-74.897058999999999
 21
-95.183893999999995
 31
0.0
  0
LINE
  5
177
  8
DETAIL
  6
CONTINUOUS
 62
     5
 10
-74.895769000000001
 20
-95.200124000000002
 30
0.0
 11
-74.896478000000002
 21
-95.192030000000003
 31
0.0
  0
LINE
  5
178
  8
DETAIL
  6
CONTINUOUS
 62
     5
 10
-61.881174000000001
 20
-91.541640999999998
 30
0.0
 11
-62.165471999999987
 21
-92.283396999999994
 31
0.0
  0
LINE
  5
179
  8
DETAIL
  6
CONTINUOUS
 62
     5
 10
-61.626255
 20
-90.786519999999996
 30
0.0
 11
-61.881174000000001
 21
-91.541640999999998
 31
0.0
  0
LINE
  5
17A
  8
DETAIL
  6
CONTINUOUS
 62
     5
 10
-61.400443999999993
 20
-90.022563000000005
 30
0.0
 11
-61.626255
 21
-90.786519999999996
 31
0.0
  0
LINE
  5
17B
  8
DETAIL
  6
CONTINUOUS
 62
     5
 10
-61.204556999999987
 20
-89.251933999999991
 30
0.0
 11
-61.400443999999993
 21
-90.022563000000005
 31
0.0
  0
LINE
  5
17C
  8
DETAIL
  6
CONTINUOUS
 62
     5
 10
-61.039396000000004
 20
-88.476639000000006
 30
0.0
 11
-61.204556999999987
 21
-89.251933999999991
 31
0.0
  0
LINE
  5
17D
  8
DETAIL
  6
CONTINUOUS
 62
     5
 10
-60.904731999999989
 20
-87.699628000000004
 30
0.0
 11
-61.039396000000004
 21
-88.476639000000006
 31
0.0
  0
LINE
  5
17E
  8
DETAIL
  6
CONTINUOUS
 62
     5
 10
-60.80081899999999
 20
-86.916988000000003
 30
0.0
 11
-60.904731999999989
 21
-87.699628000000004
 31
0.0
  0
LINE
  5
17F
  8
DETAIL
  6
CONTINUOUS
 62
     5
 10
-60.727003000000011
 20
-86.149868999999995
 30
0.0
 11
-60.80081899999999
 21
-86.916988000000003
 31
0.0
  0
LINE
  5
180
  8
DETAIL
  6
CONTINUOUS
 62
     5
 10
-60.68442499999999
 20
-85.418768999999998
 30
0.0
 11
-60.727003000000011
 21
-86.149868999999995
 31
0.0
  0
LINE
  5
181
  8
DETAIL
  6
CONTINUOUS
 62
     5
 10
-60.667948000000003
 20
-84.723081000000008
 30
0.0
 11
-60.68442499999999
 21
-85.418768999999998
 31
0.0
  0
LINE
  5
182
  8
DETAIL
  6
CONTINUOUS
 62
     5
 10
-60.673956999999987
 20
-84.069237000000001
 30
0.0
 11
-60.667948000000003
 21
-84.723081000000008
 31
0.0
  0
LINE
  5
183
  8
DETAIL
  6
CONTINUOUS
 62
     5
 10
-60.699021999999999
 20
-83.453575999999984
 30
0.0
 11
-60.673956999999987
 21
-84.069237000000001
 31
0.0
  0
LINE
  5
184
  8
DETAIL
  6
CONTINUOUS
 62
     5
 10
-60.739238999999998
 20
-82.874212999999997
 30
0.0
 11
-60.699021999999999
 21
-83.453575999999984
 31
0.0
  0
LINE
  5
185
  8
DETAIL
  6
CONTINUOUS
 62
     5
 10
-60.792422999999999
 20
-82.329528999999994
 30
0.0
 11
-60.739238999999998
 21
-82.874212999999997
 31
0.0
  0
LINE
  5
186
  8
DETAIL
  6
CONTINUOUS
 62
     5
 10
-60.855606999999992
 20
-81.817292000000009
 30
0.0
 11
-60.792422999999999
 21
-82.329528999999994
 31
0.0
  0
LINE
  5
187
  8
DETAIL
  6
CONTINUOUS
 62
     5
 10
-60.927227999999999
 20
-81.335854999999995
 30
0.0
 11
-60.855606999999992
 21
-81.817292000000009
 31
0.0
  0
LINE
  5
188
  8
DETAIL
  6
CONTINUOUS
 62
     5
 10
-61.005107000000002
 20
-80.883069999999975
 30
0.0
 11
-60.927227999999999
 21
-81.335854999999995
 31
0.0
  0
LINE
  5
189
  8
DETAIL
  6
CONTINUOUS
 62
     5
 10
-61.088126000000003
 20
-80.457308999999995
 30
0.0
 11
-61.005107000000002
 21
-80.883069999999975
 31
0.0
  0
LINE
  5
18A
  8
DETAIL
  6
CONTINUOUS
 62
     5
 10
-73.899517000000003
 20
-78.996814000000001
 30
0.0
 11
-70.903591000000006
 21
-78.996814000000001
 31
0.0
  0
LINE
  5
18B
  8
DETAIL
  6
CONTINUOUS
 62
     5
 10
-74.898158999999993
 20
-67.8078
 30
0.0
 11
-72.908625000000001
 21
-67.8078
 31
0.0
  0
LINE
  5
18C
  8
DETAIL
  6
CONTINUOUS
 62
     5
 10
-74.895954000000003
 20
-69.885796999999997
 30
0.0
 11
-74.898156
 21
-69.906331999999992
 31
0.0
  0
LINE
  5
18D
  8
DETAIL
  6
CONTINUOUS
 62
     5
 10
-74.889561999999998
 20
-69.866598999999994
 30
0.0
 11
-74.895954000000003
 21
-69.885796999999997
 31
0.0
  0
LINE
  5
18E
  8
DETAIL
  6
CONTINUOUS
 62
     5
 10
-74.878740000000008
 20
-69.848606000000004
 30
0.0
 11
-74.889561999999998
 21
-69.866598999999994
 31
0.0
  0
LINE
  5
18F
  8
DETAIL
  6
CONTINUOUS
 62
     5
 10
-74.864206999999993
 20
-69.832214000000008
 30
0.0
 11
-74.878740000000008
 21
-69.848606000000004
 31
0.0
  0
LINE
  5
190
  8
DETAIL
  6
CONTINUOUS
 62
     5
 10
-74.846416000000005
 20
-69.817853999999997
 30
0.0
 11
-74.864206999999993
 21
-69.832214000000008
 31
0.0
  0
LINE
  5
191
  8
DETAIL
  6
CONTINUOUS
 62
     5
 10
-74.825927000000007
 20
-69.805295999999998
 30
0.0
 11
-74.846416000000005
 21
-69.817853999999997
 31
0.0
  0
LINE
  5
192
  8
DETAIL
  6
CONTINUOUS
 62
     5
 10
-74.803370000000001
 20
-69.794518999999994
 30
0.0
 11
-74.825927000000007
 21
-69.805295999999998
 31
0.0
  0
LINE
  5
193
  8
DETAIL
  6
CONTINUOUS
 62
     5
 10
-74.778984999999992
 20
-69.785329000000004
 30
0.0
 11
-74.803370000000001
 21
-69.794518999999994
 31
0.0
  0
LINE
  5
194
  8
DETAIL
  6
CONTINUOUS
 62
     5
 10
-74.753282999999996
 20
-69.777571999999992
 30
0.0
 11
-74.778984999999992
 21
-69.785329000000004
 31
0.0
  0
LINE
  5
195
  8
DETAIL
  6
CONTINUOUS
 62
     5
 10
-74.726093000000006
 20
-69.771096999999983
 30
0.0
 11
-74.753282999999996
 21
-69.777571999999992
 31
0.0
  0
LINE
  5
196
  8
DETAIL
  6
CONTINUOUS
 62
     5
 10
-74.697411000000002
 20
-69.765703999999985
 30
0.0
 11
-74.726093000000006
 21
-69.771096999999983
 31
0.0
  0
LINE
  5
197
  8
DETAIL
  6
CONTINUOUS
 62
     5
 10
-74.667257999999975
 20
-69.761377999999993
 30
0.0
 11
-74.697411000000002
 21
-69.765703999999985
 31
0.0
  0
LINE
  5
198
  8
DETAIL
  6
CONTINUOUS
 62
     5
 10
-74.635626999999999
 20
-69.758043000000001
 30
0.0
 11
-74.667257999999975
 21
-69.761377999999993
 31
0.0
  0
LINE
  5
199
  8
DETAIL
  6
CONTINUOUS
 62
     5
 10
-74.602603999999999
 20
-69.755690000000001
 30
0.0
 11
-74.635626999999999
 21
-69.758043000000001
 31
0.0
  0
LINE
  5
19A
  8
DETAIL
  6
CONTINUOUS
 62
     5
 10
-74.568281999999996
 20
-69.754281000000006
 30
0.0
 11
-74.602603999999999
 21
-69.755690000000001
 31
0.0
  0
LINE
  5
19B
  8
DETAIL
  6
CONTINUOUS
 62
     5
 10
-74.532630999999995
 20
-69.753827000000001
 30
0.0
 11
-74.568281999999996
 21
-69.754281000000006
 31
0.0
  0
LINE
  5
19C
  8
DETAIL
  6
CONTINUOUS
 62
     5
 10
-72.908625000000001
 20
-67.8078
 30
0.0
 11
-72.900396000000001
 21
-67.811543999999998
 31
0.0
  0
LINE
  5
19D
  8
DETAIL
  6
CONTINUOUS
 62
     5
 10
-74.898158999999993
 20
-67.8078
 30
0.0
 11
-74.902276000000001
 21
-67.806502000000009
 31
0.0
  0
LINE
  5
19E
  8
DETAIL
  6
CONTINUOUS
 62
     5
 10
-73.402276000000001
 20
-67.8078
 30
0.0
 11
-73.400195999999994
 21
-67.907663999999997
 31
0.0
  0
LINE
  5
19F
  8
DETAIL
  6
CONTINUOUS
 62
     5
 10
-72.899005000000002
 20
-67.824566000000004
 30
0.0
 11
-72.900396000000001
 21
-67.811543999999998
 31
0.0
  0
LINE
  5
1A0
  8
DETAIL
  6
CONTINUOUS
 62
     5
 10
-72.897690999999995
 20
-67.846323999999996
 30
0.0
 11
-72.899005000000002
 21
-67.824566000000004
 31
0.0
  0
LINE
  5
1A1
  8
DETAIL
  6
CONTINUOUS
 62
     5
 10
-72.896443000000005
 20
-67.877166000000003
 30
0.0
 11
-72.897690999999995
 21
-67.846323999999996
 31
0.0
  0
LINE
  5
1A2
  8
DETAIL
  6
CONTINUOUS
 62
     5
 10
-72.895595
 20
-67.905872000000002
 30
0.0
 11
-72.896443000000005
 21
-67.877166000000003
 31
0.0
  0
LINE
  5
1A3
  8
DETAIL
  6
CONTINUOUS
 62
     5
 10
-76.337362999999996
 20
-69.171565000000001
 30
0.0
 11
-74.533199999999994
 21
-69.753827000000001
 31
0.0
  0
LINE
  5
1A4
  8
DETAIL
  6
CONTINUOUS
 62
     5
 10
-78.136003000000002
 20
-68.544460000000001
 30
0.0
 11
-76.337362999999996
 21
-69.171565000000001
 31
0.0
  0
LINE
  5
1A5
  8
DETAIL
  6
CONTINUOUS
 62
     5
 10
-77.276544999999984
 20
-67.019574000000006
 30
0.0
 11
-74.943256999999988
 21
-67.793581000000003
 31
0.0
  0
LINE
  5
1A6
  8
DETAIL
  6
CONTINUOUS
 62
     5
 10
-74.898156
 20
-69.906331999999992
 30
0.0
 11
-74.898156999999998
 21
-75.896800999999996
 31
0.0
  0
LINE
  5
1A7
  8
DETAIL
  6
CONTINUOUS
 62
     5
 10
-61.264051000000002
 20
-79.679365000000004
 30
0.0
 11
-61.174703000000001
 21
-80.056567000000015
 31
0.0
  0
LINE
  5
1A8
  8
DETAIL
  6
CONTINUOUS
 62
     5
 10
-61.355031000000011
 20
-79.323920999999999
 30
0.0
 11
-61.264051000000002
 21
-79.679365000000004
 31
0.0
  0
LINE
  5
1A9
  8
DETAIL
  6
CONTINUOUS
 62
     5
 10
-61.447120999999989
 20
-78.988934
 30
0.0
 11
-61.355031000000011
 21
-79.323920999999999
 31
0.0
  0
LINE
  5
1AA
  8
DETAIL
  6
CONTINUOUS
 62
     5
 10
-61.539533999999989
 20
-78.67286
 30
0.0
 11
-61.447120999999989
 21
-78.988934
 31
0.0
  0
LINE
  5
1AB
  8
DETAIL
  6
CONTINUOUS
 62
     5
 10
-61.631919000000003
 20
-78.374565000000004
 30
0.0
 11
-61.539533999999989
 21
-78.67286
 31
0.0
  0
LINE
  5
1AC
  8
DETAIL
  6
CONTINUOUS
 62
     5
 10
-61.72373799999999
 20
-78.092729000000006
 30
0.0
 11
-61.631919000000003
 21
-78.374565000000004
 31
0.0
  0
LINE
  5
1AD
  8
DETAIL
  6
CONTINUOUS
 62
     5
 10
-61.814754000000001
 20
-77.826368000000002
 30
0.0
 11
-61.72373799999999
 21
-78.092729000000006
 31
0.0
  0
LINE
  5
1AE
  8
DETAIL
  6
CONTINUOUS
 62
     5
 10
-61.904592000000001
 20
-77.574370999999999
 30
0.0
 11
-61.814754000000001
 21
-77.826368000000002
 31
0.0
  0
LINE
  5
1AF
  8
DETAIL
  6
CONTINUOUS
 62
     5
 10
-61.99311999999999
 20
-77.335841000000002
 30
0.0
 11
-61.904592000000001
 21
-77.574370999999999
 31
0.0
  0
LINE
  5
1B0
  8
DETAIL
  6
CONTINUOUS
 62
     5
 10
-62.080047999999998
 20
-77.109453999999985
 30
0.0
 11
-61.99311999999999
 21
-77.335841000000002
 31
0.0
  0
LINE
  5
1B1
  8
DETAIL
  6
CONTINUOUS
 62
     5
 10
-62.165471999999987
 20
-76.895443999999983
 30
0.0
 11
-62.080047999999998
 21
-77.109453999999985
 31
0.0
  0
LINE
  5
1B2
  8
DETAIL
  6
CONTINUOUS
 62
     5
 10
-28.211639999999999
 20
-92.283396999999994
 30
0.0
 11
-28.211639999999999
 21
-76.895443999999983
 31
0.0
  0
LINE
  5
1B3
  8
DETAIL
  6
CONTINUOUS
 62
     5
 10
-29.346781
 20
-80.748724999999993
 30
0.0
 11
-29.184397999999991
 21
-79.978099
 31
0.0
  0
LINE
  5
1B4
  8
DETAIL
  6
CONTINUOUS
 62
     5
 10
-29.478365
 20
-81.518399000000002
 30
0.0
 11
-29.346781
 21
-80.748724999999993
 31
0.0
  0
LINE
  5
1B5
  8
DETAIL
  6
CONTINUOUS
 62
     5
 10
-29.579999000000001
 20
-82.287083999999993
 30
0.0
 11
-29.478365
 21
-81.518399000000002
 31
0.0
  0
LINE
  5
1B6
  8
DETAIL
  6
CONTINUOUS
 62
     5
 10
-29.652076000000001
 20
-83.054860000000005
 30
0.0
 11
-29.579999000000001
 21
-82.287083999999993
 31
0.0
  0
LINE
  5
1B7
  8
DETAIL
  6
CONTINUOUS
 62
     5
 10
-29.695270000000001
 20
-83.821864000000005
 30
0.0
 11
-29.652076000000001
 21
-83.054860000000005
 31
0.0
  0
LINE
  5
1B8
  8
DETAIL
  6
CONTINUOUS
 62
     5
 10
-29.709599000000001
 20
-84.588267999999999
 30
0.0
 11
-29.695270000000001
 21
-83.821864000000005
 31
0.0
  0
LINE
  5
1B9
  8
DETAIL
  6
CONTINUOUS
 62
     5
 10
-29.694653999999989
 20
-85.359092000000004
 30
0.0
 11
-29.709599000000001
 21
-84.588267999999999
 31
0.0
  0
LINE
  5
1BA
  8
DETAIL
  6
CONTINUOUS
 62
     5
 10
-29.652386
 20
-86.119742999999985
 30
0.0
 11
-29.694653999999989
 21
-85.359092000000004
 31
0.0
  0
LINE
  5
1BB
  8
DETAIL
  6
CONTINUOUS
 62
     5
 10
-29.582276
 20
-86.864514000000014
 30
0.0
 11
-29.652386
 21
-86.119742999999985
 31
0.0
  0
LINE
  5
1BC
  8
DETAIL
  6
CONTINUOUS
 62
     5
 10
-29.491316999999999
 20
-87.573580000000007
 30
0.0
 11
-29.582276
 21
-86.864514000000014
 31
0.0
  0
LINE
  5
1BD
  8
DETAIL
  6
CONTINUOUS
 62
     5
 10
-29.385228999999999
 20
-88.223786000000004
 30
0.0
 11
-29.491316999999999
 21
-87.573580000000007
 31
0.0
  0
LINE
  5
1BE
  8
DETAIL
  6
CONTINUOUS
 62
     5
 10
-29.267303999999999
 20
-88.825676999999999
 30
0.0
 11
-29.385228999999999
 21
-88.223786000000004
 31
0.0
  0
LINE
  5
1BF
  8
DETAIL
  6
CONTINUOUS
 62
     5
 10
-29.142192999999999
 20
-89.381055000000003
 30
0.0
 11
-29.267303999999999
 21
-88.825676999999999
 31
0.0
  0
LINE
  5
1C0
  8
DETAIL
  6
CONTINUOUS
 62
     5
 10
-29.011544000000001
 20
-89.894429000000002
 30
0.0
 11
-29.142192999999999
 21
-89.381055000000003
 31
0.0
  0
LINE
  5
1C1
  8
DETAIL
  6
CONTINUOUS
 62
     5
 10
-28.878211999999991
 20
-90.369917999999998
 30
0.0
 11
-29.011544000000001
 21
-89.894429000000002
 31
0.0
  0
LINE
  5
1C2
  8
DETAIL
  6
CONTINUOUS
 62
     5
 10
-28.743227000000001
 20
-90.810501999999985
 30
0.0
 11
-28.878211999999991
 21
-90.369917999999998
 31
0.0
  0
LINE
  5
1C3
  8
DETAIL
  6
CONTINUOUS
 62
     5
 10
-28.608375999999989
 20
-91.219583999999998
 30
0.0
 11
-28.743227000000001
 21
-90.810501999999985
 31
0.0
  0
LINE
  5
1C4
  8
DETAIL
  6
CONTINUOUS
 62
     5
 10
-28.474239000000001
 20
-91.599677999999997
 30
0.0
 11
-28.608375999999989
 21
-91.219583999999998
 31
0.0
  0
LINE
  5
1C5
  8
DETAIL
  6
CONTINUOUS
 62
     5
 10
-28.342141000000002
 20
-91.954320999999993
 30
0.0
 11
-28.474239000000001
 21
-91.599677999999997
 31
0.0
  0
LINE
  5
1C6
  8
DETAIL
  6
CONTINUOUS
 62
     5
 10
-28.211639999999999
 20
-92.283396999999994
 30
0.0
 11
-28.342141000000002
 21
-91.954320999999993
 31
0.0
  0
LINE
  5
1C7
  8
DETAIL
  6
CONTINUOUS
 62
     5
 10
-45.430467
 20
-67.8078
 30
0.0
 11
-19.481270999999989
 21
-67.8078
 31
0.0
  0
LINE
  5
1C8
  8
DETAIL
  6
CONTINUOUS
 62
     5
 10
-45.438695999999993
 20
-67.811543999999998
 30
0.0
 11
-45.430467
 21
-67.8078
 31
0.0
  0
LINE
  5
1C9
  8
DETAIL
  6
CONTINUOUS
 62
     5
 10
-45.440086999999998
 20
-67.824566000000004
 30
0.0
 11
-45.438695999999993
 21
-67.811543999999998
 31
0.0
  0
LINE
  5
1CA
  8
DETAIL
  6
CONTINUOUS
 62
     5
 10
-45.441400000000002
 20
-67.846323999999996
 30
0.0
 11
-45.440086999999998
 21
-67.824566000000004
 31
0.0
  0
LINE
  5
1CB
  8
DETAIL
  6
CONTINUOUS
 62
     5
 10
-45.442647999999991
 20
-67.877166000000003
 30
0.0
 11
-45.441400000000002
 21
-67.846323999999996
 31
0.0
  0
LINE
  5
1CC
  8
DETAIL
  6
CONTINUOUS
 62
     5
 10
-45.443496000000003
 20
-67.905872000000002
 30
0.0
 11
-45.442647999999991
 21
-67.877166000000003
 31
0.0
  0
LINE
  5
1CD
  8
DETAIL
  6
CONTINUOUS
 62
     5
 10
-44.659917
 20
-67.8078
 30
0.0
 11
-44.661834999999989
 21
-67.907663999999997
 31
0.0
  0
LINE
  5
1CE
  8
DETAIL
  6
CONTINUOUS
 62
     5
 10
-45.438695999999993
 20
-67.811543999999998
 30
0.0
 11
-45.430467
 21
-67.8078
 31
0.0
  0
LINE
  5
1CF
  8
DETAIL
  6
CONTINUOUS
 62
     5
 10
-45.440086999999998
 20
-67.824566000000004
 30
0.0
 11
-45.438695999999993
 21
-67.811543999999998
 31
0.0
  0
LINE
  5
1D0
  8
DETAIL
  6
CONTINUOUS
 62
     5
 10
-45.441400000000002
 20
-67.846323999999996
 30
0.0
 11
-45.440086999999998
 21
-67.824566000000004
 31
0.0
  0
LINE
  5
1D1
  8
DETAIL
  6
CONTINUOUS
 62
     5
 10
-45.442647999999991
 20
-67.877166000000003
 30
0.0
 11
-45.441400000000002
 21
-67.846323999999996
 31
0.0
  0
LINE
  5
1D2
  8
DETAIL
  6
CONTINUOUS
 62
     5
 10
-45.443496000000003
 20
-67.905872000000002
 30
0.0
 11
-45.442647999999991
 21
-67.877166000000003
 31
0.0
  0
LINE
  5
1D3
  8
DETAIL
  6
CONTINUOUS
 62
     5
 10
-44.659917
 20
-67.8078
 30
0.0
 11
-44.661834999999989
 21
-67.907663999999997
 31
0.0
  0
LINE
  5
1D4
  8
DETAIL
  6
CONTINUOUS
 62
     5
 10
-28.504539000000001
 20
-77.663370999999998
 30
0.0
 11
-28.211639999999999
 21
-76.895443999999983
 31
0.0
  0
LINE
  5
1D5
  8
DETAIL
  6
CONTINUOUS
 62
     5
 10
-28.764298999999991
 20
-78.434967
 30
0.0
 11
-28.504539000000001
 21
-77.663370999999998
 31
0.0
  0
LINE
  5
1D6
  8
DETAIL
  6
CONTINUOUS
 62
     5
 10
-28.990515999999989
 20
-79.206574000000003
 30
0.0
 11
-28.764298999999991
 21
-78.434967
 31
0.0
  0
LINE
  5
1D7
  8
DETAIL
  6
CONTINUOUS
 62
     5
 10
-29.184397999999991
 20
-79.978099
 30
0.0
 11
-28.990515999999989
 21
-79.206574000000003
 31
0.0
  0
LINE
  5
1D8
  8
DETAIL
  6
CONTINUOUS
 62
     5
 10
-19.972842
 20
-67.907663999999997
 30
0.0
 11
-19.974921999999989
 21
-67.8078
 31
0.0
  0
LINE
  5
1D9
  8
DETAIL
  6
CONTINUOUS
 62
     5
 10
-19.471651000000001
 20
-67.824566000000004
 30
0.0
 11
-19.473041999999989
 21
-67.811543999999998
 31
0.0
  0
LINE
  5
1DA
  8
DETAIL
  6
CONTINUOUS
 62
     5
 10
-19.470338000000002
 20
-67.846323999999996
 30
0.0
 11
-19.471651000000001
 21
-67.824566000000004
 31
0.0
  0
LINE
  5
1DB
  8
DETAIL
  6
CONTINUOUS
 62
     5
 10
-19.469089999999991
 20
-67.877166000000003
 30
0.0
 11
-19.470338000000002
 21
-67.846323999999996
 31
0.0
  0
LINE
  5
1DC
  8
DETAIL
  6
CONTINUOUS
 62
     5
 10
-19.468242
 20
-67.905872000000002
 30
0.0
 11
-19.469089999999991
 21
-67.877166000000003
 31
0.0
  0
LINE
  5
1DD
  8
DETAIL
  6
CONTINUOUS
 62
     5
 10
-19.473041999999989
 20
-67.811543999999998
 30
0.0
 11
-19.481270999999989
 21
-67.8078
 31
0.0
  0
ARC
  5
1DE
  8
FIX
  6
CONTINUOUS
 62
    11
 10
-79.891369999999995
 20
0.0136
 30
0.0
 40
2.180498
 50
180.0
 51
0.0
  0
ARC
  5
1DF
  8
FIX
  6
CONTINUOUS
 62
    11
 10
-79.891369999999995
 20
6.0054530000000002
 30
0.0
 40
2.180498
 50
0.0
 51
180.0
  0
LINE
  5
1E0
  8
FIX
  6
CONTINUOUS
 62
    11
 10
-82.071867999999995
 20
6.0054530000000002
 30
0.0
 11
-82.071867999999995
 21
0.0136
 31
0.0
  0
LINE
  5
1E1
  8
FIX
  6
CONTINUOUS
 62
    11
 10
-77.710871999999995
 20
0.0136
 30
0.0
 11
-77.710871999999995
 21
6.0054530000000002
 31
0.0
  0
ARC
  5
1E2
  8
DETAIL
  6
DASHED
 62
     5
 10
-10.445712
 20
21.328769000000001
 30
0.0
 40
27.011488
 50
220.497893
 51
245.190257
  0
ARC
  5
1E3
  8
DETAIL
  6
DASHED
 62
     5
 10
8.7895070000000004
 20
25.860309999999998
 30
0.0
 40
29.220290999999989
 50
179.123524
 51
208.75828000000001
  0
ARC
  5
1E4
  8
DETAIL
  6
DASHED
 62
     5
 10
-38.193117000000001
 20
9.1266470000000002
 30
0.0
 40
3.0875360000000001
 50
19.526572999999999
 51
158.705218
  0
ARC
  5
1E5
  8
DETAIL
  6
DASHED
 62
     5
 10
-5.3573339999999989
 20
25.705997
 30
0.0
 40
33.723511000000002
 50
206.12675999999999
 51
220.86807699999989
  0
ARC
  5
1E6
  8
DETAIL
  6
DASHED
 62
     5
 10
-26.778661
 20
-5.2978189999999996
 30
0.0
 40
29.220290999999989
 50
299.12352399999997
 51
328.7582799999999
  0
ARC
  5
1E7
  8
DETAIL
  6
DASHED
 62
     5
 10
0.049726
 20
-0.008365
 30
0.0
 40
42.291004000000001
 50
285.95071000000002
 51
355.64996999999988
  0
ARC
  5
1E8
  8
DETAIL
  6
DASHED
 62
     5
 10
-19.571601000000001
 20
-17.472184999999989
 30
0.0
 40
33.723511000000002
 50
326.12675999999999
 51
340.86807700000003
  0
LINE
  5
1E9
  8
DETAIL
  6
DASHED
 62
     5
 10
14.779902999999999
 20
-93.073445999999976
 30
0.0
 11
67.572436999999994
 21
-93.073445999999976
 31
0.0
  0
LINE
  5
1EA
  8
DETAIL
  6
DASHED
 62
     5
 10
74.698430999999999
 20
-40.145412999999998
 30
0.0
 11
28.896391999999992
 21
-40.145412999999998
 31
0.0
  0
LINE
  5
1EB
  8
DETAIL
  6
CONTINUOUS
 62
     5
 10
45.438695999999993
 20
-67.811543999999998
 30
0.0
 11
72.900396000000001
 21
-67.811543999999998
 31
0.0
  0
LINE
  5
1EC
  8
DETAIL
  6
CONTINUOUS
 62
     5
 10
73.400195999999994
 20
-67.907663999999997
 30
0.0
 11
45.215955999999998
 21
-67.907663999999997
 31
0.0
  0
LINE
  5
1ED
  8
DETAIL
  6
DASHED
 62
     5
 10
14.779902999999999
 20
-56.384576000000003
 30
0.0
 11
14.779902999999999
 21
-93.073445999999976
 31
0.0
  0
LINE
  5
1EE
  8
DETAIL
  6
CONTINUOUS
 62
     5
 10
0.0
 20
-67.793446000000003
 30
0.0
 11
0.0
 21
-67.811323000000002
 31
0.0
  0
LINE
  5
1EF
  8
DETAIL
  6
CONTINUOUS
 62
     5
 10
0.0
 20
-67.793446000000003
 30
0.0
 11
0.0
 21
-67.811323000000002
 31
0.0
  0
LINE
  5
1F0
  8
DETAIL
  6
CONTINUOUS
 62
     5
 10
19.481270999999989
 20
-67.8078
 30
0.0
 11
45.430467
 21
-67.8078
 31
0.0
  0
LINE
  5
1F1
  8
DETAIL
  6
CONTINUOUS
 62
     5
 10
19.473041999999989
 20
-67.811543999999998
 30
0.0
 11
19.481270999999989
 21
-67.8078
 31
0.0
  0
LINE
  5
1F2
  8
DETAIL
  6
CONTINUOUS
 62
     5
 10
19.471651000000001
 20
-67.824566000000004
 30
0.0
 11
19.473041999999989
 21
-67.811543999999998
 31
0.0
  0
LINE
  5
1F3
  8
DETAIL
  6
CONTINUOUS
 62
     5
 10
19.470338000000002
 20
-67.846323999999996
 30
0.0
 11
19.471651000000001
 21
-67.824566000000004
 31
0.0
  0
LINE
  5
1F4
  8
DETAIL
  6
CONTINUOUS
 62
     5
 10
19.469089999999991
 20
-67.877166000000003
 30
0.0
 11
19.470338000000002
 21
-67.846323999999996
 31
0.0
  0
LINE
  5
1F5
  8
DETAIL
  6
CONTINUOUS
 62
     5
 10
19.468242
 20
-67.905872000000002
 30
0.0
 11
19.469089999999991
 21
-67.877166000000003
 31
0.0
  0
LINE
  5
1F6
  8
DETAIL
  6
CONTINUOUS
 62
     5
 10
19.972842
 20
-67.907663999999997
 30
0.0
 11
19.974921999999989
 21
-67.8078
 31
0.0
  0
LINE
  5
1F7
  8
DETAIL
  6
CONTINUOUS
 62
     5
 10
19.473041999999989
 20
-67.811543999999998
 30
0.0
 11
19.481270999999989
 21
-67.8078
 31
0.0
  0
LINE
  5
1F8
  8
DETAIL
  6
CONTINUOUS
 62
     5
 10
19.471651000000001
 20
-67.824566000000004
 30
0.0
 11
19.473041999999989
 21
-67.811543999999998
 31
0.0
  0
LINE
  5
1F9
  8
DETAIL
  6
CONTINUOUS
 62
     5
 10
19.470338000000002
 20
-67.846323999999996
 30
0.0
 11
19.471651000000001
 21
-67.824566000000004
 31
0.0
  0
LINE
  5
1FA
  8
DETAIL
  6
CONTINUOUS
 62
     5
 10
19.469089999999991
 20
-67.877166000000003
 30
0.0
 11
19.470338000000002
 21
-67.846323999999996
 31
0.0
  0
LINE
  5
1FB
  8
DETAIL
  6
CONTINUOUS
 62
     5
 10
19.468242
 20
-67.905872000000002
 30
0.0
 11
19.469089999999991
 21
-67.877166000000003
 31
0.0
  0
LINE
  5
1FC
  8
DETAIL
  6
CONTINUOUS
 62
     5
 10
19.972842
 20
-67.907663999999997
 30
0.0
 11
19.974921999999989
 21
-67.8078
 31
0.0
  0
LINE
  5
1FD
  8
DETAIL
  6
CONTINUOUS
 62
     5
 10
45.213715999999998
 20
-67.8078
 30
0.0
 11
45.215955999999998
 21
-67.907663999999997
 31
0.0
  0
LINE
  5
1FE
  8
DETAIL
  6
CONTINUOUS
 62
     5
 10
45.440086999999998
 20
-67.824566000000004
 30
0.0
 11
45.438695999999993
 21
-67.811543999999998
 31
0.0
  0
LINE
  5
1FF
  8
DETAIL
  6
CONTINUOUS
 62
     5
 10
45.441400000000002
 20
-67.846323999999996
 30
0.0
 11
45.440086999999998
 21
-67.824566000000004
 31
0.0
  0
LINE
  5
200
  8
DETAIL
  6
CONTINUOUS
 62
     5
 10
45.442647999999991
 20
-67.877166000000003
 30
0.0
 11
45.441400000000002
 21
-67.846323999999996
 31
0.0
  0
LINE
  5
201
  8
DETAIL
  6
CONTINUOUS
 62
     5
 10
45.443496000000003
 20
-67.905872000000002
 30
0.0
 11
45.442647999999991
 21
-67.877166000000003
 31
0.0
  0
LINE
  5
202
  8
DETAIL
  6
CONTINUOUS
 62
     5
 10
45.438695999999993
 20
-67.811543999999998
 30
0.0
 11
45.430467
 21
-67.8078
 31
0.0
  0
LINE
  5
203
  8
DETAIL
  6
DASHED
 62
     5
 10
14.779902999999999
 20
-56.384576000000003
 30
0.0
 11
28.896391999999992
 21
-40.145412999999998
 31
0.0
  0
ARC
  5
204
  8
DETAIL
  6
DASHED
 62
     5
 10
11.204427999999989
 20
-37.619132999999998
 30
0.0
 40
3.0875360000000001
 50
139.5265729999999
 51
278.70521799999989
  0
LINE
  5
205
  8
DETAIL
  6
DASHED
 62
     5
 10
74.698430999999999
 20
-84.875927999999988
 30
0.0
 11
74.698430999999999
 21
-40.145412999999998
 31
0.0
  0
LINE
  5
206
  8
DETAIL
  6
CONTINUOUS
 62
     5
 10
86.489163000000005
 20
-63.168716000000003
 30
0.0
 11
84.211039
 21
-64.245786999999993
 31
0.0
  0
LINE
  5
207
  8
DETAIL
  6
CONTINUOUS
 62
     5
 10
89.999995999999996
 20
-63.187621999999998
 30
0.0
 11
87.011429000000007
 21
-64.732660999999993
 31
0.0
  0
ARC
  5
208
  8
DETAIL
  6
CONTINUOUS
 62
     5
 10
53.266066000000002
 20
1.010178
 30
0.0
 40
79.891369999999995
 50
285.71002199999998
 51
297.37410399999987
  0
LINE
  5
209
  8
DETAIL
  6
CONTINUOUS
 62
     5
 10
84.211039
 20
-64.245786999999993
 30
0.0
 11
81.913657000000001
 21
-65.246001000000007
 31
0.0
  0
LINE
  5
20A
  8
DETAIL
  6
CONTINUOUS
 62
     5
 10
83.493740000000003
 20
-66.393570999999994
 30
0.0
 11
81.716506999999979
 21
-67.155810000000002
 31
0.0
  0
LINE
  5
20B
  8
DETAIL
  6
CONTINUOUS
 62
     5
 10
74.898156999999998
 20
-95.150912999999989
 30
0.0
 11
74.898156999999998
 21
-75.896800999999996
 31
0.0
  0
LINE
  5
20C
  8
DETAIL
  6
DASHED
 62
     5
 10
74.698430999999999
 20
-84.875927999999988
 30
0.0
 11
67.572436999999994
 21
-93.073445999999976
 31
0.0
  0
LINE
  5
20D
  8
DETAIL
  6
CONTINUOUS
 62
     5
 10
74.898054000000002
 20
-95.159227999999999
 30
0.0
 11
74.898156999999998
 21
-95.150912999999989
 31
0.0
  0
LINE
  5
20E
  8
DETAIL
  6
CONTINUOUS
 62
     5
 10
74.897835999999984
 20
-95.167496
 30
0.0
 11
74.898054000000002
 21
-95.159227999999999
 31
0.0
  0
LINE
  5
20F
  8
DETAIL
  6
CONTINUOUS
 62
     5
 10
74.89750699999999
 20
-95.175717000000006
 30
0.0
 11
74.897835999999984
 21
-95.167496
 31
0.0
  0
LINE
  5
210
  8
DETAIL
  6
CONTINUOUS
 62
     5
 10
74.89705699999999
 20
-95.183893999999995
 30
0.0
 11
74.89750699999999
 21
-95.175717000000006
 31
0.0
  0
LINE
  5
211
  8
DETAIL
  6
CONTINUOUS
 62
     5
 10
74.896476000000007
 20
-95.192030000000003
 30
0.0
 11
74.89705699999999
 21
-95.183893999999995
 31
0.0
  0
LINE
  5
212
  8
DETAIL
  6
CONTINUOUS
 62
     5
 10
74.895768000000004
 20
-95.200124000000002
 30
0.0
 11
74.896476000000007
 21
-95.192030000000003
 31
0.0
  0
LINE
  5
213
  8
DETAIL
  6
CONTINUOUS
 62
     5
 10
78.475655000000003
 20
-95.754581999999985
 30
0.0
 11
80.249193999999989
 21
-96.101598999999993
 31
0.0
  0
LINE
  5
214
  8
DETAIL
  6
CONTINUOUS
 62
     5
 10
76.691457999999983
 20
-95.437650000000005
 30
0.0
 11
78.475655000000003
 21
-95.754581999999985
 31
0.0
  0
LINE
  5
215
  8
DETAIL
  6
CONTINUOUS
 62
     5
 10
74.898156999999998
 20
-95.150738000000004
 30
0.0
 11
76.691457999999983
 21
-95.437650000000005
 31
0.0
  0
LINE
  5
216
  8
DETAIL
  6
CONTINUOUS
 62
     5
 10
80.249193999999989
 20
-96.101598999999993
 30
0.0
 11
82.008277000000007
 21
-96.478487999999999
 31
0.0
  0
LINE
  5
217
  8
DETAIL
  6
CONTINUOUS
 62
     5
 10
72.900396000000001
 20
-67.811543999999998
 30
0.0
 11
72.908625000000001
 21
-67.8078
 31
0.0
  0
LINE
  5
218
  8
DETAIL
  6
CONTINUOUS
 62
     5
 10
72.899005000000002
 20
-67.824566000000004
 30
0.0
 11
72.900396000000001
 21
-67.811543999999998
 31
0.0
  0
LINE
  5
219
  8
DETAIL
  6
CONTINUOUS
 62
     5
 10
72.897690999999995
 20
-67.846323999999996
 30
0.0
 11
72.899005000000002
 21
-67.824566000000004
 31
0.0
  0
LINE
  5
21A
  8
DETAIL
  6
CONTINUOUS
 62
     5
 10
72.896443000000005
 20
-67.877166000000003
 30
0.0
 11
72.897690999999995
 21
-67.846323999999996
 31
0.0
  0
LINE
  5
21B
  8
DETAIL
  6
CONTINUOUS
 62
     5
 10
72.895595
 20
-67.905872000000002
 30
0.0
 11
72.896443000000005
 21
-67.877166000000003
 31
0.0
  0
LINE
  5
21C
  8
DETAIL
  6
CONTINUOUS
 62
     5
 10
73.400195999999994
 20
-67.907663999999997
 30
0.0
 11
73.402276000000001
 21
-67.8078
 31
0.0
  0
LINE
  5
21D
  8
DETAIL
  6
CONTINUOUS
 62
     5
 10
74.568422999999996
 20
-69.754283999999998
 30
0.0
 11
74.532630999999995
 21
-69.753827000000001
 31
0.0
  0
LINE
  5
21E
  8
DETAIL
  6
CONTINUOUS
 62
     5
 10
74.602869999999996
 20
-69.755705000000006
 30
0.0
 11
74.568422999999996
 21
-69.754283999999998
 31
0.0
  0
LINE
  5
21F
  8
DETAIL
  6
CONTINUOUS
 62
     5
 10
74.636009999999999
 20
-69.758077999999998
 30
0.0
 11
74.602869999999996
 21
-69.755705000000006
 31
0.0
  0
LINE
  5
220
  8
DETAIL
  6
CONTINUOUS
 62
     5
 10
74.667722999999995
 20
-69.761436000000003
 30
0.0
 11
74.636009999999999
 21
-69.758077999999998
 31
0.0
  0
LINE
  5
221
  8
DETAIL
  6
CONTINUOUS
 62
     5
 10
74.697898999999992
 20
-69.765786000000006
 30
0.0
 11
74.667722999999995
 21
-69.761436000000003
 31
0.0
  0
LINE
  5
222
  8
DETAIL
  6
CONTINUOUS
 62
     5
 10
74.726546999999997
 20
-69.771193999999994
 30
0.0
 11
74.697898999999992
 21
-69.765786000000006
 31
0.0
  0
LINE
  5
223
  8
DETAIL
  6
CONTINUOUS
 62
     5
 10
74.753640000000004
 20
-69.777671999999995
 30
0.0
 11
74.726546999999997
 21
-69.771193999999994
 31
0.0
  0
LINE
  5
224
  8
DETAIL
  6
CONTINUOUS
 62
     5
 10
74.779176000000007
 20
-69.785392999999999
 30
0.0
 11
74.753640000000004
 21
-69.777671999999995
 31
0.0
  0
LINE
  5
225
  8
DETAIL
  6
CONTINUOUS
 62
     5
 10
74.803248999999994
 20
-69.794450999999995
 30
0.0
 11
74.779176000000007
 21
-69.785392999999999
 31
0.0
  0
LINE
  5
226
  8
DETAIL
  6
CONTINUOUS
 62
     5
 10
74.898158999999993
 20
-67.8078
 30
0.0
 11
74.902276000000001
 21
-67.806502000000009
 31
0.0
  0
LINE
  5
227
  8
DETAIL
  6
CONTINUOUS
 62
     5
 10
74.943256999999988
 20
-67.793581000000003
 30
0.0
 11
74.898158999999993
 21
-67.793446000000003
 31
0.0
  0
LINE
  5
228
  8
DETAIL
  6
CONTINUOUS
 62
     5
 10
72.908625000000001
 20
-67.8078
 30
0.0
 11
74.898158999999993
 21
-67.8078
 31
0.0
  0
LINE
  5
229
  8
DETAIL
  6
CONTINUOUS
 62
     5
 10
72.900396000000001
 20
-67.811543999999998
 30
0.0
 11
72.908625000000001
 21
-67.8078
 31
0.0
  0
LINE
  5
22A
  8
DETAIL
  6
CONTINUOUS
 62
     5
 10
77.276544999999984
 20
-67.019574000000006
 30
0.0
 11
74.943256999999988
 21
-67.793581000000003
 31
0.0
  0
LINE
  5
22B
  8
DETAIL
  6
CONTINUOUS
 62
     5
 10
79.600890000000007
 20
-66.170287999999985
 30
0.0
 11
77.276544999999984
 21
-67.019574000000006
 31
0.0
  0
LINE
  5
22C
  8
DETAIL
  6
CONTINUOUS
 62
     5
 10
76.337293000000003
 20
-69.171584999999993
 30
0.0
 11
74.533170999999996
 21
-69.753827000000001
 31
0.0
  0
LINE
  5
22D
  8
DETAIL
  6
CONTINUOUS
 62
     5
 10
78.135890000000003
 20
-68.544500999999997
 30
0.0
 11
76.337293000000003
 21
-69.171584999999993
 31
0.0
  0
LINE
  5
22E
  8
DETAIL
  6
CONTINUOUS
 62
     5
 10
79.929919999999996
 20
-67.872691000000003
 30
0.0
 11
78.135890000000003
 21
-68.544500999999997
 31
0.0
  0
LINE
  5
22F
  8
DETAIL
  6
CONTINUOUS
 62
     5
 10
72.899005000000002
 20
-67.824566000000004
 30
0.0
 11
72.900396000000001
 21
-67.811543999999998
 31
0.0
  0
LINE
  5
230
  8
DETAIL
  6
CONTINUOUS
 62
     5
 10
72.897690999999995
 20
-67.846323999999996
 30
0.0
 11
72.899005000000002
 21
-67.824566000000004
 31
0.0
  0
LINE
  5
231
  8
DETAIL
  6
CONTINUOUS
 62
     5
 10
72.896443000000005
 20
-67.877166000000003
 30
0.0
 11
72.897690999999995
 21
-67.846323999999996
 31
0.0
  0
LINE
  5
232
  8
DETAIL
  6
CONTINUOUS
 62
     5
 10
72.895595
 20
-67.905872000000002
 30
0.0
 11
72.896443000000005
 21
-67.877166000000003
 31
0.0
  0
LINE
  5
233
  8
DETAIL
  6
CONTINUOUS
 62
     5
 10
73.400195999999994
 20
-67.907663999999997
 30
0.0
 11
73.402276000000001
 21
-67.8078
 31
0.0
  0
LINE
  5
234
  8
DETAIL
  6
CONTINUOUS
 62
     5
 10
74.898156
 20
-69.906331999999992
 30
0.0
 11
74.898156999999998
 21
-75.896801999999994
 31
0.0
  0
LINE
  5
235
  8
DETAIL
  6
CONTINUOUS
 62
     5
 10
74.568422999999996
 20
-69.754283999999998
 30
0.0
 11
74.532630999999995
 21
-69.753827000000001
 31
0.0
  0
LINE
  5
236
  8
DETAIL
  6
CONTINUOUS
 62
     5
 10
74.602869999999996
 20
-69.755705000000006
 30
0.0
 11
74.568422999999996
 21
-69.754283999999998
 31
0.0
  0
LINE
  5
237
  8
DETAIL
  6
CONTINUOUS
 62
     5
 10
74.636009999999999
 20
-69.758077999999998
 30
0.0
 11
74.602869999999996
 21
-69.755705000000006
 31
0.0
  0
LINE
  5
238
  8
DETAIL
  6
CONTINUOUS
 62
     5
 10
74.667722999999995
 20
-69.761436000000003
 30
0.0
 11
74.636009999999999
 21
-69.758077999999998
 31
0.0
  0
LINE
  5
239
  8
DETAIL
  6
CONTINUOUS
 62
     5
 10
74.697898999999992
 20
-69.765786000000006
 30
0.0
 11
74.667722999999995
 21
-69.761436000000003
 31
0.0
  0
LINE
  5
23A
  8
DETAIL
  6
CONTINUOUS
 62
     5
 10
74.726546999999997
 20
-69.771193999999994
 30
0.0
 11
74.697898999999992
 21
-69.765786000000006
 31
0.0
  0
LINE
  5
23B
  8
DETAIL
  6
CONTINUOUS
 62
     5
 10
74.753640000000004
 20
-69.777671999999995
 30
0.0
 11
74.726546999999997
 21
-69.771193999999994
 31
0.0
  0
LINE
  5
23C
  8
DETAIL
  6
CONTINUOUS
 62
     5
 10
74.779176000000007
 20
-69.785392999999999
 30
0.0
 11
74.753640000000004
 21
-69.777671999999995
 31
0.0
  0
LINE
  5
23D
  8
DETAIL
  6
CONTINUOUS
 62
     5
 10
74.803248999999994
 20
-69.794450999999995
 30
0.0
 11
74.779176000000007
 21
-69.785392999999999
 31
0.0
  0
LINE
  5
23E
  8
DETAIL
  6
CONTINUOUS
 62
     5
 10
74.825536
 20
-69.805084999999991
 30
0.0
 11
74.803248999999994
 21
-69.794450999999995
 31
0.0
  0
LINE
  5
23F
  8
DETAIL
  6
CONTINUOUS
 62
     5
 10
74.846006000000003
 20
-69.817580000000007
 30
0.0
 11
74.825536
 21
-69.805084999999991
 31
0.0
  0
LINE
  5
240
  8
DETAIL
  6
CONTINUOUS
 62
     5
 10
74.863866999999999
 20
-69.831894999999989
 30
0.0
 11
74.846006000000003
 21
-69.817580000000007
 31
0.0
  0
LINE
  5
241
  8
DETAIL
  6
CONTINUOUS
 62
     5
 10
74.878456999999997
 20
-69.848188000000007
 30
0.0
 11
74.863866999999999
 21
-69.831894999999989
 31
0.0
  0
LINE
  5
242
  8
DETAIL
  6
CONTINUOUS
 62
     5
 10
74.889356000000006
 20
-69.866152
 30
0.0
 11
74.878456999999997
 21
-69.848188000000007
 31
0.0
  0
LINE
  5
243
  8
DETAIL
  6
CONTINUOUS
 62
     5
 10
74.895842000000002
 20
-69.885502000000002
 30
0.0
 11
74.889356000000006
 21
-69.866152
 31
0.0
  0
LINE
  5
244
  8
DETAIL
  6
CONTINUOUS
 62
     5
 10
74.898156
 20
-69.906331999999992
 30
0.0
 11
74.895842000000002
 21
-69.885502000000002
 31
0.0
  0
LINE
  5
245
  8
DETAIL
  6
CONTINUOUS
 62
     5
 10
74.898158999999993
 20
-67.8078
 30
0.0
 11
74.902276000000001
 21
-67.806502000000009
 31
0.0
  0
LINE
  5
246
  8
DETAIL
  6
CONTINUOUS
 62
     5
 10
74.943256999999988
 20
-67.793581000000003
 30
0.0
 11
74.898158999999993
 21
-67.793446000000003
 31
0.0
  0
LINE
  5
247
  8
DETAIL
  6
CONTINUOUS
 62
     5
 10
72.908625000000001
 20
-67.8078
 30
0.0
 11
74.898158999999993
 21
-67.8078
 31
0.0
  0
LINE
  5
248
  8
DETAIL
  6
CONTINUOUS
 62
     5
 10
81.913657000000001
 20
-65.246001000000007
 30
0.0
 11
79.600890000000007
 21
-66.170287999999985
 31
0.0
  0
LINE
  5
249
  8
DETAIL
  6
CONTINUOUS
 62
     5
 10
81.716506999999979
 20
-67.155810000000002
 30
0.0
 11
79.929919999999996
 21
-67.872691000000003
 31
0.0
  0
LINE
  5
24A
  8
DETAIL
  6
CONTINUOUS
 62
     5
 10
89.670850999999999
 20
-70.104676999999995
 30
0.0
 11
89.656047000000001
 21
-70.11225300000001
 31
0.0
  0
LINE
  5
24B
  8
DETAIL
  6
CONTINUOUS
 62
     5
 10
85.259680000000003
 20
-65.585914000000002
 30
0.0
 11
83.493740000000003
 21
-66.393570999999994
 31
0.0
  0
LINE
  5
24C
  8
DETAIL
  6
CONTINUOUS
 62
     5
 10
87.011429000000007
 20
-64.732660999999993
 30
0.0
 11
85.259680000000003
 21
-65.585914000000002
 31
0.0
  0
LINE
  5
24D
  8
DETAIL
  6
CONTINUOUS
 62
     5
 10
89.999995999999996
 20
-61.373339000000001
 30
0.0
 11
86.489163000000005
 21
-63.168716000000003
 31
0.0
  0
LINE
  5
24E
  8
DETAIL
  6
CONTINUOUS
 62
     5
 10
88.745110999999994
 20
-62.015065
 30
0.0
 11
89.999995999999996
 21
-61.344533999999989
 31
0.0
  0
LINE
  5
24F
  8
DETAIL
  6
CONTINUOUS
 62
     5
 10
89.036661999999993
 20
-61.859279000000001
 30
0.0
 11
89.999995999999996
 21
-61.338970999999987
 31
0.0
  0
ARC
  5
250
  8
DETAIL
  6
DASHED
 62
     5
 10
15.762138999999999
 20
-25.272949000000001
 30
0.0
 40
34.44509
 50
39.817754000000001
 51
60.0
  0
CIRCLE
  5
251
  8
DETAIL
  6
DASHED
 62
     5
 10
0.0
 20
0.0136
 30
0.0
 40
12.483026999999989
  0
ARC
  5
252
  8
DETAIL
  6
DASHED
 62
     5
 10
-22.866284
 20
-7.9191770000000004
 30
0.0
 40
24.51661099999999
 50
321.95908800000001
 51
347.808088
  0
ARC
  5
253
  8
DETAIL
  6
DASHED
 62
     5
 10
-8.0895340000000004
 20
-19.263904999999991
 30
0.0
 40
21.846976000000002
 50
4.1720879999999987
 51
28.413430000000002
  0
ARC
  5
254
  8
DETAIL
  6
DASHED
 62
     5
 10
-13.236622000000001
 20
-19.690237
 30
0.0
 40
27.011488
 50
340.49789299999998
 51
5.190256999999999
  0
ARC
  5
255
  8
DETAIL
  6
DASHED
 62
     5
 10
-13.218982
 20
-3.8827690000000001
 30
0.0
 40
1.298235
 50
268.41343000000001
 51
16.423176000000002
  0
ARC
  5
256
  8
DETAIL
  6
DASHED
 62
     5
 10
2.0734910000000002
 20
-13.307662000000001
 30
0.0
 40
0.998642
 50
98.847251999999997
 51
167.80808799999991
  0
ARC
  5
257
  8
DETAIL
  6
DASHED
 62
     5
 10
9.9838450000000005
 20
-9.4861889999999995
 30
0.0
 40
1.298235
 50
28.413430000000002
 51
136.42317600000001
  0
ARC
  5
258
  8
DETAIL
  6
DASHED
 62
     5
 10
23.682334000000001
 20
-1.5977330000000001
 30
0.0
 40
27.011488
 50
100.497893
 51
125.190257
  0
ARC
  5
259
  8
DETAIL
  6
DASHED
 62
     5
 10
18.303128000000001
 20
-15.822794999999999
 30
0.0
 40
24.51661099999999
 50
81.959087999999994
 51
107.8080879999999
  0
ARC
  5
25A
  8
DETAIL
  6
DASHED
 62
     5
 10
20.739575999999989
 20
2.646609999999999
 30
0.0
 40
21.846976000000002
 50
124.172088
 51
148.41343000000001
  0
ARC
  5
25B
  8
DETAIL
  6
DASHED
 62
     5
 10
3.2351359999999998
 20
13.409757999999989
 30
0.0
 40
1.298235
 50
148.41343000000001
 51
256.4231759999999
  0
ARC
  5
25C
  8
DETAIL
  6
DASHED
 62
     5
 10
-12.573297
 20
4.8785350000000003
 30
0.0
 40
0.998642
 50
338.84725200000003
 51
47.808087999999991
  0
ARC
  5
25D
  8
DETAIL
  6
DASHED
 62
     5
 10
10.499806
 20
8.4699270000000002
 30
0.0
 40
0.998642
 50
218.84725199999991
 51
287.808088
  0
ARC
  5
25E
  8
DETAIL
  6
DASHED
 62
     5
 10
17.989155
 20
-20.52169099999999
 30
0.0
 40
29.220290999999989
 50
59.123524000000003
 51
88.758279999999999
  0
ARC
  5
25F
  8
DETAIL
  6
DASHED
 62
     5
 10
26.988689000000001
 20
28.533286
 30
0.0
 40
3.0875360000000001
 50
259.52657299999993
 51
38.705218000000002
  0
ARC
  5
260
  8
DETAIL
  6
DASHED
 62
     5
 10
24.928934999999999
 20
-8.1930110000000003
 30
0.0
 40
33.723511000000002
 50
86.126760000000019
 51
100.868077
  0
LINE
  5
261
  8
FIX
  6
CONTINUOUS
 62
    11
 10
77.894086000000001
 20
6.0054530000000002
 30
0.0
 11
77.894086000000001
 21
0.0136
 31
0.0
  0
LINE
  5
262
  8
FIX
  6
CONTINUOUS
 62
    11
 10
81.888654000000002
 20
0.0136
 30
0.0
 11
81.888654000000002
 21
6.0054530000000002
 31
0.0
  0
ARC
  5
263
  8
FIX
  6
CONTINUOUS
 62
    11
 10
79.891369999999995
 20
0.0136
 30
0.0
 40
1.9972840000000001
 50
180.0
 51
0.0
  0
ARC
  5
264
  8
FIX
  6
CONTINUOUS
 62
    11
 10
79.891369999999995
 20
6.0054530000000002
 30
0.0
 40
1.9972840000000001
 50
0.0
 51
180.0
  0
LINE
  5
265
  8
DETAIL
  6
CONTINUOUS
 62
     5
 10
-88.502077999999983
 20
80.013574000000006
 30
0.0
 11
88.502077999999983
 21
80.013574000000006
 31
0.0
  0
LINE
  5
266
  8
DETAIL
  6
CONTINUOUS
 62
     5
 10
-88.648593999999974
 20
80.006377999999984
 30
0.0
 11
-88.502077999999983
 21
80.013563000000005
 31
0.0
  0
LINE
  5
267
  8
DETAIL
  6
CONTINUOUS
 62
     5
 10
-88.793751999999998
 20
79.984887999999998
 30
0.0
 11
-88.648593999999974
 21
80.006377999999984
 31
0.0
  0
LINE
  5
268
  8
DETAIL
  6
CONTINUOUS
 62
     5
 10
-88.936128999999994
 20
79.949293000000011
 30
0.0
 11
-88.793751999999998
 21
79.984887999999998
 31
0.0
  0
LINE
  5
269
  8
DETAIL
  6
CONTINUOUS
 62
     5
 10
-89.074438999999998
 20
79.899895000000001
 30
0.0
 11
-88.936128999999994
 21
79.949293000000011
 31
0.0
  0
LINE
  5
26A
  8
DETAIL
  6
CONTINUOUS
 62
     5
 10
-89.207464000000002
 20
79.837074000000001
 30
0.0
 11
-89.074438999999998
 21
79.899895000000001
 31
0.0
  0
LINE
  5
26B
  8
DETAIL
  6
CONTINUOUS
 62
     5
 10
-89.333746999999988
 20
79.761465000000001
 30
0.0
 11
-89.207464000000002
 21
79.837074000000001
 31
0.0
  0
LINE
  5
26C
  8
DETAIL
  6
CONTINUOUS
 62
     5
 10
-89.451947000000004
 20
79.673872000000003
 30
0.0
 11
-89.333746999999988
 21
79.761465000000001
 31
0.0
  0
LINE
  5
26D
  8
DETAIL
  6
CONTINUOUS
 62
     5
 10
-89.560976999999994
 20
79.575112000000004
 30
0.0
 11
-89.451947000000004
 21
79.673872000000003
 31
0.0
  0
LINE
  5
26E
  8
DETAIL
  6
CONTINUOUS
 62
     5
 10
-89.659794999999988
 20
79.466132000000002
 30
0.0
 11
-89.560976999999994
 21
79.575112000000004
 31
0.0
  0
LINE
  5
26F
  8
DETAIL
  6
CONTINUOUS
 62
     5
 10
-89.747449000000003
 20
79.347980000000007
 30
0.0
 11
-89.659794999999988
 21
79.466132000000002
 31
0.0
  0
LINE
  5
270
  8
DETAIL
  6
CONTINUOUS
 62
     5
 10
-89.823099999999997
 20
79.22178199999999
 30
0.0
 11
-89.747449000000003
 21
79.347980000000007
 31
0.0
  0
LINE
  5
271
  8
DETAIL
  6
CONTINUOUS
 62
     5
 10
-89.885998000000015
 20
79.088785999999999
 30
0.0
 11
-89.823099999999997
 21
79.22178199999999
 31
0.0
  0
LINE
  5
272
  8
DETAIL
  6
CONTINUOUS
 62
     5
 10
-89.935531999999995
 20
78.95030899999999
 30
0.0
 11
-89.885998000000015
 21
79.088785999999999
 31
0.0
  0
LINE
  5
273
  8
DETAIL
  6
CONTINUOUS
 62
     5
 10
-89.971237000000016
 20
78.807695999999993
 30
0.0
 11
-89.935531999999995
 21
78.95030899999999
 31
0.0
  0
LINE
  5
274
  8
DETAIL
  6
CONTINUOUS
 62
     5
 10
-89.992781999999991
 20
78.662346999999997
 30
0.0
 11
-89.971237000000016
 21
78.807695999999993
 31
0.0
  0
LINE
  5
275
  8
DETAIL
  6
CONTINUOUS
 62
     5
 10
-89.999983999999998
 20
78.51565699999999
 30
0.0
 11
-89.992781999999991
 21
78.662346999999997
 31
0.0
  0
LINE
  5
276
  8
DETAIL
  6
CONTINUOUS
 62
     5
 10
-74.898026999999999
 20
78.337005000000005
 30
0.0
 11
-74.898158999999993
 21
78.326137000000003
 31
0.0
  0
LINE
  5
277
  8
DETAIL
  6
CONTINUOUS
 62
     5
 10
-74.893152000000001
 20
78.489152000000004
 30
0.0
 11
-74.898026999999999
 21
78.337005000000005
 31
0.0
  0
LINE
  5
278
  8
DETAIL
  6
CONTINUOUS
 62
     5
 10
-74.88580300000001
 20
78.637427000000002
 30
0.0
 11
-74.893152000000001
 21
78.489152000000004
 31
0.0
  0
LINE
  5
279
  8
DETAIL
  6
CONTINUOUS
 62
     5
 10
-74.875917999999999
 20
78.780270000000002
 30
0.0
 11
-74.88580300000001
 21
78.637427000000002
 31
0.0
  0
LINE
  5
27A
  8
DETAIL
  6
CONTINUOUS
 62
     5
 10
-74.863681999999997
 20
78.916197999999994
 30
0.0
 11
-74.875917999999999
 21
78.780270000000002
 31
0.0
  0
LINE
  5
27B
  8
DETAIL
  6
CONTINUOUS
 62
     5
 10
-74.849195999999992
 20
79.043806000000004
 30
0.0
 11
-74.863681999999997
 21
78.916197999999994
 31
0.0
  0
LINE
  5
27C
  8
DETAIL
  6
CONTINUOUS
 62
     5
 10
-74.832650000000001
 20
79.161785999999992
 30
0.0
 11
-74.849195999999992
 21
79.043806000000004
 31
0.0
  0
LINE
  5
27D
  8
DETAIL
  6
CONTINUOUS
 62
     5
 10
-74.814193000000003
 20
79.268940000000001
 30
0.0
 11
-74.832650000000001
 21
79.161785999999992
 31
0.0
  0
LINE
  5
27E
  8
DETAIL
  6
CONTINUOUS
 62
     5
 10
-74.794048000000004
 20
79.364192000000003
 30
0.0
 11
-74.814193000000003
 21
79.268940000000001
 31
0.0
  0
LINE
  5
27F
  8
DETAIL
  6
CONTINUOUS
 62
     5
 10
-74.772404000000009
 20
79.446596
 30
0.0
 11
-74.794048000000004
 21
79.364192000000003
 31
0.0
  0
LINE
  5
280
  8
DETAIL
  6
CONTINUOUS
 62
     5
 10
-74.749506000000011
 20
79.515349000000001
 30
0.0
 11
-74.772404000000009
 21
79.446596
 31
0.0
  0
LINE
  5
281
  8
DETAIL
  6
CONTINUOUS
 62
     5
 10
-74.72557900000001
 20
79.569791000000009
 30
0.0
 11
-74.749506000000011
 21
79.515349000000001
 31
0.0
  0
LINE
  5
282
  8
DETAIL
  6
CONTINUOUS
 62
     5
 10
-74.700879
 20
79.609410999999994
 30
0.0
 11
-74.72557900000001
 21
79.569791000000009
 31
0.0
  0
LINE
  5
283
  8
DETAIL
  6
CONTINUOUS
 62
     5
 10
-74.675781000000001
 20
79.633852000000005
 30
0.0
 11
-74.700879
 21
79.609410999999994
 31
0.0
  0
LINE
  5
284
  8
DETAIL
  6
CONTINUOUS
 62
     5
 10
-74.65016
 20
79.642904000000001
 30
0.0
 11
-74.675781000000001
 21
79.633852000000005
 31
0.0
  0
LINE
  5
285
  8
DETAIL
  6
CONTINUOUS
 62
     5
 10
74.893152000000001
 20
78.489152000000004
 30
0.0
 11
74.898026999999999
 21
78.337005000000005
 31
0.0
  0
LINE
  5
286
  8
DETAIL
  6
CONTINUOUS
 62
     5
 10
74.88580300000001
 20
78.637427000000002
 30
0.0
 11
74.893152000000001
 21
78.489152000000004
 31
0.0
  0
LINE
  5
287
  8
DETAIL
  6
CONTINUOUS
 62
     5
 10
74.875917999999999
 20
78.780270000000002
 30
0.0
 11
74.88580300000001
 21
78.637427000000002
 31
0.0
  0
LINE
  5
288
  8
DETAIL
  6
CONTINUOUS
 62
     5
 10
74.863681999999997
 20
78.916197999999994
 30
0.0
 11
74.875917999999999
 21
78.780270000000002
 31
0.0
  0
LINE
  5
289
  8
DETAIL
  6
CONTINUOUS
 62
     5
 10
74.849195999999992
 20
79.043806000000004
 30
0.0
 11
74.863681999999997
 21
78.916197999999994
 31
0.0
  0
LINE
  5
28A
  8
DETAIL
  6
CONTINUOUS
 62
     5
 10
74.832650000000001
 20
79.161785999999992
 30
0.0
 11
74.849195999999992
 21
79.043806000000004
 31
0.0
  0
LINE
  5
28B
  8
DETAIL
  6
CONTINUOUS
 62
     5
 10
74.814193000000003
 20
79.268940000000001
 30
0.0
 11
74.832650000000001
 21
79.161785999999992
 31
0.0
  0
LINE
  5
28C
  8
DETAIL
  6
CONTINUOUS
 62
     5
 10
74.794048000000004
 20
79.364192000000003
 30
0.0
 11
74.814193000000003
 21
79.268940000000001
 31
0.0
  0
LINE
  5
28D
  8
DETAIL
  6
CONTINUOUS
 62
     5
 10
74.772404000000009
 20
79.446596
 30
0.0
 11
74.794048000000004
 21
79.364192000000003
 31
0.0
  0
LINE
  5
28E
  8
DETAIL
  6
CONTINUOUS
 62
     5
 10
74.749506000000011
 20
79.515349000000001
 30
0.0
 11
74.772404000000009
 21
79.446596
 31
0.0
  0
LINE
  5
28F
  8
DETAIL
  6
CONTINUOUS
 62
     5
 10
74.72557900000001
 20
79.569791000000009
 30
0.0
 11
74.749506000000011
 21
79.515349000000001
 31
0.0
  0
LINE
  5
290
  8
DETAIL
  6
CONTINUOUS
 62
     5
 10
74.700879
 20
79.609410999999994
 30
0.0
 11
74.72557900000001
 21
79.569791000000009
 31
0.0
  0
LINE
  5
291
  8
DETAIL
  6
CONTINUOUS
 62
     5
 10
74.675781000000001
 20
79.633852000000005
 30
0.0
 11
74.700879
 21
79.609410999999994
 31
0.0
  0
LINE
  5
292
  8
DETAIL
  6
CONTINUOUS
 62
     5
 10
74.65016
 20
79.642904000000001
 30
0.0
 11
74.675781000000001
 21
79.633852000000005
 31
0.0
  0
LINE
  5
293
  8
DETAIL
  6
CONTINUOUS
 62
     5
 10
74.898026999999999
 20
78.337005000000005
 30
0.0
 11
74.898158999999993
 21
78.326137000000003
 31
0.0
  0
LINE
  5
294
  8
DETAIL
  6
CONTINUOUS
 62
     5
 10
89.992781999999991
 20
78.662346999999997
 30
0.0
 11
89.999983999999998
 21
78.51565699999999
 31
0.0
  0
LINE
  5
295
  8
DETAIL
  6
CONTINUOUS
 62
     5
 10
89.971237000000016
 20
78.807695999999993
 30
0.0
 11
89.992781999999991
 21
78.662346999999997
 31
0.0
  0
LINE
  5
296
  8
DETAIL
  6
CONTINUOUS
 62
     5
 10
89.935531999999995
 20
78.95030899999999
 30
0.0
 11
89.971237000000016
 21
78.807695999999993
 31
0.0
  0
LINE
  5
297
  8
DETAIL
  6
CONTINUOUS
 62
     5
 10
89.885998000000015
 20
79.088785999999999
 30
0.0
 11
89.935531999999995
 21
78.95030899999999
 31
0.0
  0
LINE
  5
298
  8
DETAIL
  6
CONTINUOUS
 62
     5
 10
89.823099999999997
 20
79.22178199999999
 30
0.0
 11
89.885998000000015
 21
79.088785999999999
 31
0.0
  0
LINE
  5
299
  8
DETAIL
  6
CONTINUOUS
 62
     5
 10
89.747449000000003
 20
79.347980000000007
 30
0.0
 11
89.823099999999997
 21
79.22178199999999
 31
0.0
  0
LINE
  5
29A
  8
DETAIL
  6
CONTINUOUS
 62
     5
 10
89.659794999999988
 20
79.466132000000002
 30
0.0
 11
89.747449000000003
 21
79.347980000000007
 31
0.0
  0
LINE
  5
29B
  8
DETAIL
  6
CONTINUOUS
 62
     5
 10
89.560976999999994
 20
79.575112000000004
 30
0.0
 11
89.659794999999988
 21
79.466132000000002
 31
0.0
  0
LINE
  5
29C
  8
DETAIL
  6
CONTINUOUS
 62
     5
 10
89.451947000000004
 20
79.673872000000003
 30
0.0
 11
89.560976999999994
 21
79.575112000000004
 31
0.0
  0
LINE
  5
29D
  8
DETAIL
  6
CONTINUOUS
 62
     5
 10
89.333746999999988
 20
79.761465000000001
 30
0.0
 11
89.451947000000004
 21
79.673872000000003
 31
0.0
  0
LINE
  5
29E
  8
DETAIL
  6
CONTINUOUS
 62
     5
 10
89.207464000000002
 20
79.837074000000001
 30
0.0
 11
89.333746999999988
 21
79.761465000000001
 31
0.0
  0
LINE
  5
29F
  8
DETAIL
  6
CONTINUOUS
 62
     5
 10
89.074438999999998
 20
79.899895000000001
 30
0.0
 11
89.207464000000002
 21
79.837074000000001
 31
0.0
  0
LINE
  5
2A0
  8
DETAIL
  6
CONTINUOUS
 62
     5
 10
88.936128999999994
 20
79.949293000000011
 30
0.0
 11
89.074438999999998
 21
79.899895000000001
 31
0.0
  0
LINE
  5
2A1
  8
DETAIL
  6
CONTINUOUS
 62
     5
 10
88.793751999999998
 20
79.984887999999998
 30
0.0
 11
88.936128999999994
 21
79.949293000000011
 31
0.0
  0
LINE
  5
2A2
  8
DETAIL
  6
CONTINUOUS
 62
     5
 10
88.648593999999974
 20
80.006377999999984
 30
0.0
 11
88.793751999999998
 21
79.984887999999998
 31
0.0
  0
LINE
  5
2A3
  8
DETAIL
  6
CONTINUOUS
 62
     5
 10
88.502077999999983
 20
80.013563000000005
 30
0.0
 11
88.648593999999974
 21
80.006377999999984
 31
0.0
  0
LINE
  5
2A4
  8
OUTLINE
  6
CONTINUOUS
 62
     3
 10
-89.999995999999996
 20
-98.488499000000004
 30
0.0
 11
-89.999995999999996
 21
78.51565699999999
 31
0.0
  0
LINE
  5
2A5
  8
OUTLINE
  6
CONTINUOUS
 62
     3
 10
89.999995999999996
 20
78.51565699999999
 30
0.0
 11
89.999995999999996
 21
-98.488499000000004
 31
0.0
  0
LINE
  5
2A6
  8
OUTLINE
  6
CONTINUOUS
 62
     3
 10
-10.98254
 20
-99.986417000000003
 30
0.0
 11
-88.502077999999983
 21
-99.986417000000003
 31
0.0
  0
LINE
  5
2A7
  8
OUTLINE
  6
CONTINUOUS
 62
     3
 10
-89.992781999999991
 20
-98.635190000000009
 30
0.0
 11
-89.999983999999998
 21
-98.488499000000004
 31
0.0
  0
LINE
  5
2A8
  8
OUTLINE
  6
CONTINUOUS
 62
     3
 10
-89.971237000000016
 20
-98.780539000000005
 30
0.0
 11
-89.992781999999991
 21
-98.635190000000009
 31
0.0
  0
LINE
  5
2A9
  8
OUTLINE
  6
CONTINUOUS
 62
     3
 10
-89.935531999999995
 20
-98.923151000000004
 30
0.0
 11
-89.971237000000016
 21
-98.780539000000005
 31
0.0
  0
LINE
  5
2AA
  8
OUTLINE
  6
CONTINUOUS
 62
     3
 10
-89.885998000000015
 20
-99.061629000000011
 30
0.0
 11
-89.935531999999995
 21
-98.923151000000004
 31
0.0
  0
LINE
  5
2AB
  8
OUTLINE
  6
CONTINUOUS
 62
     3
 10
-89.823099999999997
 20
-99.194624000000005
 30
0.0
 11
-89.885998000000015
 21
-99.061629000000011
 31
0.0
  0
LINE
  5
2AC
  8
OUTLINE
  6
CONTINUOUS
 62
     3
 10
-89.747449000000003
 20
-99.320823000000004
 30
0.0
 11
-89.823099999999997
 21
-99.194624000000005
 31
0.0
  0
LINE
  5
2AD
  8
OUTLINE
  6
CONTINUOUS
 62
     3
 10
-89.659794999999988
 20
-99.438974000000002
 30
0.0
 11
-89.747449000000003
 21
-99.320823000000004
 31
0.0
  0
LINE
  5
2AE
  8
OUTLINE
  6
CONTINUOUS
 62
     3
 10
-89.560976999999994
 20
-99.547955000000016
 30
0.0
 11
-89.659794999999988
 21
-99.438974000000002
 31
0.0
  0
LINE
  5
2AF
  8
OUTLINE
  6
CONTINUOUS
 62
     3
 10
-89.451947000000004
 20
-99.646714000000003
 30
0.0
 11
-89.560976999999994
 21
-99.547955000000016
 31
0.0
  0
LINE
  5
2B0
  8
OUTLINE
  6
CONTINUOUS
 62
     3
 10
-89.333746999999988
 20
-99.734307000000015
 30
0.0
 11
-89.451947000000004
 21
-99.646714000000003
 31
0.0
  0
LINE
  5
2B1
  8
OUTLINE
  6
CONTINUOUS
 62
     3
 10
-89.207464000000002
 20
-99.809916000000015
 30
0.0
 11
-89.333746999999988
 21
-99.734307000000015
 31
0.0
  0
LINE
  5
2B2
  8
OUTLINE
  6
CONTINUOUS
 62
     3
 10
-89.074438999999998
 20
-99.872737000000015
 30
0.0
 11
-89.207464000000002
 21
-99.809916000000015
 31
0.0
  0
LINE
  5
2B3
  8
OUTLINE
  6
CONTINUOUS
 62
     3
 10
-88.936128999999994
 20
-99.922134999999997
 30
0.0
 11
-89.074438999999998
 21
-99.872737000000015
 31
0.0
  0
LINE
  5
2B4
  8
OUTLINE
  6
CONTINUOUS
 62
     3
 10
-88.793751999999998
 20
-99.957729999999984
 30
0.0
 11
-88.936128999999994
 21
-99.922134999999997
 31
0.0
  0
LINE
  5
2B5
  8
OUTLINE
  6
CONTINUOUS
 62
     3
 10
-88.648593999999974
 20
-99.979220999999995
 30
0.0
 11
-88.793751999999998
 21
-99.957729999999984
 31
0.0
  0
LINE
  5
2B6
  8
OUTLINE
  6
CONTINUOUS
 62
     3
 10
-88.502077999999983
 20
-99.986405000000005
 30
0.0
 11
-88.648593999999974
 21
-99.979220999999995
 31
0.0
  0
LINE
  5
2B7
  8
OUTLINE
  6
CONTINUOUS
 62
     3
 10
35.386078999999988
 20
-99.980289000000013
 30
0.0
 11
66.600758999999996
 21
-99.979995999999986
 31
0.0
  0
LINE
  5
2B8
  8
OUTLINE
  6
CONTINUOUS
 62
     3
 10
19.972842
 20
-99.986417000000003
 30
0.0
 11
10.98254
 21
-99.986417000000003
 31
0.0
  0
LINE
  5
2B9
  8
OUTLINE
  6
CONTINUOUS
 62
     3
 10
-6.5733670000000002
 20
-99.851592000000011
 30
0.0
 11
6.7821360000000004
 21
-99.852194999999995
 31
0.0
  0
LINE
  5
2BA
  8
OUTLINE
  6
CONTINUOUS
 62
     3
 10
6.5733670000000002
 20
-99.851592000000011
 30
0.0
 11
6.7821360000000004
 21
-99.852194999999995
 31
0.0
  0
LINE
  5
2BB
  8
OUTLINE
  6
CONTINUOUS
 62
     3
 10
10.549617
 20
-99.887701000000007
 30
0.0
 11
10.543730999999999
 21
-99.88445200000001
 31
0.0
  0
LINE
  5
2BC
  8
OUTLINE
  6
CONTINUOUS
 62
     3
 10
10.652915
 20
-99.930445999999989
 30
0.0
 11
10.549617
 21
-99.887701000000007
 31
0.0
  0
LINE
  5
2BD
  8
OUTLINE
  6
CONTINUOUS
 62
     3
 10
10.76031399999999
 20
-99.961371
 30
0.0
 11
10.652915
 21
-99.930445999999989
 31
0.0
  0
LINE
  5
2BE
  8
OUTLINE
  6
CONTINUOUS
 62
     3
 10
10.87067
 20
-99.980121999999994
 30
0.0
 11
10.76031399999999
 21
-99.961371
 31
0.0
  0
LINE
  5
2BF
  8
OUTLINE
  6
CONTINUOUS
 62
     3
 10
10.98254
 20
-99.986405000000005
 30
0.0
 11
10.87067
 21
-99.980121999999994
 31
0.0
  0
LINE
  5
2C0
  8
OUTLINE
  6
CONTINUOUS
 62
     3
 10
10.51336199999999
 20
-99.883702999999997
 30
0.0
 11
10.61135099999999
 21
-99.886270999999994
 31
0.0
  0
LINE
  5
2C1
  8
OUTLINE
  6
CONTINUOUS
 62
     3
 10
10.359914
 20
-99.880390000000006
 30
0.0
 11
10.51336199999999
 21
-99.883702999999997
 31
0.0
  0
LINE
  5
2C2
  8
OUTLINE
  6
CONTINUOUS
 62
     3
 10
10.086182000000001
 20
-99.875690000000006
 30
0.0
 11
10.359914
 21
-99.880390000000006
 31
0.0
  0
LINE
  5
2C3
  8
OUTLINE
  6
CONTINUOUS
 62
     3
 10
9.5748429999999995
 20
-99.869139000000004
 30
0.0
 11
10.086182000000001
 21
-99.875690000000006
 31
0.0
  0
LINE
  5
2C4
  8
OUTLINE
  6
CONTINUOUS
 62
     3
 10
8.4579500000000003
 20
-99.859762000000003
 30
0.0
 11
9.5748429999999995
 21
-99.869139000000004
 31
0.0
  0
LINE
  5
2C5
  8
OUTLINE
  6
CONTINUOUS
 62
     3
 10
6.7821360000000004
 20
-99.852194999999995
 30
0.0
 11
8.4579500000000003
 21
-99.859762000000003
 31
0.0
  0
LINE
  5
2C6
  8
OUTLINE
  6
CONTINUOUS
 62
     3
 10
34.952474000000002
 20
-99.986417000000003
 30
0.0
 11
34.453153
 21
-99.986417000000003
 31
0.0
  0
LINE
  5
2C7
  8
OUTLINE
  6
CONTINUOUS
 62
     3
 10
34.453153
 20
-99.986405000000005
 30
0.0
 11
19.972842
 21
-99.986417000000003
 31
0.0
  0
LINE
  5
2C8
  8
OUTLINE
  6
CONTINUOUS
 62
     3
 10
35.055703999999992
 20
-99.978623000000013
 30
0.0
 11
35.147866
 21
-99.979427000000015
 31
0.0
  0
LINE
  5
2C9
  8
OUTLINE
  6
CONTINUOUS
 62
     3
 10
35.019373000000002
 20
-99.978149000000016
 30
0.0
 11
35.055703999999992
 21
-99.978623000000013
 31
0.0
  0
LINE
  5
2CA
  8
OUTLINE
  6
CONTINUOUS
 62
     3
 10
34.990534999999987
 20
-99.977638000000013
 30
0.0
 11
35.019373000000002
 21
-99.978149000000016
 31
0.0
  0
LINE
  5
2CB
  8
OUTLINE
  6
CONTINUOUS
 62
     3
 10
34.969489000000003
 20
-99.977097999999998
 30
0.0
 11
34.990534999999987
 21
-99.977638000000013
 31
0.0
  0
LINE
  5
2CC
  8
OUTLINE
  6
CONTINUOUS
 62
     3
 10
35.147866
 20
-99.979427000000015
 30
0.0
 11
35.386078999999988
 21
-99.980289000000013
 31
0.0
  0
LINE
  5
2CD
  8
OUTLINE
  6
CONTINUOUS
 62
     3
 10
88.502077999999983
 20
-99.986417000000003
 30
0.0
 11
66.909021999999993
 21
-99.986417000000003
 31
0.0
  0
LINE
  5
2CE
  8
OUTLINE
  6
CONTINUOUS
 62
     3
 10
66.600758999999996
 20
-99.979995999999986
 30
0.0
 11
66.762771000000001
 21
-99.979050999999998
 31
0.0
  0
LINE
  5
2CF
  8
OUTLINE
  6
CONTINUOUS
 62
     3
 10
66.762771000000001
 20
-99.979050999999998
 30
0.0
 11
66.842123999999984
 21
-99.978149000000016
 31
0.0
  0
LINE
  5
2D0
  8
OUTLINE
  6
CONTINUOUS
 62
     3
 10
66.904623999999998
 20
-99.976544000000004
 30
0.0
 11
66.909021999999993
 21
-99.975969999999975
 31
0.0
  0
LINE
  5
2D1
  8
OUTLINE
  6
CONTINUOUS
 62
     3
 10
66.89200799999999
 20
-99.977097999999998
 30
0.0
 11
66.904623999999998
 21
-99.976544000000004
 31
0.0
  0
LINE
  5
2D2
  8
OUTLINE
  6
CONTINUOUS
 62
     3
 10
66.870962000000006
 20
-99.977638000000013
 30
0.0
 11
66.89200799999999
 21
-99.977097999999998
 31
0.0
  0
LINE
  5
2D3
  8
OUTLINE
  6
CONTINUOUS
 62
     3
 10
66.842123999999984
 20
-99.978149000000016
 30
0.0
 11
66.870962000000006
 21
-99.977638000000013
 31
0.0
  0
LINE
  5
2D4
  8
OUTLINE
  6
CONTINUOUS
 62
     3
 10
88.648593999999974
 20
-99.979220999999995
 30
0.0
 11
88.502077999999983
 21
-99.986405000000005
 31
0.0
  0
LINE
  5
2D5
  8
OUTLINE
  6
CONTINUOUS
 62
     3
 10
88.793751999999998
 20
-99.957729999999984
 30
0.0
 11
88.648593999999974
 21
-99.979220999999995
 31
0.0
  0
LINE
  5
2D6
  8
OUTLINE
  6
CONTINUOUS
 62
     3
 10
88.936128999999994
 20
-99.922134999999997
 30
0.0
 11
88.793751999999998
 21
-99.957729999999984
 31
0.0
  0
LINE
  5
2D7
  8
OUTLINE
  6
CONTINUOUS
 62
     3
 10
89.074438999999998
 20
-99.872737000000015
 30
0.0
 11
88.936128999999994
 21
-99.922134999999997
 31
0.0
  0
LINE
  5
2D8
  8
OUTLINE
  6
CONTINUOUS
 62
     3
 10
89.207464000000002
 20
-99.809916000000015
 30
0.0
 11
89.074438999999998
 21
-99.872737000000015
 31
0.0
  0
LINE
  5
2D9
  8
OUTLINE
  6
CONTINUOUS
 62
     3
 10
89.333746999999988
 20
-99.734307000000015
 30
0.0
 11
89.207464000000002
 21
-99.809916000000015
 31
0.0
  0
LINE
  5
2DA
  8
OUTLINE
  6
CONTINUOUS
 62
     3
 10
89.451947000000004
 20
-99.646714000000003
 30
0.0
 11
89.333746999999988
 21
-99.734307000000015
 31
0.0
  0
LINE
  5
2DB
  8
OUTLINE
  6
CONTINUOUS
 62
     3
 10
89.560976999999994
 20
-99.547955000000016
 30
0.0
 11
89.451947000000004
 21
-99.646714000000003
 31
0.0
  0
LINE
  5
2DC
  8
OUTLINE
  6
CONTINUOUS
 62
     3
 10
89.659794999999988
 20
-99.438974000000002
 30
0.0
 11
89.560976999999994
 21
-99.547955000000016
 31
0.0
  0
LINE
  5
2DD
  8
OUTLINE
  6
CONTINUOUS
 62
     3
 10
89.747449000000003
 20
-99.320823000000004
 30
0.0
 11
89.659794999999988
 21
-99.438974000000002
 31
0.0
  0
LINE
  5
2DE
  8
OUTLINE
  6
CONTINUOUS
 62
     3
 10
89.823099999999997
 20
-99.194624000000005
 30
0.0
 11
89.747449000000003
 21
-99.320823000000004
 31
0.0
  0
LINE
  5
2DF
  8
OUTLINE
  6
CONTINUOUS
 62
     3
 10
89.885998000000015
 20
-99.061629000000011
 30
0.0
 11
89.823099999999997
 21
-99.194624000000005
 31
0.0
  0
LINE
  5
2E0
  8
OUTLINE
  6
CONTINUOUS
 62
     3
 10
89.935531999999995
 20
-98.923151000000004
 30
0.0
 11
89.885998000000015
 21
-99.061629000000011
 31
0.0
  0
LINE
  5
2E1
  8
OUTLINE
  6
CONTINUOUS
 62
     3
 10
89.971237000000016
 20
-98.780539000000005
 30
0.0
 11
89.935531999999995
 21
-98.923151000000004
 31
0.0
  0
LINE
  5
2E2
  8
OUTLINE
  6
CONTINUOUS
 62
     3
 10
89.992781999999991
 20
-98.635190000000009
 30
0.0
 11
89.971237000000016
 21
-98.780539000000005
 31
0.0
  0
LINE
  5
2E3
  8
OUTLINE
  6
CONTINUOUS
 62
     3
 10
89.999983999999998
 20
-98.488499000000004
 30
0.0
 11
89.992781999999991
 21
-98.635190000000009
 31
0.0
  0
LINE
  5
2E4
  8
OUTLINE
  6
CONTINUOUS
 62
     3
 10
-88.502077999999983
 20
80.013574000000006
 30
0.0
 11
88.502077999999983
 21
80.013574000000006
 31
0.0
  0
LINE
  5
2E5
  8
OUTLINE
  6
CONTINUOUS
 62
     3
 10
-88.648593999999974
 20
80.006377999999984
 30
0.0
 11
-88.502077999999983
 21
80.013563000000005
 31
0.0
  0
LINE
  5
2E6
  8
OUTLINE
  6
CONTINUOUS
 62
     3
 10
-88.793751999999998
 20
79.984887999999998
 30
0.0
 11
-88.648593999999974
 21
80.006377999999984
 31
0.0
  0
LINE
  5
2E7
  8
OUTLINE
  6
CONTINUOUS
 62
     3
 10
-88.936128999999994
 20
79.949293000000011
 30
0.0
 11
-88.793751999999998
 21
79.984887999999998
 31
0.0
  0
LINE
  5
2E8
  8
OUTLINE
  6
CONTINUOUS
 62
     3
 10
-89.074438999999998
 20
79.899895000000001
 30
0.0
 11
-88.936128999999994
 21
79.949293000000011
 31
0.0
  0
LINE
  5
2E9
  8
OUTLINE
  6
CONTINUOUS
 62
     3
 10
-89.207464000000002
 20
79.837074000000001
 30
0.0
 11
-89.074438999999998
 21
79.899895000000001
 31
0.0
  0
LINE
  5
2EA
  8
OUTLINE
  6
CONTINUOUS
 62
     3
 10
-89.333746999999988
 20
79.761465000000001
 30
0.0
 11
-89.207464000000002
 21
79.837074000000001
 31
0.0
  0
LINE
  5
2EB
  8
OUTLINE
  6
CONTINUOUS
 62
     3
 10
-89.451947000000004
 20
79.673872000000003
 30
0.0
 11
-89.333746999999988
 21
79.761465000000001
 31
0.0
  0
LINE
  5
2EC
  8
OUTLINE
  6
CONTINUOUS
 62
     3
 10
-89.560976999999994
 20
79.575112000000004
 30
0.0
 11
-89.451947000000004
 21
79.673872000000003
 31
0.0
  0
LINE
  5
2ED
  8
OUTLINE
  6
CONTINUOUS
 62
     3
 10
-89.659794999999988
 20
79.466132000000002
 30
0.0
 11
-89.560976999999994
 21
79.575112000000004
 31
0.0
  0
LINE
  5
2EE
  8
OUTLINE
  6
CONTINUOUS
 62
     3
 10
-89.747449000000003
 20
79.347980000000007
 30
0.0
 11
-89.659794999999988
 21
79.466132000000002
 31
0.0
  0
LINE
  5
2EF
  8
OUTLINE
  6
CONTINUOUS
 62
     3
 10
-89.823099999999997
 20
79.22178199999999
 30
0.0
 11
-89.747449000000003
 21
79.347980000000007
 31
0.0
  0
LINE
  5
2F0
  8
OUTLINE
  6
CONTINUOUS
 62
     3
 10
-89.885998000000015
 20
79.088785999999999
 30
0.0
 11
-89.823099999999997
 21
79.22178199999999
 31
0.0
  0
LINE
  5
2F1
  8
OUTLINE
  6
CONTINUOUS
 62
     3
 10
-89.935531999999995
 20
78.95030899999999
 30
0.0
 11
-89.885998000000015
 21
79.088785999999999
 31
0.0
  0
LINE
  5
2F2
  8
OUTLINE
  6
CONTINUOUS
 62
     3
 10
-89.971237000000016
 20
78.807695999999993
 30
0.0
 11
-89.935531999999995
 21
78.95030899999999
 31
0.0
  0
LINE
  5
2F3
  8
OUTLINE
  6
CONTINUOUS
 62
     3
 10
-89.992781999999991
 20
78.662346999999997
 30
0.0
 11
-89.971237000000016
 21
78.807695999999993
 31
0.0
  0
LINE
  5
2F4
  8
OUTLINE
  6
CONTINUOUS
 62
     3
 10
-89.999983999999998
 20
78.51565699999999
 30
0.0
 11
-89.992781999999991
 21
78.662346999999997
 31
0.0
  0
LINE
  5
2F5
  8
OUTLINE
  6
CONTINUOUS
 62
     3
 10
89.992781999999991
 20
78.662346999999997
 30
0.0
 11
89.999983999999998
 21
78.51565699999999
 31
0.0
  0
LINE
  5
2F6
  8
OUTLINE
  6
CONTINUOUS
 62
     3
 10
89.971237000000016
 20
78.807695999999993
 30
0.0
 11
89.992781999999991
 21
78.662346999999997
 31
0.0
  0
LINE
  5
2F7
  8
OUTLINE
  6
CONTINUOUS
 62
     3
 10
89.935531999999995
 20
78.95030899999999
 30
0.0
 11
89.971237000000016
 21
78.807695999999993
 31
0.0
  0
LINE
  5
2F8
  8
OUTLINE
  6
CONTINUOUS
 62
     3
 10
89.885998000000015
 20
79.088785999999999
 30
0.0
 11
89.935531999999995
 21
78.95030899999999
 31
0.0
  0
LINE
  5
2F9
  8
OUTLINE
  6
CONTINUOUS
 62
     3
 10
89.823099999999997
 20
79.22178199999999
 30
0.0
 11
89.885998000000015
 21
79.088785999999999
 31
0.0
  0
LINE
  5
2FA
  8
OUTLINE
  6
CONTINUOUS
 62
     3
 10
89.747449000000003
 20
79.347980000000007
 30
0.0
 11
89.823099999999997
 21
79.22178199999999
 31
0.0
  0
LINE
  5
2FB
  8
OUTLINE
  6
CONTINUOUS
 62
     3
 10
89.659794999999988
 20
79.466132000000002
 30
0.0
 11
89.747449000000003
 21
79.347980000000007
 31
0.0
  0
LINE
  5
2FC
  8
OUTLINE
  6
CONTINUOUS
 62
     3
 10
89.560976999999994
 20
79.575112000000004
 30
0.0
 11
89.659794999999988
 21
79.466132000000002
 31
0.0
  0
LINE
  5
2FD
  8
OUTLINE
  6
CONTINUOUS
 62
     3
 10
89.451947000000004
 20
79.673872000000003
 30
0.0
 11
89.560976999999994
 21
79.575112000000004
 31
0.0
  0
LINE
  5
2FE
  8
OUTLINE
  6
CONTINUOUS
 62
     3
 10
89.333746999999988
 20
79.761465000000001
 30
0.0
 11
89.451947000000004
 21
79.673872000000003
 31
0.0
  0
LINE
  5
2FF
  8
OUTLINE
  6
CONTINUOUS
 62
     3
 10
89.207464000000002
 20
79.837074000000001
 30
0.0
 11
89.333746999999988
 21
79.761465000000001
 31
0.0
  0
LINE
  5
300
  8
OUTLINE
  6
CONTINUOUS
 62
     3
 10
89.074438999999998
 20
79.899895000000001
 30
0.0
 11
89.207464000000002
 21
79.837074000000001
 31
0.0
  0
LINE
  5
301
  8
OUTLINE
  6
CONTINUOUS
 62
     3
 10
88.936128999999994
 20
79.949293000000011
 30
0.0
 11
89.074438999999998
 21
79.899895000000001
 31
0.0
  0
LINE
  5
302
  8
OUTLINE
  6
CONTINUOUS
 62
     3
 10
88.793751999999998
 20
79.984887999999998
 30
0.0
 11
88.936128999999994
 21
79.949293000000011
 31
0.0
  0
LINE
  5
303
  8
OUTLINE
  6
CONTINUOUS
 62
     3
 10
88.648593999999974
 20
80.006377999999984
 30
0.0
 11
88.793751999999998
 21
79.984887999999998
 31
0.0
  0
LINE
  5
304
  8
OUTLINE
  6
CONTINUOUS
 62
     3
 10
88.502077999999983
 20
80.013563000000005
 30
0.0
 11
88.648593999999974
 21
80.006377999999984
 31
0.0
  0
LINE
  5
305
  8
BASIS
  6
DASHDOT
 62
     6
 39
50.0
 10
-60.038401999999998
 20
6.0135990000000001
 30
0.0
 11
-99.970636999999996
 21
6.0135979999999991
 31
0.0
  0
LINE
  5
306
  8
BASIS
  6
DASHDOT
 62
     6
 39
50.0
 10
99.961597999999995
 20
6.0135990000000001
 30
0.0
 11
60.029362999999996
 21
6.0135979999999991
 31
0.0
  0
LINE
  5
307
  8
SIZE
  6
CONTINUOUS
 62
    30
 10
-89.999995999999996
 20
-118.488499
 30
0.0
 11
-89.999995999999996
 21
-455.19782599999991
 31
0.0
  0
LINE
  5
308
  8
SIZE
  6
CONTINUOUS
 62
    30
 10
89.999995999999996
 20
-118.488499
 30
0.0
 11
89.999995999999996
 21
-455.19782599999991
 31
0.0
  0
LINE
  5
309
  8
SIZE
  6
CONTINUOUS
 62
    30
 10
-101.999996
 20
-435.19782600000002
 30
0.0
 11
-113.9999959999999
 21
-435.19782600000002
 31
0.0
  0
LINE
  5
30A
  8
SIZE
  6
CONTINUOUS
 62
    30
 10
101.999996
 20
-435.19782600000002
 30
0.0
 11
113.9999959999999
 21
-435.19782600000002
 31
0.0
  0
LINE
  5
30B
  8
SIZE
  6
CONTINUOUS
 62
    30
 10
-89.999995999999996
 20
-435.19782600000002
 30
0.0
 11
89.999995999999996
 21
-435.19782600000002
 31
0.0
  0
CIRCLE
  5
30C
  8
SIZE
  6
CONTINUOUS
 62
    30
 10
-89.999995999999996
 20
-435.19782600000002
 30
0.0
 40
6.0
  0
LINE
  5
30D
  8
SIZE
  6
CONTINUOUS
 62
    30
 10
-89.999995999999996
 20
-435.19782600000002
 30
0.0
 11
-101.999996
 21
-435.19782600000002
 31
0.0
  0
CIRCLE
  5
30E
  8
SIZE
  6
CONTINUOUS
 62
    30
 10
89.999995999999996
 20
-435.19782600000002
 30
0.0
 40
6.0
  0
LINE
  5
30F
  8
SIZE
  6
CONTINUOUS
 62
    30
 10
89.999995999999996
 20
-435.19782600000002
 30
0.0
 11
101.999996
 21
-435.19782600000002
 31
0.0
  0
TEXT
  5
310
  8
SIZE
  6
CONTINUOUS
 62
    30
 10
-68.571428571428555
 20
-410.19782600000002
 30
0.0
 40
64.0
  1
180
 41
0.9
 72
     1
 11
0.0
 21
-410.19782600000002
 31
0.0
  0
LINE
  5
314
  8
SIZE
  6
CONTINUOUS
 62
    30
 10
-80.108630000000005
 20
-36.990473999999992
 30
0.0
 11
-80.108630000000005
 21
-326.51335999999998
 31
0.0
  0
LINE
  5
315
  8
SIZE
  6
CONTINUOUS
 62
    30
 10
79.891369999999995
 20
-36.990473999999992
 30
0.0
 11
79.891369999999995
 21
-326.51335999999998
 31
0.0
  0
LINE
  5
316
  8
SIZE
  6
CONTINUOUS
 62
    30
 10
-92.108630000000005
 20
-306.51335999999998
 30
0.0
 11
-104.10863000000001
 21
-306.51335999999998
 31
0.0
  0
LINE
  5
317
  8
SIZE
  6
CONTINUOUS
 62
    30
 10
91.891369999999995
 20
-306.51335999999998
 30
0.0
 11
103.8913699999999
 21
-306.51335999999998
 31
0.0
  0
LINE
  5
318
  8
SIZE
  6
CONTINUOUS
 62
    30
 10
-80.108630000000005
 20
-306.51335999999998
 30
0.0
 11
79.891369999999995
 21
-306.51335999999998
 31
0.0
  0
CIRCLE
  5
319
  8
SIZE
  6
CONTINUOUS
 62
    30
 10
-80.108630000000005
 20
-306.51335999999998
 30
0.0
 40
6.0
  0
LINE
  5
31A
  8
SIZE
  6
CONTINUOUS
 62
    30
 10
-80.108630000000005
 20
-306.51335999999998
 30
0.0
 11
-92.108630000000005
 21
-306.51335999999998
 31
0.0
  0
CIRCLE
  5
31B
  8
SIZE
  6
CONTINUOUS
 62
    30
 10
79.891369999999995
 20
-306.51335999999998
 30
0.0
 40
6.0
  0
LINE
  5
31C
  8
SIZE
  6
CONTINUOUS
 62
    30
 10
79.891369999999995
 20
-306.51335999999998
 30
0.0
 11
91.891369999999995
 21
-306.51335999999998
 31
0.0
  0
TEXT
  5
31D
  8
SIZE
  6
CONTINUOUS
 62
    30
 10
-68.68005857142856
 20
-281.51335999999998
 30
0.0
 40
64.0
  1
160
 41
0.9
 72
     1
 11
-0.10863
 21
-281.51335999999998
 31
0.0
  0
LINE
  5
321
  8
SIZE
  6
CONTINUOUS
 62
    30
 10
108.502078
 20
-99.986417000000003
 30
0.0
 11
593.87710500000003
 21
-99.986417000000003
 31
0.0
  0
LINE
  5
322
  8
SIZE
  6
CONTINUOUS
 62
    30
 10
108.502078
 20
80.013563000000005
 30
0.0
 11
593.87710500000003
 21
80.013563000000005
 31
0.0
  0
LINE
  5
323
  8
SIZE
  6
CONTINUOUS
 62
    30
 10
573.87710500000003
 20
-111.9864169999999
 30
0.0
 11
573.87710500000003
 21
-123.9864169999999
 31
0.0
  0
LINE
  5
324
  8
SIZE
  6
CONTINUOUS
 62
    30
 10
573.87710500000003
 20
92.013563000000005
 30
0.0
 11
573.87710500000003
 21
104.01356299999991
 31
0.0
  0
LINE
  5
325
  8
SIZE
  6
CONTINUOUS
 62
    30
 10
573.87710500000003
 20
-99.986417000000003
 30
0.0
 11
573.87710500000003
 21
80.013563000000005
 31
0.0
  0
CIRCLE
  5
326
  8
SIZE
  6
CONTINUOUS
 62
    30
 10
573.87710500000003
 20
-99.986417000000003
 30
0.0
 40
6.0
  0
LINE
  5
327
  8
SIZE
  6
CONTINUOUS
 62
    30
 10
573.87710500000003
 20
-99.986417000000003
 30
0.0
 11
573.87710500000003
 21
-111.9864169999999
 31
0.0
  0
CIRCLE
  5
328
  8
SIZE
  6
CONTINUOUS
 62
    30
 10
573.87710500000003
 20
80.013563000000005
 30
0.0
 40
6.0
  0
LINE
  5
329
  8
SIZE
  6
CONTINUOUS
 62
    30
 10
573.87710500000003
 20
80.013563000000005
 30
0.0
 11
573.87710500000003
 21
92.013563000000005
 31
0.0
  0
TEXT
  5
32A
  8
SIZE
  6
CONTINUOUS
 62
    30
 10
548.87710500000003
 20
-78.557855571428561
 30
0.0
 40
64.0
  1
180
 50
90.0
 41
0.9
 72
     1
 11
548.87710500000003
 21
-9.9864270000000008
 31
0.0
  0
LINE
  5
32E
  8
SIZE
  6
CONTINUOUS
 62
    30
 10
119.9615979999999
 20
6.0135990000000001
 30
0.0
 11
318.26950799999997
 21
6.0135990000000001
 31
0.0
  0
LINE
  5
32F
  8
SIZE
  6
CONTINUOUS
 62
    30
 10
143.75393700000001
 20
0.013603
 30
0.0
 11
318.26950799999997
 21
0.013603
 31
0.0
  0
LINE
  5
330
  8
SIZE
  6
CONTINUOUS
 62
    30
 10
298.26950799999997
 20
-11.98639699999999
 30
0.0
 11
298.26950799999997
 21
-23.98639699999999
 31
0.0
  0
LINE
  5
331
  8
SIZE
  6
CONTINUOUS
 62
    30
 10
298.26950799999997
 20
18.013598999999989
 30
0.0
 11
298.26950799999997
 21
195.0603429999999
 31
0.0
  0
LINE
  5
332
  8
SIZE
  6
CONTINUOUS
 62
    30
 10
298.26950799999997
 20
0.013603
 30
0.0
 11
298.26950799999997
 21
6.0135990000000001
 31
0.0
  0
CIRCLE
  5
333
  8
SIZE
  6
CONTINUOUS
 62
    30
 10
298.26950799999997
 20
0.013603
 30
0.0
 40
6.0
  0
LINE
  5
334
  8
SIZE
  6
CONTINUOUS
 62
    30
 10
298.26950799999997
 20
0.013603
 30
0.0
 11
298.26950799999997
 21
-11.98639699999999
 31
0.0
  0
CIRCLE
  5
335
  8
SIZE
  6
CONTINUOUS
 62
    30
 10
298.26950799999997
 20
6.0135990000000001
 30
0.0
 40
6.0
  0
LINE
  5
336
  8
SIZE
  6
CONTINUOUS
 62
    30
 10
298.26950799999997
 20
6.0135990000000001
 30
0.0
 11
298.26950799999997
 21
18.013598999999989
 31
0.0
  0
TEXT
  5
337
  8
SIZE
  6
CONTINUOUS
 62
    30
 10
273.26950799999997
 20
134.4032005714285
 30
0.0
 40
64.0
  1
6
 50
90.0
 41
0.9
 72
     1
 11
273.26950799999997
 21
152.23177200000001
 31
0.0
  0
LINE
  5
33B
  8
SIZE
  6
CONTINUOUS
 62
    30
 10
108.502078
 20
80.013574000000006
 30
0.0
 11
458.70650199999989
 21
80.013574000000006
 31
0.0
  0
LINE
  5
33C
  8
SIZE
  6
CONTINUOUS
 62
    30
 10
143.75393700000001
 20
0.013603
 30
0.0
 11
458.70650199999989
 21
0.013603
 31
0.0
  0
LINE
  5
33D
  8
SIZE
  6
CONTINUOUS
 62
    30
 10
438.70650199999989
 20
12.013603
 30
0.0
 11
438.70650199999989
 21
68.013574000000006
 31
0.0
  0
LINE
  5
33E
  8
SIZE
  6
CONTINUOUS
 62
    30
 10
438.70650199999989
 20
80.013574000000006
 30
0.0
 11
438.70650199999989
 21
235.27071699999991
 31
0.0
  0
CIRCLE
  5
33F
  8
SIZE
  6
CONTINUOUS
 62
    30
 10
438.70650199999989
 20
0.013603
 30
0.0
 40
6.0
  0
LINE
  5
340
  8
SIZE
  6
CONTINUOUS
 62
    30
 10
438.70650199999989
 20
0.013603
 30
0.0
 11
438.70650199999989
 21
12.013603
 31
0.0
  0
CIRCLE
  5
341
  8
SIZE
  6
CONTINUOUS
 62
    30
 10
438.70650199999989
 20
80.013574000000006
 30
0.0
 40
6.0
  0
LINE
  5
342
  8
SIZE
  6
CONTINUOUS
 62
    30
 10
438.70650199999989
 20
80.013574000000006
 30
0.0
 11
438.70650199999989
 21
68.013574000000006
 31
0.0
  0
TEXT
  5
343
  8
SIZE
  6
CONTINUOUS
 62
    30
 10
413.70650199999989
 20
117.01357457142851
 30
0.0
 40
64.0
  1
80
 50
90.0
 41
0.9
 72
     1
 11
413.70650199999989
 21
163.642146
 31
0.0
  0
LINE
  5
347
  8
OUTLINE
  6
CONTINUOUS
 62
     3
 10
-6.5733670000000002
 20
-99.851592000000011
 30
0.0
 11
-6.7821360000000004
 21
-99.852194999999995
 31
0.0
  0
LINE
  5
348
  8
OUTLINE
  6
CONTINUOUS
 62
     3
 10
-10.549617
 20
-99.887701000000007
 30
0.0
 11
-10.543730999999999
 21
-99.88445200000001
 31
0.0
  0
LINE
  5
349
  8
OUTLINE
  6
CONTINUOUS
 62
     3
 10
-10.652915
 20
-99.930445999999989
 30
0.0
 11
-10.549617
 21
-99.887701000000007
 31
0.0
  0
LINE
  5
34A
  8
OUTLINE
  6
CONTINUOUS
 62
     3
 10
-10.76031399999999
 20
-99.961371
 30
0.0
 11
-10.652915
 21
-99.930445999999989
 31
0.0
  0
LINE
  5
34B
  8
OUTLINE
  6
CONTINUOUS
 62
     3
 10
-10.87067
 20
-99.980121999999994
 30
0.0
 11
-10.76031399999999
 21
-99.961371
 31
0.0
  0
LINE
  5
34C
  8
OUTLINE
  6
CONTINUOUS
 62
     3
 10
-10.98254
 20
-99.986405000000005
 30
0.0
 11
-10.87067
 21
-99.980121999999994
 31
0.0
  0
LINE
  5
34D
  8
OUTLINE
  6
CONTINUOUS
 62
     3
 10
-10.51336199999999
 20
-99.883702999999997
 30
0.0
 11
-10.61135099999999
 21
-99.886270999999994
 31
0.0
  0
LINE
  5
34E
  8
OUTLINE
  6
CONTINUOUS
 62
     3
 10
-10.359914
 20
-99.880390000000006
 30
0.0
 11
-10.51336199999999
 21
-99.883702999999997
 31
0.0
  0
LINE
  5
34F
  8
OUTLINE
  6
CONTINUOUS
 62
     3
 10
-10.086182000000001
 20
-99.875690000000006
 30
0.0
 11
-10.359914
 21
-99.880390000000006
 31
0.0
  0
LINE
  5
350
  8
OUTLINE
  6
CONTINUOUS
 62
     3
 10
-9.5748429999999995
 20
-99.869139000000004
 30
0.0
 11
-10.086182000000001
 21
-99.875690000000006
 31
0.0
  0
LINE
  5
351
  8
OUTLINE
  6
CONTINUOUS
 62
     3
 10
-8.4579500000000003
 20
-99.859762000000003
 30
0.0
 11
-9.5748429999999995
 21
-99.869139000000004
 31
0.0
  0
LINE
  5
352
  8
OUTLINE
  6
CONTINUOUS
 62
     3
 10
-6.7821360000000004
 20
-99.852194999999995
 30
0.0
 11
-8.4579500000000003
 21
-99.859762000000003
 31
0.0
  0
TEXT
  5
35B
  8
ETC
  6
CONTINUOUS
 62
    61
 10
397.65054005449531
 20
375.3801239694879
 30
0.0
 40
40.0
  1
換気扇
 41
0.9
  0
TEXT
  5
35C
  8
ETC
  6
CONTINUOUS
 62
    61
 10
403.07638405449501
 20
435.4502399694876
 30
0.0
 40
40.0
  1
V-08PEALD5_2
 41
0.9
  0
TEXT
  5
35D
  8
ETC
  6
CONTINUOUS
 62
    61
 10
453.07235305449501
 20
305.4260459694878
 30
0.0
 40
40.0
  1
V-08PEALD5
 41
0.9
  0
ENDSEC
  0
EOF
