  0
SECTION
  2
HEADER
  9
$ACADVER
  1
AC1009
  9
$INSBASE
 10
0.0
 20
0.0
 30
0.0
  9
$EXTMIN
 10
-521.97209899999984
 20
-455.19782599999991
 30
0.0
  9
$EXTMAX
 10
766.98612673737887
 20
449.87787539187912
 30
50.0
  9
$LIMMIN
 10
-2970.0
 20
-2100.0
  9
$LIMMAX
 10
2970.0
 20
2100.0
  9
$ORTHOMODE
 70
     1
  9
$REGENMODE
 70
     1
  9
$FILLMODE
 70
     1
  9
$QTEXTMODE
 70
     0
  9
$MIRRTEXT
 70
     0
  9
$DRAGMODE
 70
     2
  9
$LTSCALE
 40
5.0
  9
$OSMODE
 70
   164
  9
$ATTMODE
 70
     1
  9
$TEXTSIZE
 40
64.0
  9
$TRACEWID
 40
0.05
  9
$TEXTSTYLE
  7
STANDARD
  9
$CLAYER
  8
DETAIL
  9
$CELTYPE
  6
CONTINUOUS
  9
$CECOLOR
 62
     7
  9
$DIMSCALE
 40
1.0
  9
$DIMASZ
 40
12.0
  9
$DIMEXO
 40
20.0
  9
$DIMDLI
 40
200.0
  9
$DIMRND
 40
0.0
  9
$DIMDLE
 40
0.0
  9
$DIMEXE
 40
20.0
  9
$DIMTP
 40
0.0
  9
$DIMTM
 40
0.0
  9
$DIMTXT
 40
64.0
  9
$DIMCEN
 40
0.09
  9
$DIMTSZ
 40
0.0
  9
$DIMTOL
 70
     0
  9
$DIMLIM
 70
     0
  9
$DIMTIH
 70
     0
  9
$DIMTOH
 70
     0
  9
$DIMSE1
 70
     0
  9
$DIMSE2
 70
     0
  9
$DIMTAD
 70
     1
  9
$DIMZIN
 70
     8
  9
$DIMBLK
  1
DOT1
  9
$DIMASO
 70
     1
  9
$DIMSHO
 70
     0
  9
$DIMPOST
  1

  9
$DIMAPOST
  1

  9
$DIMALT
 70
     0
  9
$DIMALTD
 70
     2
  9
$DIMALTF
 40
25.399999999999999
  9
$DIMLFAC
 40
1.0
  9
$DIMTOFL
 70
     1
  9
$DIMTVP
 40
0.0
  9
$DIMTIX
 70
     1
  9
$DIMSOXD
 70
     0
  9
$DIMSAH
 70
     1
  9
$DIMBLK1
  1
ORIGIN
  9
$DIMBLK2
  1
ORIGIN
  9
$DIMSTYLE
  2
STANDARD
  9
$DIMCLRD
 70
     7
  9
$DIMCLRE
 70
     7
  9
$DIMCLRT
 70
     7
  9
$DIMTFAC
 40
1.0
  9
$DIMGAP
 40
25.0
  9
$LUNITS
 70
     2
  9
$LUPREC
 70
     4
  9
$SKETCHINC
 40
0.1
  9
$FILLETRAD
 40
3.0
  9
$AUNITS
 70
     1
  9
$AUPREC
 70
     3
  9
$MENU
  1
ACAD
  9
$ELEVATION
 40
0.0
  9
$PELEVATION
 40
0.0
  9
$THICKNESS
 40
50.0
  9
$LIMCHECK
 70
     0
  9
$BLIPMODE
 70
     0
  9
$CHAMFERA
 40
0.0
  9
$CHAMFERB
 40
0.0
  9
$SKPOLY
 70
     0
  9
$TDCREATE
 40
2453019.6230103699
  9
$TDUPDATE
 40
2454565.4847079278
  9
$TDINDWG
 40
1.2103475116
  9
$TDUSRTIMER
 40
1.2103475116
  9
$USRTIMER
 70
     1
  9
$ANGBASE
 50
0.0
  9
$ANGDIR
 70
     0
  9
$PDMODE
 70
     3
  9
$PDSIZE
 40
-2.0
  9
$PLINEWID
 40
0.0
  9
$COORDS
 70
     2
  9
$SPLFRAME
 70
     0
  9
$SPLINETYPE
 70
     6
  9
$SPLINESEGS
 70
     8
  9
$ATTDIA
 70
     0
  9
$ATTREQ
 70
     1
  9
$HANDLING
 70
 22529
  9
$HANDSEED
  5
6DB
  9
$SURFTAB1
 70
     6
  9
$SURFTAB2
 70
     6
  9
$SURFTYPE
 70
     6
  9
$SURFU
 70
     6
  9
$SURFV
 70
     6
  9
$UCSNAME
  2

  9
$UCSORG
 10
0.0
 20
0.0
 30
0.0
  9
$UCSXDIR
 10
1.0
 20
0.0
 30
0.0
  9
$UCSYDIR
 10
0.0
 20
1.0
 30
0.0
  9
$PUCSNAME
  2

  9
$PUCSORG
 10
0.0
 20
0.0
 30
0.0
  9
$PUCSXDIR
 10
1.0
 20
0.0
 30
0.0
  9
$PUCSYDIR
 10
0.0
 20
1.0
 30
0.0
  9
$USERI1
 70
     0
  9
$USERI2
 70
     0
  9
$USERI3
 70
     0
  9
$USERI4
 70
     0
  9
$USERI5
 70
     0
  9
$USERR1
 40
20.0
  9
$USERR2
 40
0.0
  9
$USERR3
 40
0.0
  9
$USERR4
 40
0.0
  9
$USERR5
 40
0.0
  9
$WORLDVIEW
 70
     1
  9
$SHADEDGE
 70
     3
  9
$SHADEDIF
 70
    70
  9
$TILEMODE
 70
     1
  9
$MAXACTVP
 70
    48
  9
$PLIMCHECK
 70
     0
  9
$PEXTMIN
 10
-1.0000000000000000E+020
 20
-1.0000000000000000E+020
 30
-1.0000000000000000E+020
  9
$PEXTMAX
 10
1.0000000000000000E+020
 20
1.0000000000000000E+020
 30
1.0000000000000000E+020
  9
$PLIMMIN
 10
0.0
 20
0.0
  9
$PLIMMAX
 10
12.0
 20
9.0
  9
$UNITMODE
 70
     0
  9
$VISRETAIN
 70
     0
  9
$PLINEGEN
 70
     0
  9
$PSLTSCALE
 70
     0
  0
ENDSEC
  0
SECTION
  2
TABLES
  0
TABLE
  2
VPORT
 70
     3
  0
VPORT
  2
*ACTIVE
 70
     0
 10
0.0
 20
0.0
 11
1.0
 21
1.0
 12
110.5774069999995
 22
-2.6562641638855662
 13
0.0
 23
0.0
 14
1.0
 24
1.0
 15
0.0
 25
0.0
 16
0.0
 26
0.0
 36
1.0
 17
0.0
 27
0.0
 37
0.0
 40
1005.3135777561361
 41
1.670382165605095
 42
50.0
 43
0.0
 44
0.0
 50
0.0
 51
0.0
 71
     0
 72
  1000
 73
     1
 74
     0
 75
     0
 76
     0
 77
     0
 78
     0
  0
ENDTAB
  0
TABLE
  2
LTYPE
 70
     2
  0
LTYPE
  2
CONTINUOUS
 70
     0
  3
実線
 72
    65
 73
     0
 40
0.0
  0
LTYPE
  2
DASHDOT
 70
     0
  3
____ _ ____ _ ____ _ ____ _ ____ _ ____ _ ____
 72
    65
 73
     4
 40
5.5
 49
4.0
 49
-0.6
 49
0.3
 49
-0.6
  0
ENDTAB
  0
TABLE
  2
LAYER
 70
    12
  0
LAYER
  2
0
 70
     0
 62
     7
  6
CONTINUOUS
  0
LAYER
  2
DETAIL
 70
     0
 62
     5
  6
CONTINUOUS
  0
LAYER
  2
BASIS
 70
     0
 62
     6
  6
DASHDOT
  0
LAYER
  2
OUTLINE
 70
     0
 62
     3
  6
CONTINUOUS
  0
LAYER
  2
SIZE
 70
     0
 62
    30
  6
CONTINUOUS
  0
LAYER
  2
ARRANGE
 70
     0
 62
     1
  6
CONTINUOUS
  0
LAYER
  2
DEFPOINTS
 70
     0
 62
     7
  6
CONTINUOUS
  0
LAYER
  2
ETC
 70
     0
 62
    61
  6
CONTINUOUS
  0
LAYER
  2
FIX
 70
     0
 62
    11
  6
CONTINUOUS
  0
LAYER
  2
NOTE
 70
     0
 62
     4
  6
CONTINUOUS
  0
LAYER
  2
SERVICESPACE
 70
     0
 62
     2
  6
DASHDOT
  0
LAYER
  2
SYMBOLLINE
 70
     0
 62
    15
  6
CONTINUOUS
  0
ENDTAB
  0
TABLE
  2
STYLE
 70
     1
  0
STYLE
  2
STANDARD
 70
     0
 40
64.0
 41
0.9
 50
0.0
 71
     0
 42
64.0
  3
SIMPLEX.shx
  4
BIGFONT.shx
  0
ENDTAB
  0
TABLE
  2
VIEW
 70
     1
  0
VIEW
  2
ALL
 70
     0
 40
4282.6198079999967
 10
0.0
 20
41.309903999999989
 41
5940.0
 11
0.0
 21
0.0
 31
1.0
 12
0.0
 22
0.0
 32
0.0
 42
50.0
 43
0.0
 44
0.0
 50
0.0
 71
     0
  0
ENDTAB
  0
TABLE
  2
UCS
 70
     0
  0
ENDTAB
  0
TABLE
  2
APPID
 70
    15
  0
APPID
  2
ACAD
 70
     0
  0
APPID
  2
AUTOCAD_POSTSCRIPT_FIGURE
 70
     0
  0
APPID
  2
ACAD_EXEMPT_FROM_CAD_STANDARDS
 70
     0
  0
APPID
  2
ACAD_PSEXT
 70
     0
  0
APPID
  2
ACAUTHENVIRON
 70
     0
  0
APPID
  2
GENIUS_GENOENT_13
 70
     0
  0
APPID
  2
GENIUS_GENCFG_13
 70
     0
  0
APPID
  2
GENIUS_GENCFG0_13
 70
     0
  0
APPID
  2
GENIUS_GENCFG1_13
 70
     0
  0
APPID
  2
GENIUS_GENCFG2_13
 70
     0
  0
APPID
  2
GENIUS_GENCFG3_13
 70
     0
  0
APPID
  2
GENIUS_GENCFG4_13
 70
     0
  0
APPID
  2
GENIUS_GEVCFG0_13
 70
     0
  0
APPID
  2
CONTENTBLOCKDESCRIPTION
 70
     0
  0
APPID
  2
CONTENTBLOCKICON
 70
     0
  0
ENDTAB
  0
TABLE
  2
DIMSTYLE
 70
     1
  0
DIMSTYLE
  2
STANDARD
 70
     0
  3

  4

  5

  6

  7

 40
1.0
 41
0.18
 42
0.0625
 43
0.38
 44
0.18
 45
0.0
 46
0.0
 47
0.0
 48
0.0
140
0.18
141
0.09
142
0.0
143
25.399999999999999
144
1.0
145
0.0
146
1.0
147
0.09
 71
     0
 72
     0
 73
     1
 74
     1
 75
     0
 76
     0
 77
     0
 78
     0
170
     0
171
     2
172
     0
173
     0
174
     0
175
     0
176
     7
177
     7
178
     7
  0
ENDTAB
  0
ENDSEC
  0
SECTION
  2
BLOCKS
  0
BLOCK
  8
0
  2
$MODEL_SPACE
 70
     0
 10
0.0
 20
0.0
 30
0.0
  3
$MODEL_SPACE
  1

  0
ENDBLK
  5
4B9
  8
0
  0
BLOCK
 67
     1
  8
0
  2
$PAPER_SPACE
 70
     0
 10
0.0
 20
0.0
 30
0.0
  3
$PAPER_SPACE
  1

  0
ENDBLK
  5
4B5
 67
     1
  8
0
  0
BLOCK
  8
0
  2
DOT1
 70
     0
 10
0.0
 20
0.0
 30
0.0
  3
DOT1
  1

  0
CIRCLE
  5
4E2
  8
SIZE
  6
CONTINUOUS
 62
     7
 10
0.0
 20
0.0
 30
0.0
 40
3.0
  0
ENDBLK
  5
4E3
  8
0
  0
BLOCK
  8
0
  2
_ORIGIN
 70
     0
 10
0.0
 20
0.0
 30
0.0
  3
_ORIGIN
  1

  0
CIRCLE
  5
4E6
  8
0
  6
CONTINUOUS
 62
     7
 10
0.0
 20
0.0
 30
0.0
 40
0.5
  0
LINE
  5
4E7
  8
0
  6
CONTINUOUS
 62
     7
 10
0.0
 20
0.0
 30
0.0
 11
-1.0
 21
0.0
 31
0.0
  0
ENDBLK
  5
4E8
  8
0
  0
ENDSEC
  0
SECTION
  2
ENTITIES
  0
POINT
  5
4E9
  8
ARRANGE
  6
CONTINUOUS
 62
     1
 10
0.0
 20
0.0136
 30
0.0
 39
50.0
  0
LINE
  5
4EA
  8
NOTE
  6
CONTINUOUS
 62
     4
 10
-64.87738034253924
 20
70.596670639010938
 30
0.0
 11
-56.487708342539243
 21
31.48639863901095
 31
0.0
  0
LINE
  5
4EB
  8
NOTE
  6
CONTINUOUS
 62
     4
 10
-56.487708342539243
 20
31.48639863901095
 30
0.0
 11
-83.30851434253924
 21
61.162051639010919
 31
0.0
  0
TEXT
  5
4EC
  8
NOTE
  6
CONTINUOUS
 62
     4
 10
-252.76348234253911
 20
287.83786863901082
 30
0.0
 40
64.0
  1
EL
 41
0.9
  0
LINE
  5
4ED
  8
NOTE
  6
CONTINUOUS
 62
     4
 39
50.0
 10
-163.2517303425391
 20
277.73758463901078
 30
0.0
 11
-259.96852334253907
 21
277.73758463901078
 31
0.0
  0
TEXT
  5
4EE
  8
NOTE
  6
CONTINUOUS
 62
     4
 10
-509.35021799999993
 20
70.368432999999996
 30
0.0
 40
64.0
  1
2-4×10
 41
0.9
  0
LINE
  5
4EF
  8
NOTE
  6
CONTINUOUS
 62
     4
 10
-118.37078200000001
 20
14.671766
 30
0.0
 11
-80.108630999999988
 21
3.0095269999999981
 31
0.0
  0
LINE
  5
4F0
  8
NOTE
  6
CONTINUOUS
 62
     4
 10
-80.108630999999988
 20
3.0095269999999981
 30
0.0
 11
-107.413506
 21
32.240397999999992
 31
0.0
  0
LINE
  5
4F1
  8
NOTE
  6
CONTINUOUS
 62
     4
 39
50.0
 10
-163.2517303425391
 20
277.73758463901078
 30
0.0
 11
-56.487708342539243
 21
31.486397639010949
 31
0.0
  0
LINE
  5
4F2
  8
NOTE
  6
CONTINUOUS
 62
     4
 39
50.0
 10
-521.97209899999984
 20
54.239210999999997
 30
0.0
 11
-159.6928739999999
 21
54.239210999999997
 31
0.0
  0
LINE
  5
4F3
  8
NOTE
  6
CONTINUOUS
 62
     4
 39
50.0
 10
-159.6928739999999
 20
54.239210999999997
 30
0.0
 11
-80.108630999999988
 21
3.0095269999999981
 31
0.0
  0
LINE
  5
4F4
  8
BASIS
  6
DASHDOT
 62
     6
 39
50.0
 10
0.0
 20
-108.8452909999999
 30
0.0
 11
0.0
 21
108.8452909999999
 31
0.0
  0
LINE
  5
4F5
  8
BASIS
  6
DASHDOT
 62
     6
 39
50.0
 10
124.54178
 20
0.000003
 30
0.0
 11
-124.54178
 21
-0.000003
 31
0.0
  0
CIRCLE
  5
4F6
  8
ARRANGE
  6
CONTINUOUS
 62
     1
 39
25.0
 10
0.0
 20
0.0
 30
0.0
 40
20.0
  0
LINE
  5
4F7
  8
NOTE
  6
CONTINUOUS
 62
     4
 10
-56.48770934253924
 20
11.49999863901092
 30
0.0
 11
-56.48770934253924
 21
51.499998639010933
 31
0.0
  0
LINE
  5
4F8
  8
NOTE
  6
CONTINUOUS
 62
     4
 10
-36.48770934253924
 20
31.499998639010929
 30
0.0
 11
-76.487709342539233
 21
31.499998639010929
 31
0.0
  0
LINE
  5
4F9
  8
NOTE
  6
CONTINUOUS
 62
     4
 10
-80.108630000000005
 20
-16.990473999999981
 30
0.0
 11
-80.108630000000005
 21
23.009526000000001
 31
0.0
  0
LINE
  5
4FA
  8
NOTE
  6
CONTINUOUS
 62
     4
 10
-100.10863000000001
 20
3.009525999999997
 30
0.0
 11
-60.108629999999998
 21
3.009525999999997
 31
0.0
  0
LINE
  5
4FB
  8
NOTE
  6
CONTINUOUS
 62
     4
 10
79.891369999999981
 20
-16.990473999999981
 30
0.0
 11
79.891369999999981
 21
23.009526000000001
 31
0.0
  0
LINE
  5
4FC
  8
NOTE
  6
CONTINUOUS
 62
     4
 10
59.891369999999988
 20
3.009525999999997
 30
0.0
 11
99.891369999999995
 21
3.009525999999997
 31
0.0
  0
LINE
  5
4FD
  8
DETAIL
  6
CONTINUOUS
 62
     5
 10
-89.999995999999982
 20
-98.488499000000004
 30
0.0
 11
-89.999995999999982
 21
78.515656999999976
 31
0.0
  0
LINE
  5
4FE
  8
DETAIL
  6
CONTINUOUS
 62
     5
 10
89.999995999999982
 20
78.515656999999976
 30
0.0
 11
89.999995999999982
 21
-98.488499000000004
 31
0.0
  0
LINE
  5
4FF
  8
DETAIL
  6
CONTINUOUS
 62
     5
 10
-10.98254
 20
-99.986417000000003
 30
0.0
 11
-88.502077999999969
 21
-99.986417000000003
 31
0.0
  0
LINE
  5
500
  8
DETAIL
  6
CONTINUOUS
 62
     5
 10
-89.992781999999977
 20
-98.635190000000037
 30
0.0
 11
-89.999983999999998
 21
-98.488499000000004
 31
0.0
  0
LINE
  5
501
  8
DETAIL
  6
CONTINUOUS
 62
     5
 10
-89.971237000000016
 20
-98.780539000000005
 30
0.0
 11
-89.992781999999977
 21
-98.635190000000037
 31
0.0
  0
LINE
  5
502
  8
DETAIL
  6
CONTINUOUS
 62
     5
 10
-89.935531999999995
 20
-98.923151000000004
 30
0.0
 11
-89.971237000000016
 21
-98.780539000000005
 31
0.0
  0
LINE
  5
503
  8
DETAIL
  6
CONTINUOUS
 62
     5
 10
-89.885998000000015
 20
-99.061628999999996
 30
0.0
 11
-89.935531999999995
 21
-98.923151000000004
 31
0.0
  0
LINE
  5
504
  8
DETAIL
  6
CONTINUOUS
 62
     5
 10
-89.823099999999982
 20
-99.194624000000005
 30
0.0
 11
-89.885998000000015
 21
-99.061628999999996
 31
0.0
  0
LINE
  5
505
  8
DETAIL
  6
CONTINUOUS
 62
     5
 10
-89.747449000000003
 20
-99.320823000000004
 30
0.0
 11
-89.823099999999982
 21
-99.194624000000005
 31
0.0
  0
LINE
  5
506
  8
DETAIL
  6
CONTINUOUS
 62
     5
 10
-89.659795000000017
 20
-99.438974000000002
 30
0.0
 11
-89.747449000000003
 21
-99.320823000000004
 31
0.0
  0
LINE
  5
507
  8
DETAIL
  6
CONTINUOUS
 62
     5
 10
-89.560976999999994
 20
-99.547955000000016
 30
0.0
 11
-89.659795000000017
 21
-99.438974000000002
 31
0.0
  0
LINE
  5
508
  8
DETAIL
  6
CONTINUOUS
 62
     5
 10
-89.451947000000004
 20
-99.646714000000003
 30
0.0
 11
-89.560976999999994
 21
-99.547955000000016
 31
0.0
  0
LINE
  5
509
  8
DETAIL
  6
CONTINUOUS
 62
     5
 10
-89.333746999999988
 20
-99.734307000000015
 30
0.0
 11
-89.451947000000004
 21
-99.646714000000003
 31
0.0
  0
LINE
  5
50A
  8
DETAIL
  6
CONTINUOUS
 62
     5
 10
-89.207464000000002
 20
-99.809916000000015
 30
0.0
 11
-89.333746999999988
 21
-99.734307000000015
 31
0.0
  0
LINE
  5
50B
  8
DETAIL
  6
CONTINUOUS
 62
     5
 10
-89.074438999999998
 20
-99.872737000000015
 30
0.0
 11
-89.207464000000002
 21
-99.809916000000015
 31
0.0
  0
LINE
  5
50C
  8
DETAIL
  6
CONTINUOUS
 62
     5
 10
-88.936128999999994
 20
-99.922134999999997
 30
0.0
 11
-89.074438999999998
 21
-99.872737000000015
 31
0.0
  0
LINE
  5
50D
  8
DETAIL
  6
CONTINUOUS
 62
     5
 10
-88.793751999999998
 20
-99.957729999999984
 30
0.0
 11
-88.936128999999994
 21
-99.922134999999997
 31
0.0
  0
LINE
  5
50E
  8
DETAIL
  6
CONTINUOUS
 62
     5
 10
-88.64859399999996
 20
-99.979220999999995
 30
0.0
 11
-88.793751999999998
 21
-99.957729999999984
 31
0.0
  0
LINE
  5
50F
  8
DETAIL
  6
CONTINUOUS
 62
     5
 10
-88.502077999999969
 20
-99.986405000000005
 30
0.0
 11
-88.64859399999996
 21
-99.979220999999995
 31
0.0
  0
LINE
  5
510
  8
DETAIL
  6
CONTINUOUS
 62
     5
 10
66.475418000000005
 20
-99.893216000000024
 30
0.0
 11
35.260738000000011
 21
-99.893510000000006
 31
0.0
  0
LINE
  5
511
  8
DETAIL
  6
CONTINUOUS
 62
     5
 10
35.386078999999967
 20
-99.980289000000013
 30
0.0
 11
66.600758999999996
 21
-99.979995999999986
 31
0.0
  0
LINE
  5
512
  8
DETAIL
  6
CONTINUOUS
 62
     5
 10
19.972842
 20
-99.986417000000003
 30
0.0
 11
10.98254
 21
-99.986417000000003
 31
0.0
  0
LINE
  5
513
  8
DETAIL
  6
CONTINUOUS
 62
     5
 10
-4.9058699999999993
 20
-99.849564000000015
 30
0.0
 11
6.7821360000000004
 21
-99.852194999999995
 31
0.0
  0
LINE
  5
514
  8
DETAIL
  6
CONTINUOUS
 62
     5
 10
-10.652915
 20
-99.930446000000003
 30
0.0
 11
-10.76031399999999
 21
-99.961371
 31
0.0
  0
LINE
  5
515
  8
DETAIL
  6
CONTINUOUS
 62
     5
 10
-10.549617
 20
-99.887701000000007
 30
0.0
 11
-10.652915
 21
-99.930446000000003
 31
0.0
  0
LINE
  5
516
  8
DETAIL
  6
CONTINUOUS
 62
     5
 10
-10.543732999999991
 20
-99.884453000000022
 30
0.0
 11
-10.549617
 21
-99.887701000000007
 31
0.0
  0
LINE
  5
517
  8
DETAIL
  6
CONTINUOUS
 62
     5
 10
-10.98254
 20
-99.986405000000005
 30
0.0
 11
-10.89749499999999
 21
-99.901359999999997
 31
0.0
  0
LINE
  5
518
  8
DETAIL
  6
CONTINUOUS
 62
     5
 10
-10.87067
 20
-99.980121999999994
 30
0.0
 11
-10.98254
 21
-99.986405000000005
 31
0.0
  0
LINE
  5
519
  8
DETAIL
  6
CONTINUOUS
 62
     5
 10
-10.76031399999999
 20
-99.961371
 30
0.0
 11
-10.87067
 21
-99.980121999999994
 31
0.0
  0
LINE
  5
51A
  8
DETAIL
  6
CONTINUOUS
 62
     5
 10
-10.753507000000001
 20
-99.890418999999994
 30
0.0
 11
-10.682441000000001
 21
-99.888510999999994
 31
0.0
  0
LINE
  5
51B
  8
DETAIL
  6
CONTINUOUS
 62
     5
 10
-10.831471999999991
 20
-99.894062000000005
 30
0.0
 11
-10.753507000000001
 21
-99.890418999999994
 31
0.0
  0
LINE
  5
51C
  8
DETAIL
  6
CONTINUOUS
 62
     5
 10
-10.879429
 20
-99.897705000000002
 30
0.0
 11
-10.831471999999991
 21
-99.894062000000005
 31
0.0
  0
LINE
  5
51D
  8
DETAIL
  6
CONTINUOUS
 62
     5
 10
-10.89749499999999
 20
-99.901359999999997
 30
0.0
 11
-10.879429
 21
-99.897705000000002
 31
0.0
  0
LINE
  5
51E
  8
DETAIL
  6
CONTINUOUS
 62
     5
 10
-6.8207570000000004
 20
-99.852307999999994
 30
0.0
 11
-4.9058699999999993
 21
-99.849563000000003
 31
0.0
  0
LINE
  5
51F
  8
DETAIL
  6
CONTINUOUS
 62
     5
 10
-6.979603
 20
-99.852759000000006
 30
0.0
 11
-6.8207570000000004
 21
-99.852307999999994
 31
0.0
  0
LINE
  5
520
  8
DETAIL
  6
CONTINUOUS
 62
     5
 10
-8.4763579999999976
 20
-99.859881000000001
 30
0.0
 11
-6.8207570000000004
 21
-99.852307999999994
 31
0.0
  0
LINE
  5
521
  8
DETAIL
  6
CONTINUOUS
 62
     5
 10
-9.5809829999999998
 20
-99.869206000000005
 30
0.0
 11
-8.4763579999999976
 21
-99.859881000000001
 31
0.0
  0
LINE
  5
522
  8
DETAIL
  6
CONTINUOUS
 62
     5
 10
-9.6840130000000002
 20
-99.870265000000003
 30
0.0
 11
-9.5809829999999998
 21
-99.869206000000005
 31
0.0
  0
LINE
  5
523
  8
DETAIL
  6
CONTINUOUS
 62
     5
 10
-10.121644
 20
-99.876234999999994
 30
0.0
 11
-9.5809829999999998
 21
-99.869206000000005
 31
0.0
  0
LINE
  5
524
  8
DETAIL
  6
CONTINUOUS
 62
     5
 10
-10.14894399999999
 20
-99.87650600000002
 30
0.0
 11
-10.121644
 21
-99.876234999999994
 31
0.0
  0
LINE
  5
525
  8
DETAIL
  6
CONTINUOUS
 62
     5
 10
-10.392737999999991
 20
-99.881045
 30
0.0
 11
-10.121644
 21
-99.876234999999994
 31
0.0
  0
LINE
  5
526
  8
DETAIL
  6
CONTINUOUS
 62
     5
 10
-10.537853999999991
 20
-99.884302000000005
 30
0.0
 11
-10.392737999999991
 21
-99.881045
 31
0.0
  0
LINE
  5
527
  8
DETAIL
  6
CONTINUOUS
 62
     5
 10
-10.62820199999997
 20
-99.886766000000051
 30
0.0
 11
-10.537853999999991
 21
-99.884302000000005
 31
0.0
  0
LINE
  5
528
  8
DETAIL
  6
CONTINUOUS
 62
     5
 10
-10.537853999999991
 20
-99.884302000000005
 30
0.0
 11
-10.508493
 21
-99.883281000000025
 31
0.0
  0
LINE
  5
529
  8
DETAIL
  6
CONTINUOUS
 62
     5
 10
-10.645883999999979
 20
-99.886815999999996
 30
0.0
 11
-10.62820199999997
 21
-99.886766000000051
 31
0.0
  0
LINE
  5
52A
  8
DETAIL
  6
CONTINUOUS
 62
     5
 10
-10.682441000000001
 20
-99.888510999999994
 30
0.0
 11
-10.62820199999997
 21
-99.886766000000051
 31
0.0
  0
LINE
  5
52B
  8
DETAIL
  6
CONTINUOUS
 62
     5
 10
-10.665609
 20
-99.887940999999984
 30
0.0
 11
-10.645883999999979
 21
-99.886815999999996
 31
0.0
  0
LINE
  5
52C
  8
DETAIL
  6
CONTINUOUS
 62
     5
 10
-10.725591
 20
-99.890131999999994
 30
0.0
 11
-10.682441000000001
 21
-99.888510999999994
 31
0.0
  0
LINE
  5
52D
  8
DETAIL
  6
CONTINUOUS
 62
     5
 10
-10.748208
 20
-99.891116000000011
 30
0.0
 11
-10.725591
 21
-99.890131999999994
 31
0.0
  0
LINE
  5
52E
  8
DETAIL
  6
CONTINUOUS
 62
     5
 10
-10.76563099999999
 20
-99.891979000000006
 30
0.0
 11
-10.748208
 21
-99.891116000000011
 31
0.0
  0
LINE
  5
52F
  8
DETAIL
  6
CONTINUOUS
 62
     5
 10
-10.777426
 20
-99.892651999999998
 30
0.0
 11
-10.76563099999999
 21
-99.891979000000006
 31
0.0
  0
LINE
  5
530
  8
DETAIL
  6
CONTINUOUS
 62
     5
 10
-10.785681
 20
-99.895088999999999
 30
0.0
 11
-10.76820499999998
 21
-99.892121000000003
 31
0.0
  0
LINE
  5
531
  8
DETAIL
  6
CONTINUOUS
 62
     5
 10
-10.89749499999999
 20
-99.901359999999997
 30
0.0
 11
-10.785681
 21
-99.895088999999999
 31
0.0
  0
LINE
  5
532
  8
DETAIL
  6
CONTINUOUS
 62
     5
 10
-10.781026000000001
 20
-99.892883999999995
 30
0.0
 11
-10.777426
 21
-99.892651999999998
 31
0.0
  0
LINE
  5
533
  8
DETAIL
  6
CONTINUOUS
 62
     5
 10
-10.782821999999999
 20
-99.893010000000004
 30
0.0
 11
-10.781026000000001
 21
-99.892883999999995
 31
0.0
  0
LINE
  5
534
  8
DETAIL
  6
CONTINUOUS
 62
     5
 10
-10.782992999999999
 20
-99.893022000000002
 30
0.0
 11
-10.782821999999999
 21
-99.893010000000004
 31
0.0
  0
LINE
  5
535
  8
DETAIL
  6
CONTINUOUS
 62
     5
 10
6.5733670000000002
 20
-99.851591999999997
 30
0.0
 11
6.7821360000000004
 21
-99.852194999999995
 31
0.0
  0
LINE
  5
536
  8
DETAIL
  6
CONTINUOUS
 62
     5
 10
10.89749499999999
 20
-99.901359999999997
 30
0.0
 11
10.98254
 21
-99.986405000000005
 31
0.0
  0
LINE
  5
537
  8
DETAIL
  6
CONTINUOUS
 62
     5
 10
10.549617
 20
-99.887701000000007
 30
0.0
 11
10.543730999999999
 21
-99.88445200000001
 31
0.0
  0
LINE
  5
538
  8
DETAIL
  6
CONTINUOUS
 62
     5
 10
10.652915
 20
-99.930446000000003
 30
0.0
 11
10.549617
 21
-99.887701000000007
 31
0.0
  0
LINE
  5
539
  8
DETAIL
  6
CONTINUOUS
 62
     5
 10
10.76031399999999
 20
-99.961371
 30
0.0
 11
10.652915
 21
-99.930446000000003
 31
0.0
  0
LINE
  5
53A
  8
DETAIL
  6
CONTINUOUS
 62
     5
 10
10.775641
 20
-99.892543000000003
 30
0.0
 11
10.777727999999991
 21
-99.892671000000007
 31
0.0
  0
LINE
  5
53B
  8
DETAIL
  6
CONTINUOUS
 62
     5
 10
10.762255
 20
-99.891801999999984
 30
0.0
 11
10.775641
 21
-99.892543000000003
 31
0.0
  0
LINE
  5
53C
  8
DETAIL
  6
CONTINUOUS
 62
     5
 10
10.87067
 20
-99.980121999999994
 30
0.0
 11
10.76031399999999
 21
-99.961371
 31
0.0
  0
LINE
  5
53D
  8
DETAIL
  6
CONTINUOUS
 62
     5
 10
10.98254
 20
-99.986405000000005
 30
0.0
 11
10.87067
 21
-99.980121999999994
 31
0.0
  0
LINE
  5
53E
  8
DETAIL
  6
CONTINUOUS
 62
     5
 10
10.785681
 20
-99.895088999999999
 30
0.0
 11
10.768198999999999
 21
-99.892120000000006
 31
0.0
  0
LINE
  5
53F
  8
DETAIL
  6
CONTINUOUS
 62
     5
 10
10.89749499999999
 20
-99.901359999999997
 30
0.0
 11
10.785681
 21
-99.895088999999999
 31
0.0
  0
LINE
  5
540
  8
DETAIL
  6
CONTINUOUS
 62
     5
 10
10.742974999999991
 20
-99.890877000000003
 30
0.0
 11
10.762255
 21
-99.891801999999984
 31
0.0
  0
LINE
  5
541
  8
DETAIL
  6
CONTINUOUS
 62
     5
 10
10.879429
 20
-99.897705000000002
 30
0.0
 11
10.89749499999999
 21
-99.901359999999997
 31
0.0
  0
LINE
  5
542
  8
DETAIL
  6
CONTINUOUS
 62
     5
 10
10.831471999999991
 20
-99.894062000000005
 30
0.0
 11
10.879429
 21
-99.897705000000002
 31
0.0
  0
LINE
  5
543
  8
DETAIL
  6
CONTINUOUS
 62
     5
 10
10.762255
 20
-99.891801999999984
 30
0.0
 11
10.831471999999991
 21
-99.894062000000005
 31
0.0
  0
LINE
  5
544
  8
DETAIL
  6
CONTINUOUS
 62
     5
 10
10.71814
 20
-99.889831999999984
 30
0.0
 11
10.742974999999991
 21
-99.890877000000003
 31
0.0
  0
LINE
  5
545
  8
DETAIL
  6
CONTINUOUS
 62
     5
 10
10.670763000000001
 20
-99.888113000000004
 30
0.0
 11
10.71814
 21
-99.889831999999984
 31
0.0
  0
LINE
  5
546
  8
DETAIL
  6
CONTINUOUS
 62
     5
 10
10.703692999999999
 20
-99.889275999999995
 30
0.0
 11
10.753507000000001
 21
-99.890418999999994
 31
0.0
  0
LINE
  5
547
  8
DETAIL
  6
CONTINUOUS
 62
     5
 10
10.61135099999999
 20
-99.886270999999994
 30
0.0
 11
10.670763000000001
 21
-99.888113000000004
 31
0.0
  0
LINE
  5
548
  8
DETAIL
  6
CONTINUOUS
 62
     5
 10
10.51336199999999
 20
-99.883702999999997
 30
0.0
 11
10.61135099999999
 21
-99.886270999999994
 31
0.0
  0
LINE
  5
549
  8
DETAIL
  6
CONTINUOUS
 62
     5
 10
10.58888199999998
 20
-99.885638999999998
 30
0.0
 11
10.645883999999979
 21
-99.886815999999996
 31
0.0
  0
LINE
  5
54A
  8
DETAIL
  6
CONTINUOUS
 62
     5
 10
10.359914
 20
-99.880390000000006
 30
0.0
 11
10.51336199999999
 21
-99.883702999999997
 31
0.0
  0
LINE
  5
54B
  8
DETAIL
  6
CONTINUOUS
 62
     5
 10
10.508493
 20
-99.883281000000025
 30
0.0
 11
10.51336199999999
 21
-99.883702999999997
 31
0.0
  0
LINE
  5
54C
  8
DETAIL
  6
CONTINUOUS
 62
     5
 10
10.485455
 20
-99.883047000000005
 30
0.0
 11
10.508493
 21
-99.883281000000025
 31
0.0
  0
LINE
  5
54D
  8
DETAIL
  6
CONTINUOUS
 62
     5
 10
10.342599
 20
-99.879835
 30
0.0
 11
10.359914
 21
-99.880390000000006
 31
0.0
  0
LINE
  5
54E
  8
DETAIL
  6
CONTINUOUS
 62
     5
 10
10.086182000000001
 20
-99.875690000000006
 30
0.0
 11
10.359914
 21
-99.880390000000006
 31
0.0
  0
LINE
  5
54F
  8
DETAIL
  6
CONTINUOUS
 62
     5
 10
9.5748429999999995
 20
-99.869139000000004
 30
0.0
 11
10.086182000000001
 21
-99.875690000000006
 31
0.0
  0
LINE
  5
550
  8
DETAIL
  6
CONTINUOUS
 62
     5
 10
8.4579500000000003
 20
-99.859762000000003
 30
0.0
 11
9.5748429999999995
 21
-99.869139000000004
 31
0.0
  0
LINE
  5
551
  8
DETAIL
  6
CONTINUOUS
 62
     5
 10
6.7821360000000004
 20
-99.852194999999995
 30
0.0
 11
8.4579500000000003
 21
-99.859762000000003
 31
0.0
  0
LINE
  5
552
  8
DETAIL
  6
CONTINUOUS
 62
     5
 10
34.952474000000002
 20
-99.986417000000003
 30
0.0
 11
34.453153
 21
-99.986417000000003
 31
0.0
  0
LINE
  5
553
  8
DETAIL
  6
CONTINUOUS
 62
     5
 10
34.453153
 20
-99.975969999999975
 30
0.0
 11
34.453153
 21
-99.897535000000005
 31
0.0
  0
LINE
  5
554
  8
DETAIL
  6
CONTINUOUS
 62
     5
 10
33.953831999999991
 20
-99.980328
 30
0.0
 11
33.953831999999991
 21
-99.893176999999994
 31
0.0
  0
LINE
  5
555
  8
DETAIL
  6
CONTINUOUS
 62
     5
 10
34.349924000000001
 20
-99.894882999999993
 30
0.0
 11
34.257762
 21
-99.894078000000022
 31
0.0
  0
LINE
  5
556
  8
DETAIL
  6
CONTINUOUS
 62
     5
 10
34.386254000000001
 20
-99.895356000000007
 30
0.0
 11
34.349924000000001
 21
-99.894882999999993
 31
0.0
  0
LINE
  5
557
  8
DETAIL
  6
CONTINUOUS
 62
     5
 10
34.415092999999992
 20
-99.895867999999993
 30
0.0
 11
34.386254000000001
 21
-99.895356000000007
 31
0.0
  0
LINE
  5
558
  8
DETAIL
  6
CONTINUOUS
 62
     5
 10
34.43613899999999
 20
-99.896406999999996
 30
0.0
 11
34.415092999999992
 21
-99.895867999999993
 31
0.0
  0
LINE
  5
559
  8
DETAIL
  6
CONTINUOUS
 62
     5
 10
34.448754999999998
 20
-99.896961000000005
 30
0.0
 11
34.43613899999999
 21
-99.896406999999996
 31
0.0
  0
LINE
  5
55A
  8
DETAIL
  6
CONTINUOUS
 62
     5
 10
34.453153
 20
-99.897535000000005
 30
0.0
 11
34.448754999999998
 21
-99.896961000000005
 31
0.0
  0
LINE
  5
55B
  8
DETAIL
  6
CONTINUOUS
 62
     5
 10
34.257762
 20
-99.894078000000022
 30
0.0
 11
34.019548
 21
-99.893216000000024
 31
0.0
  0
LINE
  5
55C
  8
DETAIL
  6
CONTINUOUS
 62
     5
 10
34.14488999999999
 20
-99.979995999999986
 30
0.0
 11
34.306902000000001
 21
-99.979050999999998
 31
0.0
  0
LINE
  5
55D
  8
DETAIL
  6
CONTINUOUS
 62
     5
 10
34.306902000000001
 20
-99.979050999999998
 30
0.0
 11
34.386254000000001
 21
-99.978149000000016
 31
0.0
  0
LINE
  5
55E
  8
DETAIL
  6
CONTINUOUS
 62
     5
 10
34.448754999999998
 20
-99.976544000000004
 30
0.0
 11
34.453153
 21
-99.975969999999975
 31
0.0
  0
LINE
  5
55F
  8
DETAIL
  6
CONTINUOUS
 62
     5
 10
34.43613899999999
 20
-99.977097999999998
 30
0.0
 11
34.448754999999998
 21
-99.976544000000004
 31
0.0
  0
LINE
  5
560
  8
DETAIL
  6
CONTINUOUS
 62
     5
 10
34.415092999999992
 20
-99.977638000000013
 30
0.0
 11
34.43613899999999
 21
-99.977097999999998
 31
0.0
  0
LINE
  5
561
  8
DETAIL
  6
CONTINUOUS
 62
     5
 10
34.386254000000001
 20
-99.978149000000016
 30
0.0
 11
34.415092999999992
 21
-99.977638000000013
 31
0.0
  0
LINE
  5
562
  8
DETAIL
  6
CONTINUOUS
 62
     5
 10
34.019548
 20
-99.893216000000024
 30
0.0
 11
20.281106000000001
 21
-99.893510000000006
 31
0.0
  0
LINE
  5
563
  8
DETAIL
  6
CONTINUOUS
 62
     5
 10
20.406447
 20
-99.980289000000013
 30
0.0
 11
34.14488999999999
 21
-99.979995999999986
 31
0.0
  0
LINE
  5
564
  8
DETAIL
  6
CONTINUOUS
 62
     5
 10
34.453153
 20
-99.986405000000005
 30
0.0
 11
19.972842
 21
-99.986417000000003
 31
0.0
  0
LINE
  5
565
  8
DETAIL
  6
CONTINUOUS
 62
     5
 10
20.472163999999989
 20
-99.980328
 30
0.0
 11
20.472163999999989
 21
-99.893176999999994
 31
0.0
  0
LINE
  5
566
  8
DETAIL
  6
CONTINUOUS
 62
     5
 10
19.972842
 20
-99.897535000000005
 30
0.0
 11
19.972842
 21
-99.975969999999975
 31
0.0
  0
LINE
  5
567
  8
DETAIL
  6
CONTINUOUS
 62
     5
 10
19.977240999999999
 20
-99.976544000000004
 30
0.0
 11
19.989857000000001
 21
-99.977097999999998
 31
0.0
  0
LINE
  5
568
  8
DETAIL
  6
CONTINUOUS
 62
     5
 10
19.972842
 20
-99.975969999999975
 30
0.0
 11
19.977240999999999
 21
-99.976544000000004
 31
0.0
  0
LINE
  5
569
  8
DETAIL
  6
CONTINUOUS
 62
     5
 10
20.076072
 20
-99.978623000000013
 30
0.0
 11
20.168233999999991
 21
-99.979427000000015
 31
0.0
  0
LINE
  5
56A
  8
DETAIL
  6
CONTINUOUS
 62
     5
 10
20.039740999999999
 20
-99.978149000000016
 30
0.0
 11
20.076072
 21
-99.978623000000013
 31
0.0
  0
LINE
  5
56B
  8
DETAIL
  6
CONTINUOUS
 62
     5
 10
20.010902999999988
 20
-99.977638000000013
 30
0.0
 11
20.039740999999999
 21
-99.978149000000016
 31
0.0
  0
LINE
  5
56C
  8
DETAIL
  6
CONTINUOUS
 62
     5
 10
19.989857000000001
 20
-99.977097999999998
 30
0.0
 11
20.010902999999988
 21
-99.977638000000013
 31
0.0
  0
LINE
  5
56D
  8
DETAIL
  6
CONTINUOUS
 62
     5
 10
20.168233999999991
 20
-99.979427000000015
 30
0.0
 11
20.406447
 21
-99.980289000000013
 31
0.0
  0
LINE
  5
56E
  8
DETAIL
  6
CONTINUOUS
 62
     5
 10
20.281106000000001
 20
-99.893510000000006
 30
0.0
 11
20.11909399999999
 21
-99.89445400000001
 31
0.0
  0
LINE
  5
56F
  8
DETAIL
  6
CONTINUOUS
 62
     5
 10
20.11909399999999
 20
-99.89445400000001
 30
0.0
 11
20.039740999999999
 21
-99.895356000000007
 31
0.0
  0
LINE
  5
570
  8
DETAIL
  6
CONTINUOUS
 62
     5
 10
19.977240999999999
 20
-99.896961000000005
 30
0.0
 11
19.972842
 21
-99.897535000000005
 31
0.0
  0
LINE
  5
571
  8
DETAIL
  6
CONTINUOUS
 62
     5
 10
19.989857000000001
 20
-99.896406999999996
 30
0.0
 11
19.977240999999999
 21
-99.896961000000005
 31
0.0
  0
LINE
  5
572
  8
DETAIL
  6
CONTINUOUS
 62
     5
 10
20.010902999999988
 20
-99.895867999999993
 30
0.0
 11
19.989857000000001
 21
-99.896406999999996
 31
0.0
  0
LINE
  5
573
  8
DETAIL
  6
CONTINUOUS
 62
     5
 10
20.039740999999999
 20
-99.895356000000007
 30
0.0
 11
20.010902999999988
 21
-99.895867999999993
 31
0.0
  0
LINE
  5
574
  8
DETAIL
  6
CONTINUOUS
 62
     5
 10
35.45179499999999
 20
-99.980328
 30
0.0
 11
35.45179499999999
 21
-99.893176999999994
 31
0.0
  0
LINE
  5
575
  8
DETAIL
  6
CONTINUOUS
 62
     5
 10
34.952474000000002
 20
-99.897535000000005
 30
0.0
 11
34.952474000000002
 21
-99.975969999999975
 31
0.0
  0
LINE
  5
576
  8
DETAIL
  6
CONTINUOUS
 62
     5
 10
34.956873000000002
 20
-99.976544000000004
 30
0.0
 11
34.969489000000003
 21
-99.977097999999998
 31
0.0
  0
LINE
  5
577
  8
DETAIL
  6
CONTINUOUS
 62
     5
 10
34.952474000000002
 20
-99.975969999999975
 30
0.0
 11
34.956873000000002
 21
-99.976544000000004
 31
0.0
  0
LINE
  5
578
  8
DETAIL
  6
CONTINUOUS
 62
     5
 10
35.055703999999992
 20
-99.978623000000013
 30
0.0
 11
35.147866
 21
-99.979427000000015
 31
0.0
  0
LINE
  5
579
  8
DETAIL
  6
CONTINUOUS
 62
     5
 10
35.019373000000002
 20
-99.978149000000016
 30
0.0
 11
35.055703999999992
 21
-99.978623000000013
 31
0.0
  0
LINE
  5
57A
  8
DETAIL
  6
CONTINUOUS
 62
     5
 10
34.99053499999998
 20
-99.977638000000013
 30
0.0
 11
35.019373000000002
 21
-99.978149000000016
 31
0.0
  0
LINE
  5
57B
  8
DETAIL
  6
CONTINUOUS
 62
     5
 10
34.969489000000003
 20
-99.977097999999998
 30
0.0
 11
34.99053499999998
 21
-99.977638000000013
 31
0.0
  0
LINE
  5
57C
  8
DETAIL
  6
CONTINUOUS
 62
     5
 10
35.147866
 20
-99.979427000000015
 30
0.0
 11
35.386078999999967
 21
-99.980289000000013
 31
0.0
  0
LINE
  5
57D
  8
DETAIL
  6
CONTINUOUS
 62
     5
 10
35.260738000000011
 20
-99.893510000000006
 30
0.0
 11
35.098725999999999
 21
-99.89445400000001
 31
0.0
  0
LINE
  5
57E
  8
DETAIL
  6
CONTINUOUS
 62
     5
 10
35.098725999999999
 20
-99.89445400000001
 30
0.0
 11
35.019373000000002
 21
-99.895356000000007
 31
0.0
  0
LINE
  5
57F
  8
DETAIL
  6
CONTINUOUS
 62
     5
 10
34.956873000000002
 20
-99.896961000000005
 30
0.0
 11
34.952474000000002
 21
-99.897535000000005
 31
0.0
  0
LINE
  5
580
  8
DETAIL
  6
CONTINUOUS
 62
     5
 10
34.969489000000003
 20
-99.896406999999996
 30
0.0
 11
34.956873000000002
 21
-99.896961000000005
 31
0.0
  0
LINE
  5
581
  8
DETAIL
  6
CONTINUOUS
 62
     5
 10
34.99053499999998
 20
-99.895867999999993
 30
0.0
 11
34.969489000000003
 21
-99.896406999999996
 31
0.0
  0
LINE
  5
582
  8
DETAIL
  6
CONTINUOUS
 62
     5
 10
35.019373000000002
 20
-99.895356000000007
 30
0.0
 11
34.99053499999998
 21
-99.895867999999993
 31
0.0
  0
LINE
  5
583
  8
DETAIL
  6
CONTINUOUS
 62
     5
 10
88.502077999999969
 20
-99.986417000000003
 30
0.0
 11
66.909021999999993
 21
-99.986417000000003
 31
0.0
  0
LINE
  5
584
  8
DETAIL
  6
CONTINUOUS
 62
     5
 10
66.909021999999993
 20
-99.975969999999975
 30
0.0
 11
66.909021999999993
 21
-99.897535000000005
 31
0.0
  0
LINE
  5
585
  8
DETAIL
  6
CONTINUOUS
 62
     5
 10
66.409700999999998
 20
-99.980328
 30
0.0
 11
66.409700999999998
 21
-99.893176999999994
 31
0.0
  0
LINE
  5
586
  8
DETAIL
  6
CONTINUOUS
 62
     5
 10
66.805793000000008
 20
-99.894882999999993
 30
0.0
 11
66.713631000000007
 21
-99.894078000000022
 31
0.0
  0
LINE
  5
587
  8
DETAIL
  6
CONTINUOUS
 62
     5
 10
66.842123999999984
 20
-99.895356000000007
 30
0.0
 11
66.805793000000008
 21
-99.894882999999993
 31
0.0
  0
LINE
  5
588
  8
DETAIL
  6
CONTINUOUS
 62
     5
 10
66.870962000000006
 20
-99.895867999999993
 30
0.0
 11
66.842123999999984
 21
-99.895356000000007
 31
0.0
  0
LINE
  5
589
  8
DETAIL
  6
CONTINUOUS
 62
     5
 10
66.89200799999999
 20
-99.896406999999996
 30
0.0
 11
66.870962000000006
 21
-99.895867999999993
 31
0.0
  0
LINE
  5
58A
  8
DETAIL
  6
CONTINUOUS
 62
     5
 10
66.904623999999998
 20
-99.896961000000005
 30
0.0
 11
66.89200799999999
 21
-99.896406999999996
 31
0.0
  0
LINE
  5
58B
  8
DETAIL
  6
CONTINUOUS
 62
     5
 10
66.909021999999993
 20
-99.897535000000005
 30
0.0
 11
66.904623999999998
 21
-99.896961000000005
 31
0.0
  0
LINE
  5
58C
  8
DETAIL
  6
CONTINUOUS
 62
     5
 10
66.713631000000007
 20
-99.894078000000022
 30
0.0
 11
66.475418000000005
 21
-99.893216000000024
 31
0.0
  0
LINE
  5
58D
  8
DETAIL
  6
CONTINUOUS
 62
     5
 10
66.600758999999996
 20
-99.979995999999986
 30
0.0
 11
66.762771000000001
 21
-99.979050999999998
 31
0.0
  0
LINE
  5
58E
  8
DETAIL
  6
CONTINUOUS
 62
     5
 10
66.762771000000001
 20
-99.979050999999998
 30
0.0
 11
66.842123999999984
 21
-99.978149000000016
 31
0.0
  0
LINE
  5
58F
  8
DETAIL
  6
CONTINUOUS
 62
     5
 10
66.904623999999998
 20
-99.976544000000004
 30
0.0
 11
66.909021999999993
 21
-99.975969999999975
 31
0.0
  0
LINE
  5
590
  8
DETAIL
  6
CONTINUOUS
 62
     5
 10
66.89200799999999
 20
-99.977097999999998
 30
0.0
 11
66.904623999999998
 21
-99.976544000000004
 31
0.0
  0
LINE
  5
591
  8
DETAIL
  6
CONTINUOUS
 62
     5
 10
66.870962000000006
 20
-99.977638000000013
 30
0.0
 11
66.89200799999999
 21
-99.977097999999998
 31
0.0
  0
LINE
  5
592
  8
DETAIL
  6
CONTINUOUS
 62
     5
 10
66.842123999999984
 20
-99.978149000000016
 30
0.0
 11
66.870962000000006
 21
-99.977638000000013
 31
0.0
  0
LINE
  5
593
  8
DETAIL
  6
CONTINUOUS
 62
     5
 10
88.64859399999996
 20
-99.979220999999995
 30
0.0
 11
88.502077999999969
 21
-99.986405000000005
 31
0.0
  0
LINE
  5
594
  8
DETAIL
  6
CONTINUOUS
 62
     5
 10
88.793751999999998
 20
-99.957729999999984
 30
0.0
 11
88.64859399999996
 21
-99.979220999999995
 31
0.0
  0
LINE
  5
595
  8
DETAIL
  6
CONTINUOUS
 62
     5
 10
88.936128999999994
 20
-99.922134999999997
 30
0.0
 11
88.793751999999998
 21
-99.957729999999984
 31
0.0
  0
LINE
  5
596
  8
DETAIL
  6
CONTINUOUS
 62
     5
 10
89.074438999999998
 20
-99.872737000000015
 30
0.0
 11
88.936128999999994
 21
-99.922134999999997
 31
0.0
  0
LINE
  5
597
  8
DETAIL
  6
CONTINUOUS
 62
     5
 10
89.207464000000002
 20
-99.809916000000015
 30
0.0
 11
89.074438999999998
 21
-99.872737000000015
 31
0.0
  0
LINE
  5
598
  8
DETAIL
  6
CONTINUOUS
 62
     5
 10
89.333746999999988
 20
-99.734307000000015
 30
0.0
 11
89.207464000000002
 21
-99.809916000000015
 31
0.0
  0
LINE
  5
599
  8
DETAIL
  6
CONTINUOUS
 62
     5
 10
89.451947000000004
 20
-99.646714000000003
 30
0.0
 11
89.333746999999988
 21
-99.734307000000015
 31
0.0
  0
LINE
  5
59A
  8
DETAIL
  6
CONTINUOUS
 62
     5
 10
89.560976999999994
 20
-99.547955000000016
 30
0.0
 11
89.451947000000004
 21
-99.646714000000003
 31
0.0
  0
LINE
  5
59B
  8
DETAIL
  6
CONTINUOUS
 62
     5
 10
89.659795000000017
 20
-99.438974000000002
 30
0.0
 11
89.560976999999994
 21
-99.547955000000016
 31
0.0
  0
LINE
  5
59C
  8
DETAIL
  6
CONTINUOUS
 62
     5
 10
89.747449000000003
 20
-99.320823000000004
 30
0.0
 11
89.659795000000017
 21
-99.438974000000002
 31
0.0
  0
LINE
  5
59D
  8
DETAIL
  6
CONTINUOUS
 62
     5
 10
89.823099999999982
 20
-99.194624000000005
 30
0.0
 11
89.747449000000003
 21
-99.320823000000004
 31
0.0
  0
LINE
  5
59E
  8
DETAIL
  6
CONTINUOUS
 62
     5
 10
89.885998000000015
 20
-99.061628999999996
 30
0.0
 11
89.823099999999982
 21
-99.194624000000005
 31
0.0
  0
LINE
  5
59F
  8
DETAIL
  6
CONTINUOUS
 62
     5
 10
89.935531999999995
 20
-98.923151000000004
 30
0.0
 11
89.885998000000015
 21
-99.061628999999996
 31
0.0
  0
LINE
  5
5A0
  8
DETAIL
  6
CONTINUOUS
 62
     5
 10
89.971237000000016
 20
-98.780539000000005
 30
0.0
 11
89.935531999999995
 21
-98.923151000000004
 31
0.0
  0
LINE
  5
5A1
  8
DETAIL
  6
CONTINUOUS
 62
     5
 10
89.992781999999977
 20
-98.635190000000037
 30
0.0
 11
89.971237000000016
 21
-98.780539000000005
 31
0.0
  0
LINE
  5
5A2
  8
DETAIL
  6
CONTINUOUS
 62
     5
 10
89.999983999999998
 20
-98.488499000000004
 30
0.0
 11
89.992781999999977
 21
-98.635190000000037
 31
0.0
  0
ARC
  5
5A3
  8
FIX
  6
CONTINUOUS
 62
    11
 10
-79.891369999999981
 20
0.0136
 30
0.0
 40
2.180498
 50
180.0
 51
0.0
  0
ARC
  5
5A4
  8
FIX
  6
CONTINUOUS
 62
    11
 10
-79.891369999999981
 20
6.0054530000000002
 30
0.0
 40
2.180498
 50
0.0
 51
180.0
  0
LINE
  5
5A5
  8
FIX
  6
CONTINUOUS
 62
    11
 10
-82.071867999999981
 20
6.0054530000000002
 30
0.0
 11
-82.071867999999981
 21
0.0136
 31
0.0
  0
LINE
  5
5A6
  8
FIX
  6
CONTINUOUS
 62
    11
 10
-77.710871999999981
 20
0.0136
 30
0.0
 11
-77.710871999999981
 21
6.0054530000000002
 31
0.0
  0
LINE
  5
5A7
  8
FIX
  6
CONTINUOUS
 62
    11
 10
77.894086000000001
 20
6.0054530000000002
 30
0.0
 11
77.894086000000001
 21
0.0136
 31
0.0
  0
LINE
  5
5A8
  8
FIX
  6
CONTINUOUS
 62
    11
 10
81.888654000000002
 20
0.0136
 30
0.0
 11
81.888654000000002
 21
6.0054530000000002
 31
0.0
  0
ARC
  5
5A9
  8
FIX
  6
CONTINUOUS
 62
    11
 10
79.891369999999981
 20
0.0136
 30
0.0
 40
1.9972840000000001
 50
180.0
 51
0.0
  0
ARC
  5
5AA
  8
FIX
  6
CONTINUOUS
 62
    11
 10
79.891369999999981
 20
6.0054530000000002
 30
0.0
 40
1.9972840000000001
 50
0.0
 51
180.0
  0
LINE
  5
5AB
  8
DETAIL
  6
CONTINUOUS
 62
     5
 10
-88.502077999999969
 20
80.013574000000006
 30
0.0
 11
88.502077999999969
 21
80.013574000000006
 31
0.0
  0
LINE
  5
5AC
  8
DETAIL
  6
CONTINUOUS
 62
     5
 10
-88.64859399999996
 20
80.006377999999984
 30
0.0
 11
-88.502077999999969
 21
80.013563000000005
 31
0.0
  0
LINE
  5
5AD
  8
DETAIL
  6
CONTINUOUS
 62
     5
 10
-88.793751999999998
 20
79.984887999999998
 30
0.0
 11
-88.64859399999996
 21
80.006377999999984
 31
0.0
  0
LINE
  5
5AE
  8
DETAIL
  6
CONTINUOUS
 62
     5
 10
-88.936128999999994
 20
79.949293000000026
 30
0.0
 11
-88.793751999999998
 21
79.984887999999998
 31
0.0
  0
LINE
  5
5AF
  8
DETAIL
  6
CONTINUOUS
 62
     5
 10
-89.074438999999998
 20
79.899895000000001
 30
0.0
 11
-88.936128999999994
 21
79.949293000000026
 31
0.0
  0
LINE
  5
5B0
  8
DETAIL
  6
CONTINUOUS
 62
     5
 10
-89.207464000000002
 20
79.837074000000001
 30
0.0
 11
-89.074438999999998
 21
79.899895000000001
 31
0.0
  0
LINE
  5
5B1
  8
DETAIL
  6
CONTINUOUS
 62
     5
 10
-89.333746999999988
 20
79.761465000000001
 30
0.0
 11
-89.207464000000002
 21
79.837074000000001
 31
0.0
  0
LINE
  5
5B2
  8
DETAIL
  6
CONTINUOUS
 62
     5
 10
-89.451947000000004
 20
79.673872000000003
 30
0.0
 11
-89.333746999999988
 21
79.761465000000001
 31
0.0
  0
LINE
  5
5B3
  8
DETAIL
  6
CONTINUOUS
 62
     5
 10
-89.560976999999994
 20
79.575112000000004
 30
0.0
 11
-89.451947000000004
 21
79.673872000000003
 31
0.0
  0
LINE
  5
5B4
  8
DETAIL
  6
CONTINUOUS
 62
     5
 10
-89.659795000000017
 20
79.466132000000002
 30
0.0
 11
-89.560976999999994
 21
79.575112000000004
 31
0.0
  0
LINE
  5
5B5
  8
DETAIL
  6
CONTINUOUS
 62
     5
 10
-89.747449000000003
 20
79.347980000000007
 30
0.0
 11
-89.659795000000017
 21
79.466132000000002
 31
0.0
  0
LINE
  5
5B6
  8
DETAIL
  6
CONTINUOUS
 62
     5
 10
-89.823099999999982
 20
79.221781999999976
 30
0.0
 11
-89.747449000000003
 21
79.347980000000007
 31
0.0
  0
LINE
  5
5B7
  8
DETAIL
  6
CONTINUOUS
 62
     5
 10
-89.885998000000015
 20
79.088785999999999
 30
0.0
 11
-89.823099999999982
 21
79.221781999999976
 31
0.0
  0
LINE
  5
5B8
  8
DETAIL
  6
CONTINUOUS
 62
     5
 10
-89.935531999999995
 20
78.950308999999976
 30
0.0
 11
-89.885998000000015
 21
79.088785999999999
 31
0.0
  0
LINE
  5
5B9
  8
DETAIL
  6
CONTINUOUS
 62
     5
 10
-89.971237000000016
 20
78.807695999999979
 30
0.0
 11
-89.935531999999995
 21
78.950308999999976
 31
0.0
  0
LINE
  5
5BA
  8
DETAIL
  6
CONTINUOUS
 62
     5
 10
-89.992781999999977
 20
78.662346999999983
 30
0.0
 11
-89.971237000000016
 21
78.807695999999979
 31
0.0
  0
LINE
  5
5BB
  8
DETAIL
  6
CONTINUOUS
 62
     5
 10
-89.999983999999998
 20
78.515656999999976
 30
0.0
 11
-89.992781999999977
 21
78.662346999999983
 31
0.0
  0
LINE
  5
5BC
  8
DETAIL
  6
CONTINUOUS
 62
     5
 10
89.992781999999977
 20
78.662346999999983
 30
0.0
 11
89.999983999999998
 21
78.515656999999976
 31
0.0
  0
LINE
  5
5BD
  8
DETAIL
  6
CONTINUOUS
 62
     5
 10
89.971237000000016
 20
78.807695999999979
 30
0.0
 11
89.992781999999977
 21
78.662346999999983
 31
0.0
  0
LINE
  5
5BE
  8
DETAIL
  6
CONTINUOUS
 62
     5
 10
89.935531999999995
 20
78.950308999999976
 30
0.0
 11
89.971237000000016
 21
78.807695999999979
 31
0.0
  0
LINE
  5
5BF
  8
DETAIL
  6
CONTINUOUS
 62
     5
 10
89.885998000000015
 20
79.088785999999999
 30
0.0
 11
89.935531999999995
 21
78.950308999999976
 31
0.0
  0
LINE
  5
5C0
  8
DETAIL
  6
CONTINUOUS
 62
     5
 10
89.823099999999982
 20
79.221781999999976
 30
0.0
 11
89.885998000000015
 21
79.088785999999999
 31
0.0
  0
LINE
  5
5C1
  8
DETAIL
  6
CONTINUOUS
 62
     5
 10
89.747449000000003
 20
79.347980000000007
 30
0.0
 11
89.823099999999982
 21
79.221781999999976
 31
0.0
  0
LINE
  5
5C2
  8
DETAIL
  6
CONTINUOUS
 62
     5
 10
89.659795000000017
 20
79.466132000000002
 30
0.0
 11
89.747449000000003
 21
79.347980000000007
 31
0.0
  0
LINE
  5
5C3
  8
DETAIL
  6
CONTINUOUS
 62
     5
 10
89.560976999999994
 20
79.575112000000004
 30
0.0
 11
89.659795000000017
 21
79.466132000000002
 31
0.0
  0
LINE
  5
5C4
  8
DETAIL
  6
CONTINUOUS
 62
     5
 10
89.451947000000004
 20
79.673872000000003
 30
0.0
 11
89.560976999999994
 21
79.575112000000004
 31
0.0
  0
LINE
  5
5C5
  8
DETAIL
  6
CONTINUOUS
 62
     5
 10
89.333746999999988
 20
79.761465000000001
 30
0.0
 11
89.451947000000004
 21
79.673872000000003
 31
0.0
  0
LINE
  5
5C6
  8
DETAIL
  6
CONTINUOUS
 62
     5
 10
89.207464000000002
 20
79.837074000000001
 30
0.0
 11
89.333746999999988
 21
79.761465000000001
 31
0.0
  0
LINE
  5
5C7
  8
DETAIL
  6
CONTINUOUS
 62
     5
 10
89.074438999999998
 20
79.899895000000001
 30
0.0
 11
89.207464000000002
 21
79.837074000000001
 31
0.0
  0
LINE
  5
5C8
  8
DETAIL
  6
CONTINUOUS
 62
     5
 10
88.936128999999994
 20
79.949293000000026
 30
0.0
 11
89.074438999999998
 21
79.899895000000001
 31
0.0
  0
LINE
  5
5C9
  8
DETAIL
  6
CONTINUOUS
 62
     5
 10
88.793751999999998
 20
79.984887999999998
 30
0.0
 11
88.936128999999994
 21
79.949293000000026
 31
0.0
  0
LINE
  5
5CA
  8
DETAIL
  6
CONTINUOUS
 62
     5
 10
88.64859399999996
 20
80.006377999999984
 30
0.0
 11
88.793751999999998
 21
79.984887999999998
 31
0.0
  0
LINE
  5
5CB
  8
DETAIL
  6
CONTINUOUS
 62
     5
 10
88.502077999999969
 20
80.013563000000005
 30
0.0
 11
88.64859399999996
 21
80.006377999999984
 31
0.0
  0
LINE
  5
5CC
  8
OUTLINE
  6
CONTINUOUS
 62
     3
 10
-89.999995999999982
 20
-98.488499000000004
 30
0.0
 11
-89.999995999999982
 21
78.515656999999976
 31
0.0
  0
LINE
  5
5CD
  8
OUTLINE
  6
CONTINUOUS
 62
     3
 10
89.999995999999982
 20
78.515656999999976
 30
0.0
 11
89.999995999999982
 21
-98.488499000000004
 31
0.0
  0
LINE
  5
5CE
  8
OUTLINE
  6
CONTINUOUS
 62
     3
 10
-10.98254
 20
-99.986417000000003
 30
0.0
 11
-88.502077999999969
 21
-99.986417000000003
 31
0.0
  0
LINE
  5
5CF
  8
OUTLINE
  6
CONTINUOUS
 62
     3
 10
-89.992781999999977
 20
-98.635190000000037
 30
0.0
 11
-89.999983999999998
 21
-98.488499000000004
 31
0.0
  0
LINE
  5
5D0
  8
OUTLINE
  6
CONTINUOUS
 62
     3
 10
-89.971237000000016
 20
-98.780539000000005
 30
0.0
 11
-89.992781999999977
 21
-98.635190000000037
 31
0.0
  0
LINE
  5
5D1
  8
OUTLINE
  6
CONTINUOUS
 62
     3
 10
-89.935531999999995
 20
-98.923151000000004
 30
0.0
 11
-89.971237000000016
 21
-98.780539000000005
 31
0.0
  0
LINE
  5
5D2
  8
OUTLINE
  6
CONTINUOUS
 62
     3
 10
-89.885998000000015
 20
-99.061628999999996
 30
0.0
 11
-89.935531999999995
 21
-98.923151000000004
 31
0.0
  0
LINE
  5
5D3
  8
OUTLINE
  6
CONTINUOUS
 62
     3
 10
-89.823099999999982
 20
-99.194624000000005
 30
0.0
 11
-89.885998000000015
 21
-99.061628999999996
 31
0.0
  0
LINE
  5
5D4
  8
OUTLINE
  6
CONTINUOUS
 62
     3
 10
-89.747449000000003
 20
-99.320823000000004
 30
0.0
 11
-89.823099999999982
 21
-99.194624000000005
 31
0.0
  0
LINE
  5
5D5
  8
OUTLINE
  6
CONTINUOUS
 62
     3
 10
-89.659795000000017
 20
-99.438974000000002
 30
0.0
 11
-89.747449000000003
 21
-99.320823000000004
 31
0.0
  0
LINE
  5
5D6
  8
OUTLINE
  6
CONTINUOUS
 62
     3
 10
-89.560976999999994
 20
-99.547955000000016
 30
0.0
 11
-89.659795000000017
 21
-99.438974000000002
 31
0.0
  0
LINE
  5
5D7
  8
OUTLINE
  6
CONTINUOUS
 62
     3
 10
-89.451947000000004
 20
-99.646714000000003
 30
0.0
 11
-89.560976999999994
 21
-99.547955000000016
 31
0.0
  0
LINE
  5
5D8
  8
OUTLINE
  6
CONTINUOUS
 62
     3
 10
-89.333746999999988
 20
-99.734307000000015
 30
0.0
 11
-89.451947000000004
 21
-99.646714000000003
 31
0.0
  0
LINE
  5
5D9
  8
OUTLINE
  6
CONTINUOUS
 62
     3
 10
-89.207464000000002
 20
-99.809916000000015
 30
0.0
 11
-89.333746999999988
 21
-99.734307000000015
 31
0.0
  0
LINE
  5
5DA
  8
OUTLINE
  6
CONTINUOUS
 62
     3
 10
-89.074438999999998
 20
-99.872737000000015
 30
0.0
 11
-89.207464000000002
 21
-99.809916000000015
 31
0.0
  0
LINE
  5
5DB
  8
OUTLINE
  6
CONTINUOUS
 62
     3
 10
-88.936128999999994
 20
-99.922134999999997
 30
0.0
 11
-89.074438999999998
 21
-99.872737000000015
 31
0.0
  0
LINE
  5
5DC
  8
OUTLINE
  6
CONTINUOUS
 62
     3
 10
-88.793751999999998
 20
-99.957729999999984
 30
0.0
 11
-88.936128999999994
 21
-99.922134999999997
 31
0.0
  0
LINE
  5
5DD
  8
OUTLINE
  6
CONTINUOUS
 62
     3
 10
-88.64859399999996
 20
-99.979220999999995
 30
0.0
 11
-88.793751999999998
 21
-99.957729999999984
 31
0.0
  0
LINE
  5
5DE
  8
OUTLINE
  6
CONTINUOUS
 62
     3
 10
-88.502077999999969
 20
-99.986405000000005
 30
0.0
 11
-88.64859399999996
 21
-99.979220999999995
 31
0.0
  0
LINE
  5
5DF
  8
OUTLINE
  6
CONTINUOUS
 62
     3
 10
35.386078999999967
 20
-99.980289000000013
 30
0.0
 11
66.600758999999996
 21
-99.979995999999986
 31
0.0
  0
LINE
  5
5E0
  8
OUTLINE
  6
CONTINUOUS
 62
     3
 10
19.972842
 20
-99.986417000000003
 30
0.0
 11
10.98254
 21
-99.986417000000003
 31
0.0
  0
LINE
  5
5E1
  8
OUTLINE
  6
CONTINUOUS
 62
     3
 10
-6.5733670000000002
 20
-99.851591999999997
 30
0.0
 11
6.7821360000000004
 21
-99.852194999999995
 31
0.0
  0
LINE
  5
5E2
  8
OUTLINE
  6
CONTINUOUS
 62
     3
 10
6.5733670000000002
 20
-99.851591999999997
 30
0.0
 11
6.7821360000000004
 21
-99.852194999999995
 31
0.0
  0
LINE
  5
5E3
  8
OUTLINE
  6
CONTINUOUS
 62
     3
 10
10.549617
 20
-99.887701000000007
 30
0.0
 11
10.543730999999999
 21
-99.88445200000001
 31
0.0
  0
LINE
  5
5E4
  8
OUTLINE
  6
CONTINUOUS
 62
     3
 10
10.652915
 20
-99.930446000000003
 30
0.0
 11
10.549617
 21
-99.887701000000007
 31
0.0
  0
LINE
  5
5E5
  8
OUTLINE
  6
CONTINUOUS
 62
     3
 10
10.76031399999999
 20
-99.961371
 30
0.0
 11
10.652915
 21
-99.930446000000003
 31
0.0
  0
LINE
  5
5E6
  8
OUTLINE
  6
CONTINUOUS
 62
     3
 10
10.87067
 20
-99.980121999999994
 30
0.0
 11
10.76031399999999
 21
-99.961371
 31
0.0
  0
LINE
  5
5E7
  8
OUTLINE
  6
CONTINUOUS
 62
     3
 10
10.98254
 20
-99.986405000000005
 30
0.0
 11
10.87067
 21
-99.980121999999994
 31
0.0
  0
LINE
  5
5E8
  8
OUTLINE
  6
CONTINUOUS
 62
     3
 10
10.51336199999999
 20
-99.883702999999997
 30
0.0
 11
10.61135099999999
 21
-99.886270999999994
 31
0.0
  0
LINE
  5
5E9
  8
OUTLINE
  6
CONTINUOUS
 62
     3
 10
10.359914
 20
-99.880390000000006
 30
0.0
 11
10.51336199999999
 21
-99.883702999999997
 31
0.0
  0
LINE
  5
5EA
  8
OUTLINE
  6
CONTINUOUS
 62
     3
 10
10.086182000000001
 20
-99.875690000000006
 30
0.0
 11
10.359914
 21
-99.880390000000006
 31
0.0
  0
LINE
  5
5EB
  8
OUTLINE
  6
CONTINUOUS
 62
     3
 10
9.5748429999999995
 20
-99.869139000000004
 30
0.0
 11
10.086182000000001
 21
-99.875690000000006
 31
0.0
  0
LINE
  5
5EC
  8
OUTLINE
  6
CONTINUOUS
 62
     3
 10
8.4579500000000003
 20
-99.859762000000003
 30
0.0
 11
9.5748429999999995
 21
-99.869139000000004
 31
0.0
  0
LINE
  5
5ED
  8
OUTLINE
  6
CONTINUOUS
 62
     3
 10
6.7821360000000004
 20
-99.852194999999995
 30
0.0
 11
8.4579500000000003
 21
-99.859762000000003
 31
0.0
  0
LINE
  5
5EE
  8
OUTLINE
  6
CONTINUOUS
 62
     3
 10
34.952474000000002
 20
-99.986417000000003
 30
0.0
 11
34.453153
 21
-99.986417000000003
 31
0.0
  0
LINE
  5
5EF
  8
OUTLINE
  6
CONTINUOUS
 62
     3
 10
34.453153
 20
-99.986405000000005
 30
0.0
 11
19.972842
 21
-99.986417000000003
 31
0.0
  0
LINE
  5
5F0
  8
OUTLINE
  6
CONTINUOUS
 62
     3
 10
35.055703999999992
 20
-99.978623000000013
 30
0.0
 11
35.147866
 21
-99.979427000000015
 31
0.0
  0
LINE
  5
5F1
  8
OUTLINE
  6
CONTINUOUS
 62
     3
 10
35.019373000000002
 20
-99.978149000000016
 30
0.0
 11
35.055703999999992
 21
-99.978623000000013
 31
0.0
  0
LINE
  5
5F2
  8
OUTLINE
  6
CONTINUOUS
 62
     3
 10
34.99053499999998
 20
-99.977638000000013
 30
0.0
 11
35.019373000000002
 21
-99.978149000000016
 31
0.0
  0
LINE
  5
5F3
  8
OUTLINE
  6
CONTINUOUS
 62
     3
 10
34.969489000000003
 20
-99.977097999999998
 30
0.0
 11
34.99053499999998
 21
-99.977638000000013
 31
0.0
  0
LINE
  5
5F4
  8
OUTLINE
  6
CONTINUOUS
 62
     3
 10
35.147866
 20
-99.979427000000015
 30
0.0
 11
35.386078999999967
 21
-99.980289000000013
 31
0.0
  0
LINE
  5
5F5
  8
OUTLINE
  6
CONTINUOUS
 62
     3
 10
88.502077999999969
 20
-99.986417000000003
 30
0.0
 11
66.909021999999993
 21
-99.986417000000003
 31
0.0
  0
LINE
  5
5F6
  8
OUTLINE
  6
CONTINUOUS
 62
     3
 10
66.600758999999996
 20
-99.979995999999986
 30
0.0
 11
66.762771000000001
 21
-99.979050999999998
 31
0.0
  0
LINE
  5
5F7
  8
OUTLINE
  6
CONTINUOUS
 62
     3
 10
66.762771000000001
 20
-99.979050999999998
 30
0.0
 11
66.842123999999984
 21
-99.978149000000016
 31
0.0
  0
LINE
  5
5F8
  8
OUTLINE
  6
CONTINUOUS
 62
     3
 10
66.904623999999998
 20
-99.976544000000004
 30
0.0
 11
66.909021999999993
 21
-99.975969999999975
 31
0.0
  0
LINE
  5
5F9
  8
OUTLINE
  6
CONTINUOUS
 62
     3
 10
66.89200799999999
 20
-99.977097999999998
 30
0.0
 11
66.904623999999998
 21
-99.976544000000004
 31
0.0
  0
LINE
  5
5FA
  8
OUTLINE
  6
CONTINUOUS
 62
     3
 10
66.870962000000006
 20
-99.977638000000013
 30
0.0
 11
66.89200799999999
 21
-99.977097999999998
 31
0.0
  0
LINE
  5
5FB
  8
OUTLINE
  6
CONTINUOUS
 62
     3
 10
66.842123999999984
 20
-99.978149000000016
 30
0.0
 11
66.870962000000006
 21
-99.977638000000013
 31
0.0
  0
LINE
  5
5FC
  8
OUTLINE
  6
CONTINUOUS
 62
     3
 10
88.64859399999996
 20
-99.979220999999995
 30
0.0
 11
88.502077999999969
 21
-99.986405000000005
 31
0.0
  0
LINE
  5
5FD
  8
OUTLINE
  6
CONTINUOUS
 62
     3
 10
88.793751999999998
 20
-99.957729999999984
 30
0.0
 11
88.64859399999996
 21
-99.979220999999995
 31
0.0
  0
LINE
  5
5FE
  8
OUTLINE
  6
CONTINUOUS
 62
     3
 10
88.936128999999994
 20
-99.922134999999997
 30
0.0
 11
88.793751999999998
 21
-99.957729999999984
 31
0.0
  0
LINE
  5
5FF
  8
OUTLINE
  6
CONTINUOUS
 62
     3
 10
89.074438999999998
 20
-99.872737000000015
 30
0.0
 11
88.936128999999994
 21
-99.922134999999997
 31
0.0
  0
LINE
  5
600
  8
OUTLINE
  6
CONTINUOUS
 62
     3
 10
89.207464000000002
 20
-99.809916000000015
 30
0.0
 11
89.074438999999998
 21
-99.872737000000015
 31
0.0
  0
LINE
  5
601
  8
OUTLINE
  6
CONTINUOUS
 62
     3
 10
89.333746999999988
 20
-99.734307000000015
 30
0.0
 11
89.207464000000002
 21
-99.809916000000015
 31
0.0
  0
LINE
  5
602
  8
OUTLINE
  6
CONTINUOUS
 62
     3
 10
89.451947000000004
 20
-99.646714000000003
 30
0.0
 11
89.333746999999988
 21
-99.734307000000015
 31
0.0
  0
LINE
  5
603
  8
OUTLINE
  6
CONTINUOUS
 62
     3
 10
89.560976999999994
 20
-99.547955000000016
 30
0.0
 11
89.451947000000004
 21
-99.646714000000003
 31
0.0
  0
LINE
  5
604
  8
OUTLINE
  6
CONTINUOUS
 62
     3
 10
89.659795000000017
 20
-99.438974000000002
 30
0.0
 11
89.560976999999994
 21
-99.547955000000016
 31
0.0
  0
LINE
  5
605
  8
OUTLINE
  6
CONTINUOUS
 62
     3
 10
89.747449000000003
 20
-99.320823000000004
 30
0.0
 11
89.659795000000017
 21
-99.438974000000002
 31
0.0
  0
LINE
  5
606
  8
OUTLINE
  6
CONTINUOUS
 62
     3
 10
89.823099999999982
 20
-99.194624000000005
 30
0.0
 11
89.747449000000003
 21
-99.320823000000004
 31
0.0
  0
LINE
  5
607
  8
OUTLINE
  6
CONTINUOUS
 62
     3
 10
89.885998000000015
 20
-99.061628999999996
 30
0.0
 11
89.823099999999982
 21
-99.194624000000005
 31
0.0
  0
LINE
  5
608
  8
OUTLINE
  6
CONTINUOUS
 62
     3
 10
89.935531999999995
 20
-98.923151000000004
 30
0.0
 11
89.885998000000015
 21
-99.061628999999996
 31
0.0
  0
LINE
  5
609
  8
OUTLINE
  6
CONTINUOUS
 62
     3
 10
89.971237000000016
 20
-98.780539000000005
 30
0.0
 11
89.935531999999995
 21
-98.923151000000004
 31
0.0
  0
LINE
  5
60A
  8
OUTLINE
  6
CONTINUOUS
 62
     3
 10
89.992781999999977
 20
-98.635190000000037
 30
0.0
 11
89.971237000000016
 21
-98.780539000000005
 31
0.0
  0
LINE
  5
60B
  8
OUTLINE
  6
CONTINUOUS
 62
     3
 10
89.999983999999998
 20
-98.488499000000004
 30
0.0
 11
89.992781999999977
 21
-98.635190000000037
 31
0.0
  0
LINE
  5
60C
  8
OUTLINE
  6
CONTINUOUS
 62
     3
 10
-88.502077999999969
 20
80.013574000000006
 30
0.0
 11
88.502077999999969
 21
80.013574000000006
 31
0.0
  0
LINE
  5
60D
  8
OUTLINE
  6
CONTINUOUS
 62
     3
 10
-88.64859399999996
 20
80.006377999999984
 30
0.0
 11
-88.502077999999969
 21
80.013563000000005
 31
0.0
  0
LINE
  5
60E
  8
OUTLINE
  6
CONTINUOUS
 62
     3
 10
-88.793751999999998
 20
79.984887999999998
 30
0.0
 11
-88.64859399999996
 21
80.006377999999984
 31
0.0
  0
LINE
  5
60F
  8
OUTLINE
  6
CONTINUOUS
 62
     3
 10
-88.936128999999994
 20
79.949293000000026
 30
0.0
 11
-88.793751999999998
 21
79.984887999999998
 31
0.0
  0
LINE
  5
610
  8
OUTLINE
  6
CONTINUOUS
 62
     3
 10
-89.074438999999998
 20
79.899895000000001
 30
0.0
 11
-88.936128999999994
 21
79.949293000000026
 31
0.0
  0
LINE
  5
611
  8
OUTLINE
  6
CONTINUOUS
 62
     3
 10
-89.207464000000002
 20
79.837074000000001
 30
0.0
 11
-89.074438999999998
 21
79.899895000000001
 31
0.0
  0
LINE
  5
612
  8
OUTLINE
  6
CONTINUOUS
 62
     3
 10
-89.333746999999988
 20
79.761465000000001
 30
0.0
 11
-89.207464000000002
 21
79.837074000000001
 31
0.0
  0
LINE
  5
613
  8
OUTLINE
  6
CONTINUOUS
 62
     3
 10
-89.451947000000004
 20
79.673872000000003
 30
0.0
 11
-89.333746999999988
 21
79.761465000000001
 31
0.0
  0
LINE
  5
614
  8
OUTLINE
  6
CONTINUOUS
 62
     3
 10
-89.560976999999994
 20
79.575112000000004
 30
0.0
 11
-89.451947000000004
 21
79.673872000000003
 31
0.0
  0
LINE
  5
615
  8
OUTLINE
  6
CONTINUOUS
 62
     3
 10
-89.659795000000017
 20
79.466132000000002
 30
0.0
 11
-89.560976999999994
 21
79.575112000000004
 31
0.0
  0
LINE
  5
616
  8
OUTLINE
  6
CONTINUOUS
 62
     3
 10
-89.747449000000003
 20
79.347980000000007
 30
0.0
 11
-89.659795000000017
 21
79.466132000000002
 31
0.0
  0
LINE
  5
617
  8
OUTLINE
  6
CONTINUOUS
 62
     3
 10
-89.823099999999982
 20
79.221781999999976
 30
0.0
 11
-89.747449000000003
 21
79.347980000000007
 31
0.0
  0
LINE
  5
618
  8
OUTLINE
  6
CONTINUOUS
 62
     3
 10
-89.885998000000015
 20
79.088785999999999
 30
0.0
 11
-89.823099999999982
 21
79.221781999999976
 31
0.0
  0
LINE
  5
619
  8
OUTLINE
  6
CONTINUOUS
 62
     3
 10
-89.935531999999995
 20
78.950308999999976
 30
0.0
 11
-89.885998000000015
 21
79.088785999999999
 31
0.0
  0
LINE
  5
61A
  8
OUTLINE
  6
CONTINUOUS
 62
     3
 10
-89.971237000000016
 20
78.807695999999979
 30
0.0
 11
-89.935531999999995
 21
78.950308999999976
 31
0.0
  0
LINE
  5
61B
  8
OUTLINE
  6
CONTINUOUS
 62
     3
 10
-89.992781999999977
 20
78.662346999999983
 30
0.0
 11
-89.971237000000016
 21
78.807695999999979
 31
0.0
  0
LINE
  5
61C
  8
OUTLINE
  6
CONTINUOUS
 62
     3
 10
-89.999983999999998
 20
78.515656999999976
 30
0.0
 11
-89.992781999999977
 21
78.662346999999983
 31
0.0
  0
LINE
  5
61D
  8
OUTLINE
  6
CONTINUOUS
 62
     3
 10
89.992781999999977
 20
78.662346999999983
 30
0.0
 11
89.999983999999998
 21
78.515656999999976
 31
0.0
  0
LINE
  5
61E
  8
OUTLINE
  6
CONTINUOUS
 62
     3
 10
89.971237000000016
 20
78.807695999999979
 30
0.0
 11
89.992781999999977
 21
78.662346999999983
 31
0.0
  0
LINE
  5
61F
  8
OUTLINE
  6
CONTINUOUS
 62
     3
 10
89.935531999999995
 20
78.950308999999976
 30
0.0
 11
89.971237000000016
 21
78.807695999999979
 31
0.0
  0
LINE
  5
620
  8
OUTLINE
  6
CONTINUOUS
 62
     3
 10
89.885998000000015
 20
79.088785999999999
 30
0.0
 11
89.935531999999995
 21
78.950308999999976
 31
0.0
  0
LINE
  5
621
  8
OUTLINE
  6
CONTINUOUS
 62
     3
 10
89.823099999999982
 20
79.221781999999976
 30
0.0
 11
89.885998000000015
 21
79.088785999999999
 31
0.0
  0
LINE
  5
622
  8
OUTLINE
  6
CONTINUOUS
 62
     3
 10
89.747449000000003
 20
79.347980000000007
 30
0.0
 11
89.823099999999982
 21
79.221781999999976
 31
0.0
  0
LINE
  5
623
  8
OUTLINE
  6
CONTINUOUS
 62
     3
 10
89.659795000000017
 20
79.466132000000002
 30
0.0
 11
89.747449000000003
 21
79.347980000000007
 31
0.0
  0
LINE
  5
624
  8
OUTLINE
  6
CONTINUOUS
 62
     3
 10
89.560976999999994
 20
79.575112000000004
 30
0.0
 11
89.659795000000017
 21
79.466132000000002
 31
0.0
  0
LINE
  5
625
  8
OUTLINE
  6
CONTINUOUS
 62
     3
 10
89.451947000000004
 20
79.673872000000003
 30
0.0
 11
89.560976999999994
 21
79.575112000000004
 31
0.0
  0
LINE
  5
626
  8
OUTLINE
  6
CONTINUOUS
 62
     3
 10
89.333746999999988
 20
79.761465000000001
 30
0.0
 11
89.451947000000004
 21
79.673872000000003
 31
0.0
  0
LINE
  5
627
  8
OUTLINE
  6
CONTINUOUS
 62
     3
 10
89.207464000000002
 20
79.837074000000001
 30
0.0
 11
89.333746999999988
 21
79.761465000000001
 31
0.0
  0
LINE
  5
628
  8
OUTLINE
  6
CONTINUOUS
 62
     3
 10
89.074438999999998
 20
79.899895000000001
 30
0.0
 11
89.207464000000002
 21
79.837074000000001
 31
0.0
  0
LINE
  5
629
  8
OUTLINE
  6
CONTINUOUS
 62
     3
 10
88.936128999999994
 20
79.949293000000026
 30
0.0
 11
89.074438999999998
 21
79.899895000000001
 31
0.0
  0
LINE
  5
62A
  8
OUTLINE
  6
CONTINUOUS
 62
     3
 10
88.793751999999998
 20
79.984887999999998
 30
0.0
 11
88.936128999999994
 21
79.949293000000026
 31
0.0
  0
LINE
  5
62B
  8
OUTLINE
  6
CONTINUOUS
 62
     3
 10
88.64859399999996
 20
80.006377999999984
 30
0.0
 11
88.793751999999998
 21
79.984887999999998
 31
0.0
  0
LINE
  5
62C
  8
OUTLINE
  6
CONTINUOUS
 62
     3
 10
88.502077999999969
 20
80.013563000000005
 30
0.0
 11
88.64859399999996
 21
80.006377999999984
 31
0.0
  0
LINE
  5
62D
  8
BASIS
  6
DASHDOT
 62
     6
 39
50.0
 10
-60.038401999999991
 20
6.0135990000000001
 30
0.0
 11
-99.970636999999996
 21
6.0135979999999991
 31
0.0
  0
LINE
  5
62E
  8
BASIS
  6
DASHDOT
 62
     6
 39
50.0
 10
99.961597999999995
 20
6.0135990000000001
 30
0.0
 11
60.029362999999996
 21
6.0135979999999991
 31
0.0
  0
LINE
  5
62F
  8
SIZE
  6
CONTINUOUS
 62
    30
 10
-89.999995999999982
 20
-118.488499
 30
0.0
 11
-89.999995999999982
 21
-455.19782599999991
 31
0.0
  0
LINE
  5
630
  8
SIZE
  6
CONTINUOUS
 62
    30
 10
89.999995999999982
 20
-118.488499
 30
0.0
 11
89.999995999999982
 21
-455.19782599999991
 31
0.0
  0
LINE
  5
631
  8
SIZE
  6
CONTINUOUS
 62
    30
 10
-101.999996
 20
-435.19782600000002
 30
0.0
 11
-113.9999959999999
 21
-435.19782600000002
 31
0.0
  0
LINE
  5
632
  8
SIZE
  6
CONTINUOUS
 62
    30
 10
101.999996
 20
-435.19782600000002
 30
0.0
 11
113.9999959999999
 21
-435.19782600000002
 31
0.0
  0
LINE
  5
633
  8
SIZE
  6
CONTINUOUS
 62
    30
 10
-89.999995999999982
 20
-435.19782600000002
 30
0.0
 11
89.999995999999982
 21
-435.19782600000002
 31
0.0
  0
CIRCLE
  5
634
  8
SIZE
  6
CONTINUOUS
 62
    30
 10
-89.999995999999982
 20
-435.19782600000002
 30
0.0
 40
6.0
  0
LINE
  5
635
  8
SIZE
  6
CONTINUOUS
 62
    30
 10
-89.999995999999982
 20
-435.19782600000002
 30
0.0
 11
-101.999996
 21
-435.19782600000002
 31
0.0
  0
CIRCLE
  5
636
  8
SIZE
  6
CONTINUOUS
 62
    30
 10
89.999995999999982
 20
-435.19782600000002
 30
0.0
 40
6.0
  0
LINE
  5
637
  8
SIZE
  6
CONTINUOUS
 62
    30
 10
89.999995999999982
 20
-435.19782600000002
 30
0.0
 11
101.999996
 21
-435.19782600000002
 31
0.0
  0
TEXT
  5
638
  8
SIZE
  6
CONTINUOUS
 62
    30
 10
-68.571428571428555
 20
-410.19782600000002
 30
0.0
 40
64.0
  1
180
 41
0.9
 72
     1
 11
0.0
 21
-410.19782600000002
 31
0.0
  0
LINE
  5
639
  8
SIZE
  6
CONTINUOUS
 62
    30
 10
-80.108630000000005
 20
-36.990473999999992
 30
0.0
 11
-80.108630000000005
 21
-326.51335999999992
 31
0.0
  0
LINE
  5
63A
  8
SIZE
  6
CONTINUOUS
 62
    30
 10
79.891369999999981
 20
-36.990473999999992
 30
0.0
 11
79.891369999999981
 21
-326.51335999999992
 31
0.0
  0
LINE
  5
63B
  8
SIZE
  6
CONTINUOUS
 62
    30
 10
-92.108630000000005
 20
-306.51335999999992
 30
0.0
 11
-104.10863000000001
 21
-306.51335999999992
 31
0.0
  0
LINE
  5
63C
  8
SIZE
  6
CONTINUOUS
 62
    30
 10
91.891369999999995
 20
-306.51335999999992
 30
0.0
 11
103.8913699999999
 21
-306.51335999999992
 31
0.0
  0
LINE
  5
63D
  8
SIZE
  6
CONTINUOUS
 62
    30
 10
-80.108630000000005
 20
-306.51335999999992
 30
0.0
 11
79.891369999999981
 21
-306.51335999999992
 31
0.0
  0
CIRCLE
  5
63E
  8
SIZE
  6
CONTINUOUS
 62
    30
 10
-80.108630000000005
 20
-306.51335999999992
 30
0.0
 40
6.0
  0
LINE
  5
63F
  8
SIZE
  6
CONTINUOUS
 62
    30
 10
-80.108630000000005
 20
-306.51335999999992
 30
0.0
 11
-92.108630000000005
 21
-306.51335999999992
 31
0.0
  0
CIRCLE
  5
640
  8
SIZE
  6
CONTINUOUS
 62
    30
 10
79.891369999999981
 20
-306.51335999999992
 30
0.0
 40
6.0
  0
LINE
  5
641
  8
SIZE
  6
CONTINUOUS
 62
    30
 10
79.891369999999981
 20
-306.51335999999992
 30
0.0
 11
91.891369999999995
 21
-306.51335999999992
 31
0.0
  0
TEXT
  5
642
  8
SIZE
  6
CONTINUOUS
 62
    30
 10
-68.68005857142856
 20
-281.51335999999992
 30
0.0
 40
64.0
  1
160
 41
0.9
 72
     1
 11
-0.10863
 21
-281.51335999999992
 31
0.0
  0
LINE
  5
643
  8
SIZE
  6
CONTINUOUS
 62
    30
 10
108.502078
 20
-99.986417000000003
 30
0.0
 11
613.87710500000003
 21
-99.986417000000003
 31
0.0
  0
LINE
  5
644
  8
SIZE
  6
CONTINUOUS
 62
    30
 10
108.502078
 20
80.013563000000005
 30
0.0
 11
613.87710500000003
 21
80.013563000000005
 31
0.0
  0
LINE
  5
645
  8
SIZE
  6
CONTINUOUS
 62
    30
 10
593.87710500000003
 20
-111.9864169999999
 30
0.0
 11
593.87710500000003
 21
-123.9864169999999
 31
0.0
  0
LINE
  5
646
  8
SIZE
  6
CONTINUOUS
 62
    30
 10
593.87710500000003
 20
92.013563000000005
 30
0.0
 11
593.87710500000003
 21
104.01356299999991
 31
0.0
  0
LINE
  5
647
  8
SIZE
  6
CONTINUOUS
 62
    30
 10
593.87710500000003
 20
-99.986417000000003
 30
0.0
 11
593.87710500000003
 21
80.013563000000005
 31
0.0
  0
CIRCLE
  5
648
  8
SIZE
  6
CONTINUOUS
 62
    30
 10
593.87710500000003
 20
-99.986417000000003
 30
0.0
 40
6.0
  0
LINE
  5
649
  8
SIZE
  6
CONTINUOUS
 62
    30
 10
593.87710500000003
 20
-99.986417000000003
 30
0.0
 11
593.87710500000003
 21
-111.9864169999999
 31
0.0
  0
CIRCLE
  5
64A
  8
SIZE
  6
CONTINUOUS
 62
    30
 10
593.87710500000003
 20
80.013563000000005
 30
0.0
 40
6.0
  0
LINE
  5
64B
  8
SIZE
  6
CONTINUOUS
 62
    30
 10
593.87710500000003
 20
80.013563000000005
 30
0.0
 11
593.87710500000003
 21
92.013563000000005
 31
0.0
  0
TEXT
  5
64C
  8
SIZE
  6
CONTINUOUS
 62
    30
 10
568.87710500000003
 20
-78.557855571428561
 30
0.0
 40
64.0
  1
180
 50
90.0
 41
0.9
 72
     1
 11
568.87710500000003
 21
-9.9864270000000008
 31
0.0
  0
LINE
  5
64D
  8
SIZE
  6
CONTINUOUS
 62
    30
 10
119.9615979999999
 20
6.0135990000000001
 30
0.0
 11
318.26950799999992
 21
6.0135990000000001
 31
0.0
  0
LINE
  5
64E
  8
SIZE
  6
CONTINUOUS
 62
    30
 10
143.75393700000001
 20
0.013603
 30
0.0
 11
318.26950799999992
 21
0.013603
 31
0.0
  0
LINE
  5
64F
  8
SIZE
  6
CONTINUOUS
 62
    30
 10
298.26950799999992
 20
-11.98639699999999
 30
0.0
 11
298.26950799999992
 21
-23.98639699999999
 31
0.0
  0
LINE
  5
650
  8
SIZE
  6
CONTINUOUS
 62
    30
 10
298.26950799999992
 20
18.013598999999981
 30
0.0
 11
298.26950799999992
 21
195.0603429999999
 31
0.0
  0
LINE
  5
651
  8
SIZE
  6
CONTINUOUS
 62
    30
 10
298.26950799999992
 20
0.013603
 30
0.0
 11
298.26950799999992
 21
6.0135990000000001
 31
0.0
  0
CIRCLE
  5
652
  8
SIZE
  6
CONTINUOUS
 62
    30
 10
298.26950799999992
 20
0.013603
 30
0.0
 40
6.0
  0
LINE
  5
653
  8
SIZE
  6
CONTINUOUS
 62
    30
 10
298.26950799999992
 20
0.013603
 30
0.0
 11
298.26950799999992
 21
-11.98639699999999
 31
0.0
  0
CIRCLE
  5
654
  8
SIZE
  6
CONTINUOUS
 62
    30
 10
298.26950799999992
 20
6.0135990000000001
 30
0.0
 40
6.0
  0
LINE
  5
655
  8
SIZE
  6
CONTINUOUS
 62
    30
 10
298.26950799999992
 20
6.0135990000000001
 30
0.0
 11
298.26950799999992
 21
18.013598999999981
 31
0.0
  0
TEXT
  5
656
  8
SIZE
  6
CONTINUOUS
 62
    30
 10
273.26950799999992
 20
134.4032005714285
 30
0.0
 40
64.0
  1
6
 50
90.0
 41
0.9
 72
     1
 11
273.26950799999992
 21
152.23177200000001
 31
0.0
  0
LINE
  5
657
  8
SIZE
  6
CONTINUOUS
 62
    30
 10
108.502078
 20
80.013574000000006
 30
0.0
 11
458.70650199999989
 21
80.013574000000006
 31
0.0
  0
LINE
  5
658
  8
SIZE
  6
CONTINUOUS
 62
    30
 10
143.75393700000001
 20
0.013603
 30
0.0
 11
458.70650199999989
 21
0.013603
 31
0.0
  0
LINE
  5
659
  8
SIZE
  6
CONTINUOUS
 62
    30
 10
438.70650199999989
 20
12.013603
 30
0.0
 11
438.70650199999989
 21
68.013574000000006
 31
0.0
  0
LINE
  5
65A
  8
SIZE
  6
CONTINUOUS
 62
    30
 10
438.70650199999989
 20
80.013574000000006
 30
0.0
 11
438.70650199999989
 21
235.27071699999991
 31
0.0
  0
CIRCLE
  5
65B
  8
SIZE
  6
CONTINUOUS
 62
    30
 10
438.70650199999989
 20
0.013603
 30
0.0
 40
6.0
  0
LINE
  5
65C
  8
SIZE
  6
CONTINUOUS
 62
    30
 10
438.70650199999989
 20
0.013603
 30
0.0
 11
438.70650199999989
 21
12.013603
 31
0.0
  0
CIRCLE
  5
65D
  8
SIZE
  6
CONTINUOUS
 62
    30
 10
438.70650199999989
 20
80.013574000000006
 30
0.0
 40
6.0
  0
LINE
  5
65E
  8
SIZE
  6
CONTINUOUS
 62
    30
 10
438.70650199999989
 20
80.013574000000006
 30
0.0
 11
438.70650199999989
 21
68.013574000000006
 31
0.0
  0
TEXT
  5
65F
  8
SIZE
  6
CONTINUOUS
 62
    30
 10
413.70650199999989
 20
117.01357457142851
 30
0.0
 40
64.0
  1
80
 50
90.0
 41
0.9
 72
     1
 11
413.70650199999989
 21
163.642146
 31
0.0
  0
CIRCLE
  5
660
  8
DETAIL
  6
CONTINUOUS
 62
     5
 39
50.0
 10
0.0
 20
0.0136
 30
0.0
 40
23.0
  0
CIRCLE
  5
661
  8
DETAIL
  6
CONTINUOUS
 62
     5
 39
50.0
 10
0.0
 20
0.0136
 30
0.0
 40
47.5
  0
LINE
  5
662
  8
SIZE
  6
CONTINUOUS
 62
    30
 10
131.4861809999999
 20
259.46963499999993
 30
0.0
 11
26.896536999999999
 21
53.087381999999998
 31
0.0
  0
LINE
  5
663
  8
SIZE
  6
CONTINUOUS
 62
    30
 10
-26.896536999999999
 20
-53.060181999999998
 30
0.0
 11
-32.321049000000002
 21
-63.764138000000003
 31
0.0
  0
TEXT
  5
664
  8
SIZE
  6
CONTINUOUS
 62
    30
 10
25.723660121335151
 20
106.0776007387592
 30
0.0
 40
64.0
  1
φ95
 50
63.125160000000001
 41
0.9
 72
     1
 11
65.028157999999991
 21
183.6353889999998
 31
0.0
  0
LINE
  5
665
  8
SIZE
  6
CONTINUOUS
 62
    30
 10
-21.472024999999999
 20
-42.356225999999999
 30
0.0
 11
21.472024999999999
 21
42.383426
 31
0.0
  0
CIRCLE
  5
666
  8
SIZE
  6
CONTINUOUS
 62
    30
 10
-21.472024999999999
 20
-42.356225999999999
 30
0.0
 40
6.0
  0
LINE
  5
667
  8
SIZE
  6
CONTINUOUS
 62
    30
 10
-21.472024999999999
 20
-42.356225999999999
 30
0.0
 11
-26.896536999999999
 21
-53.060181999999998
 31
0.0
  0
CIRCLE
  5
668
  8
SIZE
  6
CONTINUOUS
 62
    30
 10
21.472024999999999
 20
42.383426
 30
0.0
 40
6.0
  0
LINE
  5
669
  8
SIZE
  6
CONTINUOUS
 62
    30
 10
21.472024999999999
 20
42.383426
 30
0.0
 11
26.896536999999999
 21
53.087381999999998
 31
0.0
  0
LINE
  5
66A
  8
SIZE
  6
CONTINUOUS
 62
    30
 10
225.87682599999991
 20
-296.739238
 30
0.0
 11
21.198412999999999
 21
-27.83648599999999
 31
0.0
  0
LINE
  5
66B
  8
SIZE
  6
CONTINUOUS
 62
    30
 10
-21.198412999999999
 20
27.863685999999991
 30
0.0
 11
-28.466439999999992
 21
37.412286999999999
 31
0.0
  0
TEXT
  5
66C
  8
SIZE
  6
CONTINUOUS
 62
    30
 10
135.6037635231713
 20
-136.8634505761967
 30
0.0
 40
64.0
  1
φ46
 50
307.27698700000002
 41
0.9
 72
     1
 11
187.43517299999991
 21
-204.95862199999999
 31
0.0
  0
LINE
  5
66D
  8
SIZE
  6
CONTINUOUS
 62
    30
 10
-13.930384999999999
 20
18.315084999999989
 30
0.0
 11
13.930384999999999
 21
-18.287884999999989
 31
0.0
  0
CIRCLE
  5
66E
  8
SIZE
  6
CONTINUOUS
 62
    30
 10
-13.930384999999999
 20
18.315084999999989
 30
0.0
 40
6.0
  0
LINE
  5
66F
  8
SIZE
  6
CONTINUOUS
 62
    30
 10
-13.930384999999999
 20
18.315084999999989
 30
0.0
 11
-21.198412000000001
 21
27.863685999999991
 31
0.0
  0
CIRCLE
  5
670
  8
SIZE
  6
CONTINUOUS
 62
    30
 10
13.930384999999999
 20
-18.287884999999989
 30
0.0
 40
6.0
  0
LINE
  5
671
  8
SIZE
  6
CONTINUOUS
 62
    30
 10
13.930384999999999
 20
-18.287884999999989
 30
0.0
 11
21.198412000000001
 21
-27.83648599999999
 31
0.0
  0
LINE
  5
672
  8
OUTLINE
  6
CONTINUOUS
 62
     3
 10
-6.5733670000000002
 20
-99.851591999999997
 30
0.0
 11
-6.7821360000000004
 21
-99.852194999999995
 31
0.0
  0
LINE
  5
673
  8
OUTLINE
  6
CONTINUOUS
 62
     3
 10
-10.549617
 20
-99.887701000000007
 30
0.0
 11
-10.543730999999999
 21
-99.88445200000001
 31
0.0
  0
LINE
  5
674
  8
OUTLINE
  6
CONTINUOUS
 62
     3
 10
-10.652915
 20
-99.930446000000003
 30
0.0
 11
-10.549617
 21
-99.887701000000007
 31
0.0
  0
LINE
  5
675
  8
OUTLINE
  6
CONTINUOUS
 62
     3
 10
-10.76031399999999
 20
-99.961371
 30
0.0
 11
-10.652915
 21
-99.930446000000003
 31
0.0
  0
LINE
  5
676
  8
OUTLINE
  6
CONTINUOUS
 62
     3
 10
-10.87067
 20
-99.980121999999994
 30
0.0
 11
-10.76031399999999
 21
-99.961371
 31
0.0
  0
LINE
  5
677
  8
OUTLINE
  6
CONTINUOUS
 62
     3
 10
-10.98254
 20
-99.986405000000005
 30
0.0
 11
-10.87067
 21
-99.980121999999994
 31
0.0
  0
LINE
  5
678
  8
OUTLINE
  6
CONTINUOUS
 62
     3
 10
-10.51336199999999
 20
-99.883702999999997
 30
0.0
 11
-10.61135099999999
 21
-99.886270999999994
 31
0.0
  0
LINE
  5
679
  8
OUTLINE
  6
CONTINUOUS
 62
     3
 10
-10.359914
 20
-99.880390000000006
 30
0.0
 11
-10.51336199999999
 21
-99.883702999999997
 31
0.0
  0
LINE
  5
67A
  8
OUTLINE
  6
CONTINUOUS
 62
     3
 10
-10.086182000000001
 20
-99.875690000000006
 30
0.0
 11
-10.359914
 21
-99.880390000000006
 31
0.0
  0
LINE
  5
67B
  8
OUTLINE
  6
CONTINUOUS
 62
     3
 10
-9.5748429999999995
 20
-99.869139000000004
 30
0.0
 11
-10.086182000000001
 21
-99.875690000000006
 31
0.0
  0
LINE
  5
67C
  8
OUTLINE
  6
CONTINUOUS
 62
     3
 10
-8.4579500000000003
 20
-99.859762000000003
 30
0.0
 11
-9.5748429999999995
 21
-99.869139000000004
 31
0.0
  0
LINE
  5
67D
  8
OUTLINE
  6
CONTINUOUS
 62
     3
 10
-6.7821360000000004
 20
-99.852194999999995
 30
0.0
 11
-8.4579500000000003
 21
-99.859762000000003
 31
0.0
  0
ARC
  5
67E
  8
DETAIL
  6
CONTINUOUS
 62
     5
 10
0.00584
 20
0.054046
 30
0.0
 40
42.291004000000001
 50
64.350030000000004
 51
134.04929000000001
  0
ARC
  5
67F
  8
DETAIL
  6
CONTINUOUS
 62
     5
 10
-14.017725
 20
26.293686999999998
 30
0.0
 40
34.44509
 50
0.0
 51
20.182245999999989
  0
ARC
  5
680
  8
DETAIL
  6
CONTINUOUS
 62
     5
 10
29.779864
 20
-1.0071379999999981
 30
0.0
 40
34.44509
 50
239.99999999999989
 51
260.18224600000002
  0
ARC
  5
681
  8
DETAIL
  6
CONTINUOUS
 62
     5
 10
-4.5631559999999993
 20
23.769171
 30
0.0
 40
24.51661099999999
 50
337.22510099999982
 51
338.04091199999988
  0
ARC
  5
682
  8
DETAIL
  6
CONTINUOUS
 62
     5
 10
0.043885
 20
-0.032081
 30
0.0
 40
42.291004000000001
 50
304.35003
 51
14.049289999999999
  0
ARC
  5
683
  8
DETAIL
  6
CONTINUOUS
 62
     5
 10
10.445712
 20
21.315169000000001
 30
0.0
 40
27.011488
 50
297.316013
 51
319.50210699999991
  0
ARC
  5
684
  8
DETAIL
  6
CONTINUOUS
 62
     5
 10
-8.7895070000000004
 20
25.846710000000002
 30
0.0
 40
29.220290999999989
 50
336.67569700000001
 51
0.876476
  0
ARC
  5
685
  8
DETAIL
  6
CONTINUOUS
 62
     5
 10
38.193117000000001
 20
9.1130469999999981
 30
0.0
 40
3.0875360000000001
 50
21.294782000000001
 51
160.4734269999999
  0
ARC
  5
686
  8
DETAIL
  6
CONTINUOUS
 62
     5
 10
5.357333999999998
 20
25.692397
 30
0.0
 40
33.723511000000002
 50
319.13192299999992
 51
333.87324000000001
  0
ARC
  5
687
  8
DETAIL
  6
CONTINUOUS
 62
     5
 10
26.778661
 20
-5.311418999999999
 30
0.0
 40
29.220290999999989
 50
216.62693499999989
 51
240.87647599999991
  0
ARC
  5
688
  8
DETAIL
  6
CONTINUOUS
 62
     5
 10
-0.049726
 20
-0.021965
 30
0.0
 40
42.291004000000001
 50
184.35003
 51
254.0492899999997
  0
ARC
  5
689
  8
DETAIL
  6
CONTINUOUS
 62
     5
 10
19.571601000000001
 20
-17.485784999999979
 30
0.0
 40
33.723511000000002
 50
199.13192299999969
 51
213.8732399999999
  0
ARC
  5
68A
  8
DETAIL
  6
CONTINUOUS
 62
     5
 10
-11.204427999999981
 20
-37.632733000000002
 30
0.0
 40
3.0875360000000001
 50
261.294782
 51
40.473427000000001
  0
ARC
  5
68B
  8
DETAIL
  6
CONTINUOUS
 62
     5
 10
-15.762138999999991
 20
-25.286549000000001
 30
0.0
 40
34.44509
 50
119.9999999999999
 51
140.18224599999991
  0
ARC
  5
68C
  8
DETAIL
  6
CONTINUOUS
 62
     5
 10
22.866284
 20
-7.9327769999999971
 30
0.0
 40
24.51661099999999
 50
217.16668199999989
 51
218.04091199999999
  0
ARC
  5
68D
  8
DETAIL
  6
CONTINUOUS
 62
     5
 10
13.236622000000001
 20
-19.703837
 30
0.0
 40
27.011488
 50
177.29218399999991
 51
199.50210699999991
  0
ARC
  5
68E
  8
DETAIL
  6
CONTINUOUS
 62
     5
 10
-23.682334000000001
 20
-1.611332999999999
 30
0.0
 40
27.011488
 50
57.352046999999999
 51
79.502106999999981
  0
ARC
  5
68F
  8
DETAIL
  6
CONTINUOUS
 62
     5
 10
-18.303128000000001
 20
-15.836395
 30
0.0
 40
24.51661099999999
 50
97.215964000000014
 51
98.040912000000006
  0
ARC
  5
690
  8
DETAIL
  6
CONTINUOUS
 62
     5
 10
-17.989155
 20
-20.53529099999998
 30
0.0
 40
29.220290999999989
 50
96.668074000000004
 51
120.8764759999999
  0
ARC
  5
691
  8
DETAIL
  6
CONTINUOUS
 62
     5
 10
-26.988689000000001
 20
28.519686
 30
0.0
 40
3.0875360000000001
 50
141.294782
 51
280.47342700000002
  0
ARC
  5
692
  8
DETAIL
  6
CONTINUOUS
 62
     5
 10
-24.928934999999999
 20
-8.2066110000000005
 30
0.0
 40
33.723511000000002
 50
79.131923
 51
93.873239999999996
  0
POINT
  5
693
  8
ARRANGE
  6
CONTINUOUS
 62
     1
 10
0.0
 20
0.0
 30
0.0
 39
50.0
  0
TEXT
  5
694
  8
ETC
  6
CONTINUOUS
 62
    61
 10
348.70041245166482
 20
409.87787539187912
 30
0.0
 40
40.0
  1
V-08PEALD5_3
 41
0.9
  0
TEXT
  5
695
  8
ETC
  6
CONTINUOUS
 62
    61
 10
398.69638145166488
 20
279.85368139187898
 30
0.0
 40
40.0
  1
V-08PEALD5
 41
0.9
  0
TEXT
  5
696
  8
ETC
  6
CONTINUOUS
 62
    61
 10
343.27456845166478
 20
349.80775939187902
 30
0.0
 40
40.0
  1
換気扇
 41
0.9
  0
ENDSEC
  0
EOF
