  0
SECTION
  2
HEADER
  9
$ACADVER
  1
AC1009
  9
$DWGCODEPAGE
  3
dos932
  9
$INSBASE
 10
0.0
 20
0.0
 30
0.0
  9
$EXTMIN
 10
-522.070296
 20
-455.337513
 30
-0.003052
  9
$EXTMAX
 10
824.345409
 20
559.478768
 30
50.003052
  9
$LIMMIN
 10
-2970.0
 20
-2100.0
  9
$LIMMAX
 10
2970.0
 20
2100.0
  9
$ORTHOMODE
 70
     1
  9
$REGENMODE
 70
     1
  9
$FILLMODE
 70
     1
  9
$QTEXTMODE
 70
     0
  9
$MIRRTEXT
 70
     0
  9
$DRAGMODE
 70
     2
  9
$LTSCALE
 40
5.0
  9
$OSMODE
 70
    37
  9
$ATTMODE
 70
     1
  9
$TEXTSIZE
 40
64.0
  9
$TRACEWID
 40
0.05
  9
$TEXTSTYLE
  7
STANDARD
  9
$CLAYER
  8
ETC
  9
$CELTYPE
  6
CONTINUOUS
  9
$CECOLOR
 62
     7
  9
$DIMSCALE
 40
1.0
  9
$DIMASZ
 40
12.0
  9
$DIMEXO
 40
20.0
  9
$DIMDLI
 40
200.0
  9
$DIMRND
 40
0.0
  9
$DIMDLE
 40
0.0
  9
$DIMEXE
 40
20.0
  9
$DIMTP
 40
0.0
  9
$DIMTM
 40
0.0
  9
$DIMTXT
 40
64.0
  9
$DIMCEN
 40
0.09
  9
$DIMTSZ
 40
0.0
  9
$DIMTOL
 70
     0
  9
$DIMLIM
 70
     0
  9
$DIMTIH
 70
     0
  9
$DIMTOH
 70
     0
  9
$DIMSE1
 70
     0
  9
$DIMSE2
 70
     0
  9
$DIMTAD
 70
     1
  9
$DIMZIN
 70
     8
  9
$DIMBLK
  1
DOT1
  9
$DIMASO
 70
     1
  9
$DIMSHO
 70
     0
  9
$DIMPOST
  1

  9
$DIMAPOST
  1

  9
$DIMALT
 70
     0
  9
$DIMALTD
 70
     2
  9
$DIMALTF
 40
25.4
  9
$DIMLFAC
 40
1.0
  9
$DIMTOFL
 70
     1
  9
$DIMTVP
 40
0.0
  9
$DIMTIX
 70
     1
  9
$DIMSOXD
 70
     0
  9
$DIMSAH
 70
     1
  9
$DIMBLK1
  1
ORIGIN
  9
$DIMBLK2
  1
ORIGIN
  9
$DIMSTYLE
  2
STANDARD
  9
$DIMCLRD
 70
     7
  9
$DIMCLRE
 70
     7
  9
$DIMCLRT
 70
     7
  9
$DIMTFAC
 40
1.0
  9
$DIMGAP
 40
25.0
  9
$LUNITS
 70
     2
  9
$LUPREC
 70
     4
  9
$SKETCHINC
 40
0.1
  9
$FILLETRAD
 40
3.0
  9
$AUNITS
 70
     1
  9
$AUPREC
 70
     3
  9
$MENU
  1
ACAD
  9
$ELEVATION
 40
0.0
  9
$PELEVATION
 40
0.0
  9
$THICKNESS
 40
50.0
  9
$LIMCHECK
 70
     0
  9
$CHAMFERA
 40
0.0
  9
$CHAMFERB
 40
0.0
  9
$SKPOLY
 70
     0
  9
$TDCREATE
 40
2453019.623010359
  9
$TDUPDATE
 40
2457485.582386076
  9
$TDINDWG
 40
1.2085144213
  9
$TDUSRTIMER
 40
1.2085144213
  9
$USRTIMER
 70
     1
  9
$ANGBASE
 50
0.0
  9
$ANGDIR
 70
     0
  9
$PDMODE
 70
     3
  9
$PDSIZE
 40
-2.0
  9
$PLINEWID
 40
0.0
  9
$COORDS
 70
     1
  9
$SPLFRAME
 70
     0
  9
$SPLINETYPE
 70
     6
  9
$SPLINESEGS
 70
     8
  9
$ATTDIA
 70
     0
  9
$ATTREQ
 70
     1
  9
$HANDLING
 70
     1
  9
$HANDSEED
  5
C459
  9
$SURFTAB1
 70
     6
  9
$SURFTAB2
 70
     6
  9
$SURFTYPE
 70
     6
  9
$SURFU
 70
     6
  9
$SURFV
 70
     6
  9
$UCSNAME
  2

  9
$UCSORG
 10
0.0
 20
0.0
 30
0.0
  9
$UCSXDIR
 10
1.0
 20
0.0
 30
0.0
  9
$UCSYDIR
 10
0.0
 20
1.0
 30
0.0
  9
$PUCSNAME
  2

  9
$PUCSORG
 10
0.0
 20
0.0
 30
0.0
  9
$PUCSXDIR
 10
1.0
 20
0.0
 30
0.0
  9
$PUCSYDIR
 10
0.0
 20
1.0
 30
0.0
  9
$USERI1
 70
     0
  9
$USERI2
 70
     0
  9
$USERI3
 70
     0
  9
$USERI4
 70
     0
  9
$USERI5
 70
     0
  9
$USERR1
 40
20.0
  9
$USERR2
 40
0.0
  9
$USERR3
 40
0.0
  9
$USERR4
 40
0.0
  9
$USERR5
 40
0.0
  9
$WORLDVIEW
 70
     1
  9
$SHADEDGE
 70
     3
  9
$SHADEDIF
 70
    70
  9
$TILEMODE
 70
     1
  9
$MAXACTVP
 70
    48
  9
$PLIMCHECK
 70
     0
  9
$PEXTMIN
 10
-1.000000000000000E+20
 20
-1.000000000000000E+20
 30
-1.000000000000000E+20
  9
$PEXTMAX
 10
1.000000000000000E+20
 20
1.000000000000000E+20
 30
1.000000000000000E+20
  9
$PLIMMIN
 10
0.0
 20
0.0
  9
$PLIMMAX
 10
12.0
 20
9.0
  9
$UNITMODE
 70
     0
  9
$VISRETAIN
 70
     0
  9
$PLINEGEN
 70
     0
  9
$PSLTSCALE
 70
     0
  0
ENDSEC
  0
SECTION
  2
TABLES
  0
TABLE
  2
VPORT
 70
     1
  0
VPORT
  2
*ACTIVE
 70
     0
 10
0.0
 20
0.0
 11
1.0
 21
1.0
 12
151.137557
 22
52.070628
 13
0.0
 23
0.0
 14
1.0
 24
1.0
 15
0.0
 25
0.0
 16
0.0
 26
0.0
 36
1.0
 17
0.0
 27
0.0
 37
0.0
 40
1026.849675
 41
1.754455
 42
50.0
 43
0.0
 44
0.0
 50
0.0
 51
0.0
 71
     0
 72
  1000
 73
     1
 74
     0
 75
     0
 76
     0
 77
     0
 78
     0
  0
ENDTAB
  0
TABLE
  2
LTYPE
 70
     2
  0
LTYPE
  2
CONTINUOUS
 70
     0
  3
実線
 72
    65
 73
     0
 40
0.0
  0
LTYPE
  2
DASHDOT
 70
     0
  3
____ _ ____ _ ____ _ ____ _ ____ _ ____ _ ____
 72
    65
 73
     4
 40
5.5
 49
4.0
 49
-0.6
 49
0.3
 49
-0.6
  0
ENDTAB
  0
TABLE
  2
LAYER
 70
    12
  0
LAYER
  2
0
 70
     0
 62
     7
  6
CONTINUOUS
  0
LAYER
  2
BASIS
 70
     0
 62
     6
  6
DASHDOT
  0
LAYER
  2
OUTLINE
 70
     0
 62
     3
  6
CONTINUOUS
  0
LAYER
  2
DETAIL
 70
     0
 62
     5
  6
CONTINUOUS
  0
LAYER
  2
SIZE
 70
     0
 62
    30
  6
CONTINUOUS
  0
LAYER
  2
ARRANGE
 70
     0
 62
     1
  6
CONTINUOUS
  0
LAYER
  2
DEFPOINTS
 70
     0
 62
     7
  6
CONTINUOUS
  0
LAYER
  2
ETC
 70
     0
 62
    61
  6
CONTINUOUS
  0
LAYER
  2
FIX
 70
     0
 62
    11
  6
CONTINUOUS
  0
LAYER
  2
NOTE
 70
     0
 62
     4
  6
CONTINUOUS
  0
LAYER
  2
SERVICESPACE
 70
     0
 62
     2
  6
DASHDOT
  0
LAYER
  2
SYMBOLLINE
 70
     0
 62
    15
  6
CONTINUOUS
  0
ENDTAB
  0
TABLE
  2
STYLE
 70
     1
  0
STYLE
  2
STANDARD
 70
     0
 40
64.0
 41
0.9
 50
0.0
 71
     0
 42
64.0
  3
SIMPLEX.shx
  4
BIGFONT.shx
  0
ENDTAB
  0
TABLE
  2
VIEW
 70
     1
  0
VIEW
  2
ALL
 70
     0
 40
4282.619808
 10
0.0
 20
41.309904
 41
5940.0
 11
0.0
 21
0.0
 31
1.0
 12
0.0
 22
0.0
 32
0.0
 42
50.0
 43
0.0
 44
0.0
 50
0.0
 71
     0
  0
ENDTAB
  0
TABLE
  2
UCS
 70
     0
  0
ENDTAB
  0
TABLE
  2
APPID
 70
    15
  0
APPID
  2
ACAD
 70
     0
  0
APPID
  2
AUTOCAD_POSTSCRIPT_FIGURE
 70
     0
  0
APPID
  2
ACAD_EXEMPT_FROM_CAD_STAND
 70
     0
  0
APPID
  2
ACAD_PSEXT
 70
     0
  0
APPID
  2
ACAUTHENVIRON
 70
     0
  0
APPID
  2
GENIUS_GENOENT_13
 70
     0
  0
APPID
  2
GENIUS_GENCFG_13
 70
     0
  0
APPID
  2
GENIUS_GENCFG0_13
 70
     0
  0
APPID
  2
GENIUS_GENCFG1_13
 70
     0
  0
APPID
  2
GENIUS_GENCFG2_13
 70
     0
  0
APPID
  2
GENIUS_GENCFG3_13
 70
     0
  0
APPID
  2
GENIUS_GENCFG4_13
 70
     0
  0
APPID
  2
GENIUS_GEVCFG0_13
 70
     0
  0
APPID
  2
CONTENTBLOCKDESCRIPTION
 70
     0
  0
APPID
  2
CONTENTBLOCKICON
 70
     0
  0
ENDTAB
  0
TABLE
  2
DIMSTYLE
 70
     1
  0
DIMSTYLE
  2
STANDARD
 70
     0
  3

  4

  5

  6

  7

 40
1.0
 41
0.18
 42
0.0625
 43
0.38
 44
0.18
 45
0.0
 46
0.0
 47
0.0
 48
0.0
140
0.18
141
0.09
142
0.0
143
25.4
144
1.0
145
0.0
146
1.0
147
0.09
 71
     0
 72
     0
 73
     1
 74
     1
 75
     0
 76
     0
 77
     0
 78
     0
170
     0
171
     2
172
     0
173
     0
174
     0
175
     0
176
     7
177
     7
178
     7
  0
ENDTAB
  0
ENDSEC
  0
SECTION
  2
BLOCKS
  0
BLOCK
  8
0
  2
$MODEL_SPACE
 70
     0
 10
0.0
 20
0.0
 30
0.0
  3
$MODEL_SPACE
  1

  0
ENDBLK
  5
C431
  8
0
  0
BLOCK
 67
     1
  8
0
  2
$PAPER_SPACE
 70
     0
 10
0.0
 20
0.0
 30
0.0
  3
$PAPER_SPACE
  1

  0
ENDBLK
  5
C433
 67
     1
  8
0
  0
BLOCK
  8
0
  2
DOT1
 70
     0
 10
0.0
 20
0.0
 30
0.0
  3
DOT1
  1

  0
CIRCLE
  5
C246
  8
SIZE
  6
CONTINUOUS
 62
     7
 10
0.0
 20
0.0
 30
0.0
 40
3.0
  0
ENDBLK
  5
C247
  8
0
  0
BLOCK
  8
0
  2
_ORIGIN
 70
     0
 10
0.0
 20
0.0
 30
0.0
  3
_ORIGIN
  1

  0
CIRCLE
  5
C24A
  8
0
  6
CONTINUOUS
 62
     7
 10
0.0
 20
0.0
 30
0.0
 40
0.5
  0
LINE
  5
C24B
  8
0
  6
CONTINUOUS
 62
     7
 10
0.0
 20
0.0
 30
0.0
 11
-1.0
 21
0.0
 31
0.0
  0
ENDBLK
  5
C24C
  8
0
  0
ENDSEC
  0
SECTION
  2
ENTITIES
  0
LINE
  5
C24D
  8
NOTE
  6
CONTINUOUS
 62
     4
 10
-64.657373
 20
70.517697
 30
0.0
 11
-56.267701
 21
31.407425
 31
0.0
  0
LINE
  5
C24E
  8
NOTE
  6
CONTINUOUS
 62
     4
 10
-56.267701
 20
31.407425
 30
0.0
 11
-83.088507
 21
61.083078
 31
0.0
  0
TEXT
  5
C24F
  8
NOTE
  6
CONTINUOUS
 62
     4
 10
-252.543476
 20
287.758895
 30
0.0
 40
64.0
  1
EL
 41
0.9
  0
LINE
  5
C250
  8
NOTE
  6
CONTINUOUS
 62
     4
 39
50.0
 10
-163.031723
 20
277.658611
 30
0.0
 11
-259.748516
 21
277.658611
 31
0.0
  0
TEXT
  5
C251
  8
NOTE
  6
CONTINUOUS
 62
     4
 10
-509.350218
 20
70.354833
 30
0.0
 40
64.0
  1
2-4×10
 41
0.9
  0
LINE
  5
C252
  8
NOTE
  6
CONTINUOUS
 62
     4
 10
-118.370782
 20
14.658166
 30
0.0
 11
-80.108631
 21
2.995927
 31
0.0
  0
LINE
  5
C253
  8
NOTE
  6
CONTINUOUS
 62
     4
 10
-80.108631
 20
2.995927
 30
0.0
 11
-107.413506
 21
32.226798
 31
0.0
  0
LINE
  5
C254
  8
NOTE
  6
CONTINUOUS
 62
     4
 39
50.0
 10
-163.031723
 20
277.658611
 30
0.0
 11
-56.267701
 21
31.407424
 31
0.0
  0
LINE
  5
C255
  8
NOTE
  6
CONTINUOUS
 62
     4
 39
50.0
 10
-521.972099
 20
54.225611
 30
0.0
 11
-159.692874
 21
54.225611
 31
0.0
  0
LINE
  5
C256
  8
NOTE
  6
CONTINUOUS
 62
     4
 39
50.0
 10
-159.692874
 20
54.225611
 30
0.0
 11
-80.108631
 21
2.995927
 31
0.0
  0
LINE
  5
C257
  8
BASIS
  6
DASHDOT
 62
     6
 39
50.0
 10
0.0
 20
-108.858891
 30
0.0
 11
0.0
 21
108.831691
 31
0.0
  0
TEXT
  5
C258
  8
ETC
  6
CONTINUOUS
 62
    61
 10
384.818827
 20
519.182807
 30
0.0
 40
40.0
  1
V-08PED5_3
 41
0.9
  0
TEXT
  5
C259
  8
ETC
  6
CONTINUOUS
 62
    61
 10
379.392983
 20
459.112691
 30
0.0
 40
40.0
  1
換気扇
 41
0.9
  0
TEXT
  5
C25A
  8
ETC
  6
CONTINUOUS
 62
    61
 10
434.814795
 20
389.158613
 30
0.0
 40
40.0
  1
V-08PED5
 41
0.9
  0
LINE
  5
C25B
  8
BASIS
  6
DASHDOT
 62
     6
 39
50.0
 10
124.54178
 20
-0.013597
 30
0.0
 11
-124.54178
 21
-0.013603
 31
0.0
  0
CIRCLE
  5
C25C
  8
ARRANGE
  6
CONTINUOUS
 62
     1
 39
25.0
 10
0.0
 20
0.0
 30
0.0
 40
20.0
  0
LINE
  5
C25D
  8
NOTE
  6
CONTINUOUS
 62
     4
 10
-56.267702
 20
11.421024
 30
0.0
 11
-56.267702
 21
51.421024
 31
0.0
  0
LINE
  5
C25E
  8
NOTE
  6
CONTINUOUS
 62
     4
 10
-36.267702
 20
31.421024
 30
0.0
 11
-76.267702
 21
31.421024
 31
0.0
  0
LINE
  5
C25F
  8
NOTE
  6
CONTINUOUS
 62
     4
 10
-80.10863
 20
-17.004074
 30
0.0
 11
-80.10863
 21
22.995926
 31
0.0
  0
LINE
  5
C260
  8
NOTE
  6
CONTINUOUS
 62
     4
 10
-100.10863
 20
2.995926
 30
0.0
 11
-60.10863
 21
2.995926
 31
0.0
  0
LINE
  5
C261
  8
NOTE
  6
CONTINUOUS
 62
     4
 10
79.89137
 20
-17.004074
 30
0.0
 11
79.89137
 21
22.995926
 31
0.0
  0
LINE
  5
C262
  8
NOTE
  6
CONTINUOUS
 62
     4
 10
59.89137
 20
2.995926
 30
0.0
 11
99.89137
 21
2.995926
 31
0.0
  0
LINE
  5
C263
  8
DETAIL
  6
CONTINUOUS
 62
     5
 10
-89.999996
 20
-98.502099
 30
0.0
 11
-89.999996
 21
78.50205700000001
 31
0.0
  0
LINE
  5
C264
  8
DETAIL
  6
CONTINUOUS
 62
     5
 10
89.999996
 20
78.50205700000001
 30
0.0
 11
89.999996
 21
-98.502099
 31
0.0
  0
LINE
  5
C265
  8
DETAIL
  6
CONTINUOUS
 62
     5
 10
-10.98254
 20
-100.000017
 30
0.0
 11
-88.502078
 21
-100.000017
 31
0.0
  0
LINE
  5
C266
  8
DETAIL
  6
CONTINUOUS
 62
     5
 10
-89.992782
 20
-98.64878999999999
 30
0.0
 11
-89.999984
 21
-98.502099
 31
0.0
  0
LINE
  5
C267
  8
DETAIL
  6
CONTINUOUS
 62
     5
 10
-89.971237
 20
-98.794139
 30
0.0
 11
-89.992782
 21
-98.64878999999999
 31
0.0
  0
LINE
  5
C268
  8
DETAIL
  6
CONTINUOUS
 62
     5
 10
-89.935532
 20
-98.936751
 30
0.0
 11
-89.971237
 21
-98.794139
 31
0.0
  0
LINE
  5
C269
  8
DETAIL
  6
CONTINUOUS
 62
     5
 10
-89.885998
 20
-99.075229
 30
0.0
 11
-89.935532
 21
-98.936751
 31
0.0
  0
LINE
  5
C26A
  8
DETAIL
  6
CONTINUOUS
 62
     5
 10
-89.8231
 20
-99.208224
 30
0.0
 11
-89.885998
 21
-99.075229
 31
0.0
  0
LINE
  5
C26B
  8
DETAIL
  6
CONTINUOUS
 62
     5
 10
-89.747449
 20
-99.334423
 30
0.0
 11
-89.8231
 21
-99.208224
 31
0.0
  0
LINE
  5
C26C
  8
DETAIL
  6
CONTINUOUS
 62
     5
 10
-89.659795
 20
-99.452574
 30
0.0
 11
-89.747449
 21
-99.334423
 31
0.0
  0
LINE
  5
C26D
  8
DETAIL
  6
CONTINUOUS
 62
     5
 10
-89.560977
 20
-99.561555
 30
0.0
 11
-89.659795
 21
-99.452574
 31
0.0
  0
LINE
  5
C26E
  8
DETAIL
  6
CONTINUOUS
 62
     5
 10
-89.451947
 20
-99.660314
 30
0.0
 11
-89.560977
 21
-99.561555
 31
0.0
  0
LINE
  5
C26F
  8
DETAIL
  6
CONTINUOUS
 62
     5
 10
-89.333747
 20
-99.747907
 30
0.0
 11
-89.451947
 21
-99.660314
 31
0.0
  0
LINE
  5
C270
  8
DETAIL
  6
CONTINUOUS
 62
     5
 10
-89.207464
 20
-99.823516
 30
0.0
 11
-89.333747
 21
-99.747907
 31
0.0
  0
LINE
  5
C271
  8
DETAIL
  6
CONTINUOUS
 62
     5
 10
-89.074439
 20
-99.886337
 30
0.0
 11
-89.207464
 21
-99.823516
 31
0.0
  0
LINE
  5
C272
  8
DETAIL
  6
CONTINUOUS
 62
     5
 10
-88.936129
 20
-99.935735
 30
0.0
 11
-89.074439
 21
-99.886337
 31
0.0
  0
LINE
  5
C273
  8
DETAIL
  6
CONTINUOUS
 62
     5
 10
-88.793752
 20
-99.97133
 30
0.0
 11
-88.936129
 21
-99.935735
 31
0.0
  0
LINE
  5
C274
  8
DETAIL
  6
CONTINUOUS
 62
     5
 10
-88.648594
 20
-99.99282099999999
 30
0.0
 11
-88.793752
 21
-99.97133
 31
0.0
  0
LINE
  5
C275
  8
DETAIL
  6
CONTINUOUS
 62
     5
 10
-88.502078
 20
-100.000005
 30
0.0
 11
-88.648594
 21
-99.99282099999999
 31
0.0
  0
LINE
  5
C276
  8
DETAIL
  6
CONTINUOUS
 62
     5
 10
66.475418
 20
-99.90681599999999
 30
0.0
 11
35.260738
 21
-99.90711
 31
0.0
  0
LINE
  5
C277
  8
DETAIL
  6
CONTINUOUS
 62
     5
 10
35.386079
 20
-99.993889
 30
0.0
 11
66.600759
 21
-99.993596
 31
0.0
  0
LINE
  5
C278
  8
DETAIL
  6
CONTINUOUS
 62
     5
 10
19.972842
 20
-100.000017
 30
0.0
 11
10.98254
 21
-100.000017
 31
0.0
  0
LINE
  5
C279
  8
DETAIL
  6
CONTINUOUS
 62
     5
 10
-4.90587
 20
-99.863164
 30
0.0
 11
6.782136
 21
-99.86579499999999
 31
0.0
  0
LINE
  5
C27A
  8
DETAIL
  6
CONTINUOUS
 62
     5
 10
-10.652915
 20
-99.944046
 30
0.0
 11
-10.760314
 21
-99.974971
 31
0.0
  0
LINE
  5
C27B
  8
DETAIL
  6
CONTINUOUS
 62
     5
 10
-10.549617
 20
-99.901301
 30
0.0
 11
-10.652915
 21
-99.944046
 31
0.0
  0
LINE
  5
C27C
  8
DETAIL
  6
CONTINUOUS
 62
     5
 10
-10.543733
 20
-99.89805299999999
 30
0.0
 11
-10.549617
 21
-99.901301
 31
0.0
  0
LINE
  5
C27D
  8
DETAIL
  6
CONTINUOUS
 62
     5
 10
-10.98254
 20
-100.000005
 30
0.0
 11
-10.897495
 21
-99.91496
 31
0.0
  0
LINE
  5
C27E
  8
DETAIL
  6
CONTINUOUS
 62
     5
 10
-10.87067
 20
-99.99372199999999
 30
0.0
 11
-10.98254
 21
-100.000005
 31
0.0
  0
LINE
  5
C27F
  8
DETAIL
  6
CONTINUOUS
 62
     5
 10
-10.760314
 20
-99.974971
 30
0.0
 11
-10.87067
 21
-99.99372199999999
 31
0.0
  0
LINE
  5
C280
  8
DETAIL
  6
CONTINUOUS
 62
     5
 10
-10.753507
 20
-99.90401899999999
 30
0.0
 11
-10.682441
 21
-99.90211099999999
 31
0.0
  0
LINE
  5
C281
  8
DETAIL
  6
CONTINUOUS
 62
     5
 10
-10.831472
 20
-99.907662
 30
0.0
 11
-10.753507
 21
-99.90401899999999
 31
0.0
  0
LINE
  5
C282
  8
DETAIL
  6
CONTINUOUS
 62
     5
 10
-10.879429
 20
-99.911305
 30
0.0
 11
-10.831472
 21
-99.907662
 31
0.0
  0
LINE
  5
C283
  8
DETAIL
  6
CONTINUOUS
 62
     5
 10
-10.897495
 20
-99.91496
 30
0.0
 11
-10.879429
 21
-99.911305
 31
0.0
  0
LINE
  5
C284
  8
DETAIL
  6
CONTINUOUS
 62
     5
 10
-6.820757
 20
-99.86590799999999
 30
0.0
 11
-4.90587
 21
-99.863163
 31
0.0
  0
LINE
  5
C285
  8
DETAIL
  6
CONTINUOUS
 62
     5
 10
-6.979603
 20
-99.866359
 30
0.0
 11
-6.820757
 21
-99.86590799999999
 31
0.0
  0
LINE
  5
C286
  8
DETAIL
  6
CONTINUOUS
 62
     5
 10
-8.476358
 20
-99.873481
 30
0.0
 11
-6.820757
 21
-99.86590799999999
 31
0.0
  0
LINE
  5
C287
  8
DETAIL
  6
CONTINUOUS
 62
     5
 10
-9.580983
 20
-99.882806
 30
0.0
 11
-8.476358
 21
-99.873481
 31
0.0
  0
LINE
  5
C288
  8
DETAIL
  6
CONTINUOUS
 62
     5
 10
-9.684013
 20
-99.883865
 30
0.0
 11
-9.580983
 21
-99.882806
 31
0.0
  0
LINE
  5
C289
  8
DETAIL
  6
CONTINUOUS
 62
     5
 10
-10.121644
 20
-99.88983499999999
 30
0.0
 11
-9.580983
 21
-99.882806
 31
0.0
  0
LINE
  5
C28A
  8
DETAIL
  6
CONTINUOUS
 62
     5
 10
-10.148944
 20
-99.890106
 30
0.0
 11
-10.121644
 21
-99.88983499999999
 31
0.0
  0
LINE
  5
C28B
  8
DETAIL
  6
CONTINUOUS
 62
     5
 10
-10.392738
 20
-99.894645
 30
0.0
 11
-10.121644
 21
-99.88983499999999
 31
0.0
  0
LINE
  5
C28C
  8
DETAIL
  6
CONTINUOUS
 62
     5
 10
-10.537854
 20
-99.897902
 30
0.0
 11
-10.392738
 21
-99.894645
 31
0.0
  0
LINE
  5
C28D
  8
DETAIL
  6
CONTINUOUS
 62
     5
 10
-10.628202
 20
-99.90036599999999
 30
0.0
 11
-10.537854
 21
-99.897902
 31
0.0
  0
LINE
  5
C28E
  8
DETAIL
  6
CONTINUOUS
 62
     5
 10
-10.537854
 20
-99.897902
 30
0.0
 11
-10.508493
 21
-99.896881
 31
0.0
  0
LINE
  5
C28F
  8
DETAIL
  6
CONTINUOUS
 62
     5
 10
-10.645884
 20
-99.90041599999999
 30
0.0
 11
-10.628202
 21
-99.90036599999999
 31
0.0
  0
LINE
  5
C290
  8
DETAIL
  6
CONTINUOUS
 62
     5
 10
-10.682441
 20
-99.90211099999999
 30
0.0
 11
-10.628202
 21
-99.90036599999999
 31
0.0
  0
LINE
  5
C291
  8
DETAIL
  6
CONTINUOUS
 62
     5
 10
-10.665609
 20
-99.901541
 30
0.0
 11
-10.645884
 21
-99.90041599999999
 31
0.0
  0
LINE
  5
C292
  8
DETAIL
  6
CONTINUOUS
 62
     5
 10
-10.725591
 20
-99.90373199999999
 30
0.0
 11
-10.682441
 21
-99.90211099999999
 31
0.0
  0
LINE
  5
C293
  8
DETAIL
  6
CONTINUOUS
 62
     5
 10
-10.748208
 20
-99.904716
 30
0.0
 11
-10.725591
 21
-99.90373199999999
 31
0.0
  0
LINE
  5
C294
  8
DETAIL
  6
CONTINUOUS
 62
     5
 10
-10.765631
 20
-99.905579
 30
0.0
 11
-10.748208
 21
-99.904716
 31
0.0
  0
LINE
  5
C295
  8
DETAIL
  6
CONTINUOUS
 62
     5
 10
-10.777426
 20
-99.906252
 30
0.0
 11
-10.765631
 21
-99.905579
 31
0.0
  0
LINE
  5
C296
  8
DETAIL
  6
CONTINUOUS
 62
     5
 10
-10.785681
 20
-99.908689
 30
0.0
 11
-10.768205
 21
-99.905721
 31
0.0
  0
LINE
  5
C297
  8
DETAIL
  6
CONTINUOUS
 62
     5
 10
-10.897495
 20
-99.91496
 30
0.0
 11
-10.785681
 21
-99.908689
 31
0.0
  0
LINE
  5
C298
  8
DETAIL
  6
CONTINUOUS
 62
     5
 10
-10.781026
 20
-99.90648399999999
 30
0.0
 11
-10.777426
 21
-99.906252
 31
0.0
  0
LINE
  5
C299
  8
DETAIL
  6
CONTINUOUS
 62
     5
 10
-10.782822
 20
-99.90661
 30
0.0
 11
-10.781026
 21
-99.90648399999999
 31
0.0
  0
LINE
  5
C29A
  8
DETAIL
  6
CONTINUOUS
 62
     5
 10
-10.782993
 20
-99.906622
 30
0.0
 11
-10.782822
 21
-99.90661
 31
0.0
  0
LINE
  5
C29B
  8
DETAIL
  6
CONTINUOUS
 62
     5
 10
6.573367
 20
-99.865192
 30
0.0
 11
6.782136
 21
-99.86579499999999
 31
0.0
  0
LINE
  5
C29C
  8
DETAIL
  6
CONTINUOUS
 62
     5
 10
10.897495
 20
-99.91496
 30
0.0
 11
10.98254
 21
-100.000005
 31
0.0
  0
LINE
  5
C29D
  8
DETAIL
  6
CONTINUOUS
 62
     5
 10
10.549617
 20
-99.901301
 30
0.0
 11
10.543731
 21
-99.89805199999999
 31
0.0
  0
LINE
  5
C29E
  8
DETAIL
  6
CONTINUOUS
 62
     5
 10
10.652915
 20
-99.944046
 30
0.0
 11
10.549617
 21
-99.901301
 31
0.0
  0
LINE
  5
C29F
  8
DETAIL
  6
CONTINUOUS
 62
     5
 10
10.760314
 20
-99.974971
 30
0.0
 11
10.652915
 21
-99.944046
 31
0.0
  0
LINE
  5
C2A0
  8
DETAIL
  6
CONTINUOUS
 62
     5
 10
10.775641
 20
-99.906143
 30
0.0
 11
10.777728
 21
-99.906271
 31
0.0
  0
LINE
  5
C2A1
  8
DETAIL
  6
CONTINUOUS
 62
     5
 10
10.762255
 20
-99.905402
 30
0.0
 11
10.775641
 21
-99.906143
 31
0.0
  0
LINE
  5
C2A2
  8
DETAIL
  6
CONTINUOUS
 62
     5
 10
10.87067
 20
-99.99372199999999
 30
0.0
 11
10.760314
 21
-99.974971
 31
0.0
  0
LINE
  5
C2A3
  8
DETAIL
  6
CONTINUOUS
 62
     5
 10
10.98254
 20
-100.000005
 30
0.0
 11
10.87067
 21
-99.99372199999999
 31
0.0
  0
LINE
  5
C2A4
  8
DETAIL
  6
CONTINUOUS
 62
     5
 10
10.785681
 20
-99.908689
 30
0.0
 11
10.768199
 21
-99.90572
 31
0.0
  0
LINE
  5
C2A5
  8
DETAIL
  6
CONTINUOUS
 62
     5
 10
10.897495
 20
-99.91496
 30
0.0
 11
10.785681
 21
-99.908689
 31
0.0
  0
LINE
  5
C2A6
  8
DETAIL
  6
CONTINUOUS
 62
     5
 10
10.742975
 20
-99.904477
 30
0.0
 11
10.762255
 21
-99.905402
 31
0.0
  0
LINE
  5
C2A7
  8
DETAIL
  6
CONTINUOUS
 62
     5
 10
10.879429
 20
-99.911305
 30
0.0
 11
10.897495
 21
-99.91496
 31
0.0
  0
LINE
  5
C2A8
  8
DETAIL
  6
CONTINUOUS
 62
     5
 10
10.831472
 20
-99.907662
 30
0.0
 11
10.879429
 21
-99.911305
 31
0.0
  0
LINE
  5
C2A9
  8
DETAIL
  6
CONTINUOUS
 62
     5
 10
10.762255
 20
-99.905402
 30
0.0
 11
10.831472
 21
-99.907662
 31
0.0
  0
LINE
  5
C2AA
  8
DETAIL
  6
CONTINUOUS
 62
     5
 10
10.71814
 20
-99.903432
 30
0.0
 11
10.742975
 21
-99.904477
 31
0.0
  0
LINE
  5
C2AB
  8
DETAIL
  6
CONTINUOUS
 62
     5
 10
10.670763
 20
-99.901713
 30
0.0
 11
10.71814
 21
-99.903432
 31
0.0
  0
LINE
  5
C2AC
  8
DETAIL
  6
CONTINUOUS
 62
     5
 10
10.703693
 20
-99.90287599999999
 30
0.0
 11
10.753507
 21
-99.90401899999999
 31
0.0
  0
LINE
  5
C2AD
  8
DETAIL
  6
CONTINUOUS
 62
     5
 10
10.611351
 20
-99.89987099999999
 30
0.0
 11
10.670763
 21
-99.901713
 31
0.0
  0
LINE
  5
C2AE
  8
DETAIL
  6
CONTINUOUS
 62
     5
 10
10.513362
 20
-99.897303
 30
0.0
 11
10.611351
 21
-99.89987099999999
 31
0.0
  0
LINE
  5
C2AF
  8
DETAIL
  6
CONTINUOUS
 62
     5
 10
10.588882
 20
-99.899239
 30
0.0
 11
10.645884
 21
-99.90041599999999
 31
0.0
  0
LINE
  5
C2B0
  8
DETAIL
  6
CONTINUOUS
 62
     5
 10
10.359914
 20
-99.89399
 30
0.0
 11
10.513362
 21
-99.897303
 31
0.0
  0
LINE
  5
C2B1
  8
DETAIL
  6
CONTINUOUS
 62
     5
 10
10.508493
 20
-99.896881
 30
0.0
 11
10.513362
 21
-99.897303
 31
0.0
  0
LINE
  5
C2B2
  8
DETAIL
  6
CONTINUOUS
 62
     5
 10
10.485455
 20
-99.896647
 30
0.0
 11
10.508493
 21
-99.896881
 31
0.0
  0
LINE
  5
C2B3
  8
DETAIL
  6
CONTINUOUS
 62
     5
 10
10.342599
 20
-99.893435
 30
0.0
 11
10.359914
 21
-99.89399
 31
0.0
  0
LINE
  5
C2B4
  8
DETAIL
  6
CONTINUOUS
 62
     5
 10
10.086182
 20
-99.88929
 30
0.0
 11
10.359914
 21
-99.89399
 31
0.0
  0
LINE
  5
C2B5
  8
DETAIL
  6
CONTINUOUS
 62
     5
 10
9.574843
 20
-99.882739
 30
0.0
 11
10.086182
 21
-99.88929
 31
0.0
  0
LINE
  5
C2B6
  8
DETAIL
  6
CONTINUOUS
 62
     5
 10
8.45795
 20
-99.873362
 30
0.0
 11
9.574843
 21
-99.882739
 31
0.0
  0
LINE
  5
C2B7
  8
DETAIL
  6
CONTINUOUS
 62
     5
 10
6.782136
 20
-99.86579499999999
 30
0.0
 11
8.45795
 21
-99.873362
 31
0.0
  0
LINE
  5
C2B8
  8
DETAIL
  6
CONTINUOUS
 62
     5
 10
34.952474
 20
-100.000017
 30
0.0
 11
34.453153
 21
-100.000017
 31
0.0
  0
LINE
  5
C2B9
  8
DETAIL
  6
CONTINUOUS
 62
     5
 10
34.453153
 20
-99.98957
 30
0.0
 11
34.453153
 21
-99.911135
 31
0.0
  0
LINE
  5
C2BA
  8
DETAIL
  6
CONTINUOUS
 62
     5
 10
33.953832
 20
-99.993928
 30
0.0
 11
33.953832
 21
-99.90677699999999
 31
0.0
  0
LINE
  5
C2BB
  8
DETAIL
  6
CONTINUOUS
 62
     5
 10
34.349924
 20
-99.90848299999999
 30
0.0
 11
34.257762
 21
-99.90767799999999
 31
0.0
  0
LINE
  5
C2BC
  8
DETAIL
  6
CONTINUOUS
 62
     5
 10
34.386254
 20
-99.908956
 30
0.0
 11
34.349924
 21
-99.90848299999999
 31
0.0
  0
LINE
  5
C2BD
  8
DETAIL
  6
CONTINUOUS
 62
     5
 10
34.415093
 20
-99.90946799999999
 30
0.0
 11
34.386254
 21
-99.908956
 31
0.0
  0
LINE
  5
C2BE
  8
DETAIL
  6
CONTINUOUS
 62
     5
 10
34.436139
 20
-99.910007
 30
0.0
 11
34.415093
 21
-99.90946799999999
 31
0.0
  0
LINE
  5
C2BF
  8
DETAIL
  6
CONTINUOUS
 62
     5
 10
34.448755
 20
-99.910561
 30
0.0
 11
34.436139
 21
-99.910007
 31
0.0
  0
LINE
  5
C2C0
  8
DETAIL
  6
CONTINUOUS
 62
     5
 10
34.453153
 20
-99.911135
 30
0.0
 11
34.448755
 21
-99.910561
 31
0.0
  0
LINE
  5
C2C1
  8
DETAIL
  6
CONTINUOUS
 62
     5
 10
34.257762
 20
-99.90767799999999
 30
0.0
 11
34.019548
 21
-99.90681599999999
 31
0.0
  0
LINE
  5
C2C2
  8
DETAIL
  6
CONTINUOUS
 62
     5
 10
34.14489
 20
-99.993596
 30
0.0
 11
34.306902
 21
-99.992651
 31
0.0
  0
LINE
  5
C2C3
  8
DETAIL
  6
CONTINUOUS
 62
     5
 10
34.306902
 20
-99.992651
 30
0.0
 11
34.386254
 21
-99.991749
 31
0.0
  0
LINE
  5
C2C4
  8
DETAIL
  6
CONTINUOUS
 62
     5
 10
34.448755
 20
-99.990144
 30
0.0
 11
34.453153
 21
-99.98957
 31
0.0
  0
LINE
  5
C2C5
  8
DETAIL
  6
CONTINUOUS
 62
     5
 10
34.436139
 20
-99.990698
 30
0.0
 11
34.448755
 21
-99.990144
 31
0.0
  0
LINE
  5
C2C6
  8
DETAIL
  6
CONTINUOUS
 62
     5
 10
34.415093
 20
-99.991238
 30
0.0
 11
34.436139
 21
-99.990698
 31
0.0
  0
LINE
  5
C2C7
  8
DETAIL
  6
CONTINUOUS
 62
     5
 10
34.386254
 20
-99.991749
 30
0.0
 11
34.415093
 21
-99.991238
 31
0.0
  0
LINE
  5
C2C8
  8
DETAIL
  6
CONTINUOUS
 62
     5
 10
34.019548
 20
-99.90681599999999
 30
0.0
 11
20.281106
 21
-99.90711
 31
0.0
  0
LINE
  5
C2C9
  8
DETAIL
  6
CONTINUOUS
 62
     5
 10
20.406447
 20
-99.993889
 30
0.0
 11
34.14489
 21
-99.993596
 31
0.0
  0
LINE
  5
C2CA
  8
DETAIL
  6
CONTINUOUS
 62
     5
 10
34.453153
 20
-100.000005
 30
0.0
 11
19.972842
 21
-100.000017
 31
0.0
  0
LINE
  5
C2CB
  8
DETAIL
  6
CONTINUOUS
 62
     5
 10
20.472164
 20
-99.993928
 30
0.0
 11
20.472164
 21
-99.90677699999999
 31
0.0
  0
LINE
  5
C2CC
  8
DETAIL
  6
CONTINUOUS
 62
     5
 10
19.972842
 20
-99.911135
 30
0.0
 11
19.972842
 21
-99.98957
 31
0.0
  0
LINE
  5
C2CD
  8
DETAIL
  6
CONTINUOUS
 62
     5
 10
19.977241
 20
-99.990144
 30
0.0
 11
19.989857
 21
-99.990698
 31
0.0
  0
LINE
  5
C2CE
  8
DETAIL
  6
CONTINUOUS
 62
     5
 10
19.972842
 20
-99.98957
 30
0.0
 11
19.977241
 21
-99.990144
 31
0.0
  0
LINE
  5
C2CF
  8
DETAIL
  6
CONTINUOUS
 62
     5
 10
20.076072
 20
-99.992223
 30
0.0
 11
20.168234
 21
-99.993027
 31
0.0
  0
LINE
  5
C2D0
  8
DETAIL
  6
CONTINUOUS
 62
     5
 10
20.039741
 20
-99.991749
 30
0.0
 11
20.076072
 21
-99.992223
 31
0.0
  0
LINE
  5
C2D1
  8
DETAIL
  6
CONTINUOUS
 62
     5
 10
20.010903
 20
-99.991238
 30
0.0
 11
20.039741
 21
-99.991749
 31
0.0
  0
LINE
  5
C2D2
  8
DETAIL
  6
CONTINUOUS
 62
     5
 10
19.989857
 20
-99.990698
 30
0.0
 11
20.010903
 21
-99.991238
 31
0.0
  0
LINE
  5
C2D3
  8
DETAIL
  6
CONTINUOUS
 62
     5
 10
20.168234
 20
-99.993027
 30
0.0
 11
20.406447
 21
-99.993889
 31
0.0
  0
LINE
  5
C2D4
  8
DETAIL
  6
CONTINUOUS
 62
     5
 10
20.281106
 20
-99.90711
 30
0.0
 11
20.119094
 21
-99.90805399999999
 31
0.0
  0
LINE
  5
C2D5
  8
DETAIL
  6
CONTINUOUS
 62
     5
 10
20.119094
 20
-99.90805399999999
 30
0.0
 11
20.039741
 21
-99.908956
 31
0.0
  0
LINE
  5
C2D6
  8
DETAIL
  6
CONTINUOUS
 62
     5
 10
19.977241
 20
-99.910561
 30
0.0
 11
19.972842
 21
-99.911135
 31
0.0
  0
LINE
  5
C2D7
  8
DETAIL
  6
CONTINUOUS
 62
     5
 10
19.989857
 20
-99.910007
 30
0.0
 11
19.977241
 21
-99.910561
 31
0.0
  0
LINE
  5
C2D8
  8
DETAIL
  6
CONTINUOUS
 62
     5
 10
20.010903
 20
-99.90946799999999
 30
0.0
 11
19.989857
 21
-99.910007
 31
0.0
  0
LINE
  5
C2D9
  8
DETAIL
  6
CONTINUOUS
 62
     5
 10
20.039741
 20
-99.908956
 30
0.0
 11
20.010903
 21
-99.90946799999999
 31
0.0
  0
LINE
  5
C2DA
  8
DETAIL
  6
CONTINUOUS
 62
     5
 10
35.451795
 20
-99.993928
 30
0.0
 11
35.451795
 21
-99.90677699999999
 31
0.0
  0
LINE
  5
C2DB
  8
DETAIL
  6
CONTINUOUS
 62
     5
 10
34.952474
 20
-99.911135
 30
0.0
 11
34.952474
 21
-99.98957
 31
0.0
  0
LINE
  5
C2DC
  8
DETAIL
  6
CONTINUOUS
 62
     5
 10
34.956873
 20
-99.990144
 30
0.0
 11
34.969489
 21
-99.990698
 31
0.0
  0
LINE
  5
C2DD
  8
DETAIL
  6
CONTINUOUS
 62
     5
 10
34.952474
 20
-99.98957
 30
0.0
 11
34.956873
 21
-99.990144
 31
0.0
  0
LINE
  5
C2DE
  8
DETAIL
  6
CONTINUOUS
 62
     5
 10
35.055704
 20
-99.992223
 30
0.0
 11
35.147866
 21
-99.993027
 31
0.0
  0
LINE
  5
C2DF
  8
DETAIL
  6
CONTINUOUS
 62
     5
 10
35.019373
 20
-99.991749
 30
0.0
 11
35.055704
 21
-99.992223
 31
0.0
  0
LINE
  5
C2E0
  8
DETAIL
  6
CONTINUOUS
 62
     5
 10
34.990535
 20
-99.991238
 30
0.0
 11
35.019373
 21
-99.991749
 31
0.0
  0
LINE
  5
C2E1
  8
DETAIL
  6
CONTINUOUS
 62
     5
 10
34.969489
 20
-99.990698
 30
0.0
 11
34.990535
 21
-99.991238
 31
0.0
  0
LINE
  5
C2E2
  8
DETAIL
  6
CONTINUOUS
 62
     5
 10
35.147866
 20
-99.993027
 30
0.0
 11
35.386079
 21
-99.993889
 31
0.0
  0
LINE
  5
C2E3
  8
DETAIL
  6
CONTINUOUS
 62
     5
 10
35.260738
 20
-99.90711
 30
0.0
 11
35.098726
 21
-99.90805399999999
 31
0.0
  0
LINE
  5
C2E4
  8
DETAIL
  6
CONTINUOUS
 62
     5
 10
35.098726
 20
-99.90805399999999
 30
0.0
 11
35.019373
 21
-99.908956
 31
0.0
  0
LINE
  5
C2E5
  8
DETAIL
  6
CONTINUOUS
 62
     5
 10
34.956873
 20
-99.910561
 30
0.0
 11
34.952474
 21
-99.911135
 31
0.0
  0
LINE
  5
C2E6
  8
DETAIL
  6
CONTINUOUS
 62
     5
 10
34.969489
 20
-99.910007
 30
0.0
 11
34.956873
 21
-99.910561
 31
0.0
  0
LINE
  5
C2E7
  8
DETAIL
  6
CONTINUOUS
 62
     5
 10
34.990535
 20
-99.90946799999999
 30
0.0
 11
34.969489
 21
-99.910007
 31
0.0
  0
LINE
  5
C2E8
  8
DETAIL
  6
CONTINUOUS
 62
     5
 10
35.019373
 20
-99.908956
 30
0.0
 11
34.990535
 21
-99.90946799999999
 31
0.0
  0
LINE
  5
C2E9
  8
DETAIL
  6
CONTINUOUS
 62
     5
 10
88.502078
 20
-100.000017
 30
0.0
 11
66.909022
 21
-100.000017
 31
0.0
  0
LINE
  5
C2EA
  8
DETAIL
  6
CONTINUOUS
 62
     5
 10
66.909022
 20
-99.98957
 30
0.0
 11
66.909022
 21
-99.911135
 31
0.0
  0
LINE
  5
C2EB
  8
DETAIL
  6
CONTINUOUS
 62
     5
 10
66.409701
 20
-99.993928
 30
0.0
 11
66.409701
 21
-99.90677699999999
 31
0.0
  0
LINE
  5
C2EC
  8
DETAIL
  6
CONTINUOUS
 62
     5
 10
66.805793
 20
-99.90848299999999
 30
0.0
 11
66.713631
 21
-99.90767799999999
 31
0.0
  0
LINE
  5
C2ED
  8
DETAIL
  6
CONTINUOUS
 62
     5
 10
66.842124
 20
-99.908956
 30
0.0
 11
66.805793
 21
-99.90848299999999
 31
0.0
  0
LINE
  5
C2EE
  8
DETAIL
  6
CONTINUOUS
 62
     5
 10
66.870962
 20
-99.90946799999999
 30
0.0
 11
66.842124
 21
-99.908956
 31
0.0
  0
LINE
  5
C2EF
  8
DETAIL
  6
CONTINUOUS
 62
     5
 10
66.892008
 20
-99.910007
 30
0.0
 11
66.870962
 21
-99.90946799999999
 31
0.0
  0
LINE
  5
C2F0
  8
DETAIL
  6
CONTINUOUS
 62
     5
 10
66.904624
 20
-99.910561
 30
0.0
 11
66.892008
 21
-99.910007
 31
0.0
  0
LINE
  5
C2F1
  8
DETAIL
  6
CONTINUOUS
 62
     5
 10
66.909022
 20
-99.911135
 30
0.0
 11
66.904624
 21
-99.910561
 31
0.0
  0
LINE
  5
C2F2
  8
DETAIL
  6
CONTINUOUS
 62
     5
 10
66.713631
 20
-99.90767799999999
 30
0.0
 11
66.475418
 21
-99.90681599999999
 31
0.0
  0
LINE
  5
C2F3
  8
DETAIL
  6
CONTINUOUS
 62
     5
 10
66.600759
 20
-99.993596
 30
0.0
 11
66.762771
 21
-99.992651
 31
0.0
  0
LINE
  5
C2F4
  8
DETAIL
  6
CONTINUOUS
 62
     5
 10
66.762771
 20
-99.992651
 30
0.0
 11
66.842124
 21
-99.991749
 31
0.0
  0
LINE
  5
C2F5
  8
DETAIL
  6
CONTINUOUS
 62
     5
 10
66.904624
 20
-99.990144
 30
0.0
 11
66.909022
 21
-99.98957
 31
0.0
  0
LINE
  5
C2F6
  8
DETAIL
  6
CONTINUOUS
 62
     5
 10
66.892008
 20
-99.990698
 30
0.0
 11
66.904624
 21
-99.990144
 31
0.0
  0
LINE
  5
C2F7
  8
DETAIL
  6
CONTINUOUS
 62
     5
 10
66.870962
 20
-99.991238
 30
0.0
 11
66.892008
 21
-99.990698
 31
0.0
  0
LINE
  5
C2F8
  8
DETAIL
  6
CONTINUOUS
 62
     5
 10
66.842124
 20
-99.991749
 30
0.0
 11
66.870962
 21
-99.991238
 31
0.0
  0
LINE
  5
C2F9
  8
DETAIL
  6
CONTINUOUS
 62
     5
 10
88.648594
 20
-99.99282099999999
 30
0.0
 11
88.502078
 21
-100.000005
 31
0.0
  0
LINE
  5
C2FA
  8
DETAIL
  6
CONTINUOUS
 62
     5
 10
88.793752
 20
-99.97133
 30
0.0
 11
88.648594
 21
-99.99282099999999
 31
0.0
  0
LINE
  5
C2FB
  8
DETAIL
  6
CONTINUOUS
 62
     5
 10
88.936129
 20
-99.935735
 30
0.0
 11
88.793752
 21
-99.97133
 31
0.0
  0
LINE
  5
C2FC
  8
DETAIL
  6
CONTINUOUS
 62
     5
 10
89.074439
 20
-99.886337
 30
0.0
 11
88.936129
 21
-99.935735
 31
0.0
  0
LINE
  5
C2FD
  8
DETAIL
  6
CONTINUOUS
 62
     5
 10
89.207464
 20
-99.823516
 30
0.0
 11
89.074439
 21
-99.886337
 31
0.0
  0
LINE
  5
C2FE
  8
DETAIL
  6
CONTINUOUS
 62
     5
 10
89.333747
 20
-99.747907
 30
0.0
 11
89.207464
 21
-99.823516
 31
0.0
  0
LINE
  5
C2FF
  8
DETAIL
  6
CONTINUOUS
 62
     5
 10
89.451947
 20
-99.660314
 30
0.0
 11
89.333747
 21
-99.747907
 31
0.0
  0
LINE
  5
C300
  8
DETAIL
  6
CONTINUOUS
 62
     5
 10
89.560977
 20
-99.561555
 30
0.0
 11
89.451947
 21
-99.660314
 31
0.0
  0
LINE
  5
C301
  8
DETAIL
  6
CONTINUOUS
 62
     5
 10
89.659795
 20
-99.452574
 30
0.0
 11
89.560977
 21
-99.561555
 31
0.0
  0
LINE
  5
C302
  8
DETAIL
  6
CONTINUOUS
 62
     5
 10
89.747449
 20
-99.334423
 30
0.0
 11
89.659795
 21
-99.452574
 31
0.0
  0
LINE
  5
C303
  8
DETAIL
  6
CONTINUOUS
 62
     5
 10
89.8231
 20
-99.208224
 30
0.0
 11
89.747449
 21
-99.334423
 31
0.0
  0
LINE
  5
C304
  8
DETAIL
  6
CONTINUOUS
 62
     5
 10
89.885998
 20
-99.075229
 30
0.0
 11
89.8231
 21
-99.208224
 31
0.0
  0
LINE
  5
C305
  8
DETAIL
  6
CONTINUOUS
 62
     5
 10
89.935532
 20
-98.936751
 30
0.0
 11
89.885998
 21
-99.075229
 31
0.0
  0
LINE
  5
C306
  8
DETAIL
  6
CONTINUOUS
 62
     5
 10
89.971237
 20
-98.794139
 30
0.0
 11
89.935532
 21
-98.936751
 31
0.0
  0
LINE
  5
C307
  8
DETAIL
  6
CONTINUOUS
 62
     5
 10
89.992782
 20
-98.64878999999999
 30
0.0
 11
89.971237
 21
-98.794139
 31
0.0
  0
LINE
  5
C308
  8
DETAIL
  6
CONTINUOUS
 62
     5
 10
89.999984
 20
-98.502099
 30
0.0
 11
89.992782
 21
-98.64878999999999
 31
0.0
  0
ARC
  5
C309
  8
FIX
  6
CONTINUOUS
 62
    11
 10
-79.89137
 20
0.0
 30
0.0
 40
2.180498
 50
180.0
 51
0.0
  0
ARC
  5
C30A
  8
FIX
  6
CONTINUOUS
 62
    11
 10
-79.89137
 20
5.991853
 30
0.0
 40
2.180498
 50
0.0
 51
180.0
  0
LINE
  5
C30B
  8
FIX
  6
CONTINUOUS
 62
    11
 10
-82.071868
 20
5.991853
 30
0.0
 11
-82.071868
 21
0.0
 31
0.0
  0
LINE
  5
C30C
  8
FIX
  6
CONTINUOUS
 62
    11
 10
-77.710872
 20
0.0
 30
0.0
 11
-77.710872
 21
5.991853
 31
0.0
  0
LINE
  5
C30D
  8
FIX
  6
CONTINUOUS
 62
    11
 10
77.894086
 20
5.991853
 30
0.0
 11
77.894086
 21
0.0
 31
0.0
  0
LINE
  5
C30E
  8
FIX
  6
CONTINUOUS
 62
    11
 10
81.888654
 20
0.0
 30
0.0
 11
81.888654
 21
5.991853
 31
0.0
  0
ARC
  5
C30F
  8
FIX
  6
CONTINUOUS
 62
    11
 10
79.89137
 20
0.0
 30
0.0
 40
1.997284
 50
180.0
 51
0.0
  0
ARC
  5
C310
  8
FIX
  6
CONTINUOUS
 62
    11
 10
79.89137
 20
5.991853
 30
0.0
 40
1.997284
 50
0.0
 51
180.0
  0
LINE
  5
C311
  8
DETAIL
  6
CONTINUOUS
 62
     5
 10
-88.502078
 20
79.99997400000001
 30
0.0
 11
88.502078
 21
79.99997400000001
 31
0.0
  0
LINE
  5
C312
  8
DETAIL
  6
CONTINUOUS
 62
     5
 10
-88.648594
 20
79.992778
 30
0.0
 11
-88.502078
 21
79.99996300000001
 31
0.0
  0
LINE
  5
C313
  8
DETAIL
  6
CONTINUOUS
 62
     5
 10
-88.793752
 20
79.971288
 30
0.0
 11
-88.648594
 21
79.992778
 31
0.0
  0
LINE
  5
C314
  8
DETAIL
  6
CONTINUOUS
 62
     5
 10
-88.936129
 20
79.935693
 30
0.0
 11
-88.793752
 21
79.971288
 31
0.0
  0
LINE
  5
C315
  8
DETAIL
  6
CONTINUOUS
 62
     5
 10
-89.074439
 20
79.886295
 30
0.0
 11
-88.936129
 21
79.935693
 31
0.0
  0
LINE
  5
C316
  8
DETAIL
  6
CONTINUOUS
 62
     5
 10
-89.207464
 20
79.823474
 30
0.0
 11
-89.074439
 21
79.886295
 31
0.0
  0
LINE
  5
C317
  8
DETAIL
  6
CONTINUOUS
 62
     5
 10
-89.333747
 20
79.747865
 30
0.0
 11
-89.207464
 21
79.823474
 31
0.0
  0
LINE
  5
C318
  8
DETAIL
  6
CONTINUOUS
 62
     5
 10
-89.451947
 20
79.660272
 30
0.0
 11
-89.333747
 21
79.747865
 31
0.0
  0
LINE
  5
C319
  8
DETAIL
  6
CONTINUOUS
 62
     5
 10
-89.560977
 20
79.56151200000001
 30
0.0
 11
-89.451947
 21
79.660272
 31
0.0
  0
LINE
  5
C31A
  8
DETAIL
  6
CONTINUOUS
 62
     5
 10
-89.659795
 20
79.452532
 30
0.0
 11
-89.560977
 21
79.56151200000001
 31
0.0
  0
LINE
  5
C31B
  8
DETAIL
  6
CONTINUOUS
 62
     5
 10
-89.747449
 20
79.33438000000001
 30
0.0
 11
-89.659795
 21
79.452532
 31
0.0
  0
LINE
  5
C31C
  8
DETAIL
  6
CONTINUOUS
 62
     5
 10
-89.8231
 20
79.20818200000001
 30
0.0
 11
-89.747449
 21
79.33438000000001
 31
0.0
  0
LINE
  5
C31D
  8
DETAIL
  6
CONTINUOUS
 62
     5
 10
-89.885998
 20
79.075186
 30
0.0
 11
-89.8231
 21
79.20818200000001
 31
0.0
  0
LINE
  5
C31E
  8
DETAIL
  6
CONTINUOUS
 62
     5
 10
-89.935532
 20
78.93670900000001
 30
0.0
 11
-89.885998
 21
79.075186
 31
0.0
  0
LINE
  5
C31F
  8
DETAIL
  6
CONTINUOUS
 62
     5
 10
-89.971237
 20
78.79409600000001
 30
0.0
 11
-89.935532
 21
78.93670900000001
 31
0.0
  0
LINE
  5
C320
  8
DETAIL
  6
CONTINUOUS
 62
     5
 10
-89.992782
 20
78.648747
 30
0.0
 11
-89.971237
 21
78.79409600000001
 31
0.0
  0
LINE
  5
C321
  8
DETAIL
  6
CONTINUOUS
 62
     5
 10
-89.999984
 20
78.50205700000001
 30
0.0
 11
-89.992782
 21
78.648747
 31
0.0
  0
LINE
  5
C322
  8
DETAIL
  6
CONTINUOUS
 62
     5
 10
89.992782
 20
78.648747
 30
0.0
 11
89.999984
 21
78.50205700000001
 31
0.0
  0
LINE
  5
C323
  8
DETAIL
  6
CONTINUOUS
 62
     5
 10
89.971237
 20
78.79409600000001
 30
0.0
 11
89.992782
 21
78.648747
 31
0.0
  0
LINE
  5
C324
  8
DETAIL
  6
CONTINUOUS
 62
     5
 10
89.935532
 20
78.93670900000001
 30
0.0
 11
89.971237
 21
78.79409600000001
 31
0.0
  0
LINE
  5
C325
  8
DETAIL
  6
CONTINUOUS
 62
     5
 10
89.885998
 20
79.075186
 30
0.0
 11
89.935532
 21
78.93670900000001
 31
0.0
  0
LINE
  5
C326
  8
DETAIL
  6
CONTINUOUS
 62
     5
 10
89.8231
 20
79.20818200000001
 30
0.0
 11
89.885998
 21
79.075186
 31
0.0
  0
LINE
  5
C327
  8
DETAIL
  6
CONTINUOUS
 62
     5
 10
89.747449
 20
79.33438000000001
 30
0.0
 11
89.8231
 21
79.20818200000001
 31
0.0
  0
LINE
  5
C328
  8
DETAIL
  6
CONTINUOUS
 62
     5
 10
89.659795
 20
79.452532
 30
0.0
 11
89.747449
 21
79.33438000000001
 31
0.0
  0
LINE
  5
C329
  8
DETAIL
  6
CONTINUOUS
 62
     5
 10
89.560977
 20
79.56151200000001
 30
0.0
 11
89.659795
 21
79.452532
 31
0.0
  0
LINE
  5
C32A
  8
DETAIL
  6
CONTINUOUS
 62
     5
 10
89.451947
 20
79.660272
 30
0.0
 11
89.560977
 21
79.56151200000001
 31
0.0
  0
LINE
  5
C32B
  8
DETAIL
  6
CONTINUOUS
 62
     5
 10
89.333747
 20
79.747865
 30
0.0
 11
89.451947
 21
79.660272
 31
0.0
  0
LINE
  5
C32C
  8
DETAIL
  6
CONTINUOUS
 62
     5
 10
89.207464
 20
79.823474
 30
0.0
 11
89.333747
 21
79.747865
 31
0.0
  0
LINE
  5
C32D
  8
DETAIL
  6
CONTINUOUS
 62
     5
 10
89.074439
 20
79.886295
 30
0.0
 11
89.207464
 21
79.823474
 31
0.0
  0
LINE
  5
C32E
  8
DETAIL
  6
CONTINUOUS
 62
     5
 10
88.936129
 20
79.935693
 30
0.0
 11
89.074439
 21
79.886295
 31
0.0
  0
LINE
  5
C32F
  8
DETAIL
  6
CONTINUOUS
 62
     5
 10
88.793752
 20
79.971288
 30
0.0
 11
88.936129
 21
79.935693
 31
0.0
  0
LINE
  5
C330
  8
DETAIL
  6
CONTINUOUS
 62
     5
 10
88.648594
 20
79.992778
 30
0.0
 11
88.793752
 21
79.971288
 31
0.0
  0
LINE
  5
C331
  8
DETAIL
  6
CONTINUOUS
 62
     5
 10
88.502078
 20
79.99996300000001
 30
0.0
 11
88.648594
 21
79.992778
 31
0.0
  0
LINE
  5
C332
  8
OUTLINE
  6
CONTINUOUS
 62
     3
 10
-89.999996
 20
-98.502099
 30
0.0
 11
-89.999996
 21
78.50205700000001
 31
0.0
  0
LINE
  5
C333
  8
OUTLINE
  6
CONTINUOUS
 62
     3
 10
89.999996
 20
78.50205700000001
 30
0.0
 11
89.999996
 21
-98.502099
 31
0.0
  0
LINE
  5
C334
  8
OUTLINE
  6
CONTINUOUS
 62
     3
 10
-10.98254
 20
-100.000017
 30
0.0
 11
-88.502078
 21
-100.000017
 31
0.0
  0
LINE
  5
C335
  8
OUTLINE
  6
CONTINUOUS
 62
     3
 10
-89.992782
 20
-98.64878999999999
 30
0.0
 11
-89.999984
 21
-98.502099
 31
0.0
  0
LINE
  5
C336
  8
OUTLINE
  6
CONTINUOUS
 62
     3
 10
-89.971237
 20
-98.794139
 30
0.0
 11
-89.992782
 21
-98.64878999999999
 31
0.0
  0
LINE
  5
C337
  8
OUTLINE
  6
CONTINUOUS
 62
     3
 10
-89.935532
 20
-98.936751
 30
0.0
 11
-89.971237
 21
-98.794139
 31
0.0
  0
LINE
  5
C338
  8
OUTLINE
  6
CONTINUOUS
 62
     3
 10
-89.885998
 20
-99.075229
 30
0.0
 11
-89.935532
 21
-98.936751
 31
0.0
  0
LINE
  5
C339
  8
OUTLINE
  6
CONTINUOUS
 62
     3
 10
-89.8231
 20
-99.208224
 30
0.0
 11
-89.885998
 21
-99.075229
 31
0.0
  0
LINE
  5
C33A
  8
OUTLINE
  6
CONTINUOUS
 62
     3
 10
-89.747449
 20
-99.334423
 30
0.0
 11
-89.8231
 21
-99.208224
 31
0.0
  0
LINE
  5
C33B
  8
OUTLINE
  6
CONTINUOUS
 62
     3
 10
-89.659795
 20
-99.452574
 30
0.0
 11
-89.747449
 21
-99.334423
 31
0.0
  0
LINE
  5
C33C
  8
OUTLINE
  6
CONTINUOUS
 62
     3
 10
-89.560977
 20
-99.561555
 30
0.0
 11
-89.659795
 21
-99.452574
 31
0.0
  0
LINE
  5
C33D
  8
OUTLINE
  6
CONTINUOUS
 62
     3
 10
-89.451947
 20
-99.660314
 30
0.0
 11
-89.560977
 21
-99.561555
 31
0.0
  0
LINE
  5
C33E
  8
OUTLINE
  6
CONTINUOUS
 62
     3
 10
-89.333747
 20
-99.747907
 30
0.0
 11
-89.451947
 21
-99.660314
 31
0.0
  0
LINE
  5
C33F
  8
OUTLINE
  6
CONTINUOUS
 62
     3
 10
-89.207464
 20
-99.823516
 30
0.0
 11
-89.333747
 21
-99.747907
 31
0.0
  0
LINE
  5
C340
  8
OUTLINE
  6
CONTINUOUS
 62
     3
 10
-89.074439
 20
-99.886337
 30
0.0
 11
-89.207464
 21
-99.823516
 31
0.0
  0
LINE
  5
C341
  8
OUTLINE
  6
CONTINUOUS
 62
     3
 10
-88.936129
 20
-99.935735
 30
0.0
 11
-89.074439
 21
-99.886337
 31
0.0
  0
LINE
  5
C342
  8
OUTLINE
  6
CONTINUOUS
 62
     3
 10
-88.793752
 20
-99.97133
 30
0.0
 11
-88.936129
 21
-99.935735
 31
0.0
  0
LINE
  5
C343
  8
OUTLINE
  6
CONTINUOUS
 62
     3
 10
-88.648594
 20
-99.99282099999999
 30
0.0
 11
-88.793752
 21
-99.97133
 31
0.0
  0
LINE
  5
C344
  8
OUTLINE
  6
CONTINUOUS
 62
     3
 10
-88.502078
 20
-100.000005
 30
0.0
 11
-88.648594
 21
-99.99282099999999
 31
0.0
  0
LINE
  5
C345
  8
OUTLINE
  6
CONTINUOUS
 62
     3
 10
35.386079
 20
-99.993889
 30
0.0
 11
66.600759
 21
-99.993596
 31
0.0
  0
LINE
  5
C346
  8
OUTLINE
  6
CONTINUOUS
 62
     3
 10
19.972842
 20
-100.000017
 30
0.0
 11
10.98254
 21
-100.000017
 31
0.0
  0
LINE
  5
C347
  8
OUTLINE
  6
CONTINUOUS
 62
     3
 10
-6.573367
 20
-99.865192
 30
0.0
 11
6.782136
 21
-99.86579499999999
 31
0.0
  0
LINE
  5
C348
  8
OUTLINE
  6
CONTINUOUS
 62
     3
 10
6.573367
 20
-99.865192
 30
0.0
 11
6.782136
 21
-99.86579499999999
 31
0.0
  0
LINE
  5
C349
  8
OUTLINE
  6
CONTINUOUS
 62
     3
 10
10.549617
 20
-99.901301
 30
0.0
 11
10.543731
 21
-99.89805199999999
 31
0.0
  0
LINE
  5
C34A
  8
OUTLINE
  6
CONTINUOUS
 62
     3
 10
10.652915
 20
-99.944046
 30
0.0
 11
10.549617
 21
-99.901301
 31
0.0
  0
LINE
  5
C34B
  8
OUTLINE
  6
CONTINUOUS
 62
     3
 10
10.760314
 20
-99.974971
 30
0.0
 11
10.652915
 21
-99.944046
 31
0.0
  0
LINE
  5
C34C
  8
OUTLINE
  6
CONTINUOUS
 62
     3
 10
10.87067
 20
-99.99372199999999
 30
0.0
 11
10.760314
 21
-99.974971
 31
0.0
  0
LINE
  5
C34D
  8
OUTLINE
  6
CONTINUOUS
 62
     3
 10
10.98254
 20
-100.000005
 30
0.0
 11
10.87067
 21
-99.99372199999999
 31
0.0
  0
LINE
  5
C34E
  8
OUTLINE
  6
CONTINUOUS
 62
     3
 10
10.513362
 20
-99.897303
 30
0.0
 11
10.611351
 21
-99.89987099999999
 31
0.0
  0
LINE
  5
C34F
  8
OUTLINE
  6
CONTINUOUS
 62
     3
 10
10.359914
 20
-99.89399
 30
0.0
 11
10.513362
 21
-99.897303
 31
0.0
  0
LINE
  5
C350
  8
OUTLINE
  6
CONTINUOUS
 62
     3
 10
10.086182
 20
-99.88929
 30
0.0
 11
10.359914
 21
-99.89399
 31
0.0
  0
LINE
  5
C351
  8
OUTLINE
  6
CONTINUOUS
 62
     3
 10
9.574843
 20
-99.882739
 30
0.0
 11
10.086182
 21
-99.88929
 31
0.0
  0
LINE
  5
C352
  8
OUTLINE
  6
CONTINUOUS
 62
     3
 10
8.45795
 20
-99.873362
 30
0.0
 11
9.574843
 21
-99.882739
 31
0.0
  0
LINE
  5
C353
  8
OUTLINE
  6
CONTINUOUS
 62
     3
 10
6.782136
 20
-99.86579499999999
 30
0.0
 11
8.45795
 21
-99.873362
 31
0.0
  0
LINE
  5
C354
  8
OUTLINE
  6
CONTINUOUS
 62
     3
 10
34.952474
 20
-100.000017
 30
0.0
 11
34.453153
 21
-100.000017
 31
0.0
  0
LINE
  5
C355
  8
OUTLINE
  6
CONTINUOUS
 62
     3
 10
34.453153
 20
-100.000005
 30
0.0
 11
19.972842
 21
-100.000017
 31
0.0
  0
LINE
  5
C356
  8
OUTLINE
  6
CONTINUOUS
 62
     3
 10
35.055704
 20
-99.992223
 30
0.0
 11
35.147866
 21
-99.993027
 31
0.0
  0
LINE
  5
C357
  8
OUTLINE
  6
CONTINUOUS
 62
     3
 10
35.019373
 20
-99.991749
 30
0.0
 11
35.055704
 21
-99.992223
 31
0.0
  0
LINE
  5
C358
  8
OUTLINE
  6
CONTINUOUS
 62
     3
 10
34.990535
 20
-99.991238
 30
0.0
 11
35.019373
 21
-99.991749
 31
0.0
  0
LINE
  5
C359
  8
OUTLINE
  6
CONTINUOUS
 62
     3
 10
34.969489
 20
-99.990698
 30
0.0
 11
34.990535
 21
-99.991238
 31
0.0
  0
LINE
  5
C35A
  8
OUTLINE
  6
CONTINUOUS
 62
     3
 10
35.147866
 20
-99.993027
 30
0.0
 11
35.386079
 21
-99.993889
 31
0.0
  0
LINE
  5
C35B
  8
OUTLINE
  6
CONTINUOUS
 62
     3
 10
88.502078
 20
-100.000017
 30
0.0
 11
66.909022
 21
-100.000017
 31
0.0
  0
LINE
  5
C35C
  8
OUTLINE
  6
CONTINUOUS
 62
     3
 10
66.600759
 20
-99.993596
 30
0.0
 11
66.762771
 21
-99.992651
 31
0.0
  0
LINE
  5
C35D
  8
OUTLINE
  6
CONTINUOUS
 62
     3
 10
66.762771
 20
-99.992651
 30
0.0
 11
66.842124
 21
-99.991749
 31
0.0
  0
LINE
  5
C35E
  8
OUTLINE
  6
CONTINUOUS
 62
     3
 10
66.904624
 20
-99.990144
 30
0.0
 11
66.909022
 21
-99.98957
 31
0.0
  0
LINE
  5
C35F
  8
OUTLINE
  6
CONTINUOUS
 62
     3
 10
66.892008
 20
-99.990698
 30
0.0
 11
66.904624
 21
-99.990144
 31
0.0
  0
LINE
  5
C360
  8
OUTLINE
  6
CONTINUOUS
 62
     3
 10
66.870962
 20
-99.991238
 30
0.0
 11
66.892008
 21
-99.990698
 31
0.0
  0
LINE
  5
C361
  8
OUTLINE
  6
CONTINUOUS
 62
     3
 10
66.842124
 20
-99.991749
 30
0.0
 11
66.870962
 21
-99.991238
 31
0.0
  0
LINE
  5
C362
  8
OUTLINE
  6
CONTINUOUS
 62
     3
 10
88.648594
 20
-99.99282099999999
 30
0.0
 11
88.502078
 21
-100.000005
 31
0.0
  0
LINE
  5
C363
  8
OUTLINE
  6
CONTINUOUS
 62
     3
 10
88.793752
 20
-99.97133
 30
0.0
 11
88.648594
 21
-99.99282099999999
 31
0.0
  0
LINE
  5
C364
  8
OUTLINE
  6
CONTINUOUS
 62
     3
 10
88.936129
 20
-99.935735
 30
0.0
 11
88.793752
 21
-99.97133
 31
0.0
  0
LINE
  5
C365
  8
OUTLINE
  6
CONTINUOUS
 62
     3
 10
89.074439
 20
-99.886337
 30
0.0
 11
88.936129
 21
-99.935735
 31
0.0
  0
LINE
  5
C366
  8
OUTLINE
  6
CONTINUOUS
 62
     3
 10
89.207464
 20
-99.823516
 30
0.0
 11
89.074439
 21
-99.886337
 31
0.0
  0
LINE
  5
C367
  8
OUTLINE
  6
CONTINUOUS
 62
     3
 10
89.333747
 20
-99.747907
 30
0.0
 11
89.207464
 21
-99.823516
 31
0.0
  0
LINE
  5
C368
  8
OUTLINE
  6
CONTINUOUS
 62
     3
 10
89.451947
 20
-99.660314
 30
0.0
 11
89.333747
 21
-99.747907
 31
0.0
  0
LINE
  5
C369
  8
OUTLINE
  6
CONTINUOUS
 62
     3
 10
89.560977
 20
-99.561555
 30
0.0
 11
89.451947
 21
-99.660314
 31
0.0
  0
LINE
  5
C36A
  8
OUTLINE
  6
CONTINUOUS
 62
     3
 10
89.659795
 20
-99.452574
 30
0.0
 11
89.560977
 21
-99.561555
 31
0.0
  0
LINE
  5
C36B
  8
OUTLINE
  6
CONTINUOUS
 62
     3
 10
89.747449
 20
-99.334423
 30
0.0
 11
89.659795
 21
-99.452574
 31
0.0
  0
LINE
  5
C36C
  8
OUTLINE
  6
CONTINUOUS
 62
     3
 10
89.8231
 20
-99.208224
 30
0.0
 11
89.747449
 21
-99.334423
 31
0.0
  0
LINE
  5
C36D
  8
OUTLINE
  6
CONTINUOUS
 62
     3
 10
89.885998
 20
-99.075229
 30
0.0
 11
89.8231
 21
-99.208224
 31
0.0
  0
LINE
  5
C36E
  8
OUTLINE
  6
CONTINUOUS
 62
     3
 10
89.935532
 20
-98.936751
 30
0.0
 11
89.885998
 21
-99.075229
 31
0.0
  0
LINE
  5
C36F
  8
OUTLINE
  6
CONTINUOUS
 62
     3
 10
89.971237
 20
-98.794139
 30
0.0
 11
89.935532
 21
-98.936751
 31
0.0
  0
LINE
  5
C370
  8
OUTLINE
  6
CONTINUOUS
 62
     3
 10
89.992782
 20
-98.64878999999999
 30
0.0
 11
89.971237
 21
-98.794139
 31
0.0
  0
LINE
  5
C371
  8
OUTLINE
  6
CONTINUOUS
 62
     3
 10
89.999984
 20
-98.502099
 30
0.0
 11
89.992782
 21
-98.64878999999999
 31
0.0
  0
LINE
  5
C372
  8
OUTLINE
  6
CONTINUOUS
 62
     3
 10
-88.502078
 20
79.99997400000001
 30
0.0
 11
88.502078
 21
79.99997400000001
 31
0.0
  0
LINE
  5
C373
  8
OUTLINE
  6
CONTINUOUS
 62
     3
 10
-88.648594
 20
79.992778
 30
0.0
 11
-88.502078
 21
79.99996300000001
 31
0.0
  0
LINE
  5
C374
  8
OUTLINE
  6
CONTINUOUS
 62
     3
 10
-88.793752
 20
79.971288
 30
0.0
 11
-88.648594
 21
79.992778
 31
0.0
  0
LINE
  5
C375
  8
OUTLINE
  6
CONTINUOUS
 62
     3
 10
-88.936129
 20
79.935693
 30
0.0
 11
-88.793752
 21
79.971288
 31
0.0
  0
LINE
  5
C376
  8
OUTLINE
  6
CONTINUOUS
 62
     3
 10
-89.074439
 20
79.886295
 30
0.0
 11
-88.936129
 21
79.935693
 31
0.0
  0
LINE
  5
C377
  8
OUTLINE
  6
CONTINUOUS
 62
     3
 10
-89.207464
 20
79.823474
 30
0.0
 11
-89.074439
 21
79.886295
 31
0.0
  0
LINE
  5
C378
  8
OUTLINE
  6
CONTINUOUS
 62
     3
 10
-89.333747
 20
79.747865
 30
0.0
 11
-89.207464
 21
79.823474
 31
0.0
  0
LINE
  5
C379
  8
OUTLINE
  6
CONTINUOUS
 62
     3
 10
-89.451947
 20
79.660272
 30
0.0
 11
-89.333747
 21
79.747865
 31
0.0
  0
LINE
  5
C37A
  8
OUTLINE
  6
CONTINUOUS
 62
     3
 10
-89.560977
 20
79.56151200000001
 30
0.0
 11
-89.451947
 21
79.660272
 31
0.0
  0
LINE
  5
C37B
  8
OUTLINE
  6
CONTINUOUS
 62
     3
 10
-89.659795
 20
79.452532
 30
0.0
 11
-89.560977
 21
79.56151200000001
 31
0.0
  0
LINE
  5
C37C
  8
OUTLINE
  6
CONTINUOUS
 62
     3
 10
-89.747449
 20
79.33438000000001
 30
0.0
 11
-89.659795
 21
79.452532
 31
0.0
  0
LINE
  5
C37D
  8
OUTLINE
  6
CONTINUOUS
 62
     3
 10
-89.8231
 20
79.20818200000001
 30
0.0
 11
-89.747449
 21
79.33438000000001
 31
0.0
  0
LINE
  5
C37E
  8
OUTLINE
  6
CONTINUOUS
 62
     3
 10
-89.885998
 20
79.075186
 30
0.0
 11
-89.8231
 21
79.20818200000001
 31
0.0
  0
LINE
  5
C37F
  8
OUTLINE
  6
CONTINUOUS
 62
     3
 10
-89.935532
 20
78.93670900000001
 30
0.0
 11
-89.885998
 21
79.075186
 31
0.0
  0
LINE
  5
C380
  8
OUTLINE
  6
CONTINUOUS
 62
     3
 10
-89.971237
 20
78.79409600000001
 30
0.0
 11
-89.935532
 21
78.93670900000001
 31
0.0
  0
LINE
  5
C381
  8
OUTLINE
  6
CONTINUOUS
 62
     3
 10
-89.992782
 20
78.648747
 30
0.0
 11
-89.971237
 21
78.79409600000001
 31
0.0
  0
LINE
  5
C382
  8
OUTLINE
  6
CONTINUOUS
 62
     3
 10
-89.999984
 20
78.50205700000001
 30
0.0
 11
-89.992782
 21
78.648747
 31
0.0
  0
LINE
  5
C383
  8
OUTLINE
  6
CONTINUOUS
 62
     3
 10
89.992782
 20
78.648747
 30
0.0
 11
89.999984
 21
78.50205700000001
 31
0.0
  0
LINE
  5
C384
  8
OUTLINE
  6
CONTINUOUS
 62
     3
 10
89.971237
 20
78.79409600000001
 30
0.0
 11
89.992782
 21
78.648747
 31
0.0
  0
LINE
  5
C385
  8
OUTLINE
  6
CONTINUOUS
 62
     3
 10
89.935532
 20
78.93670900000001
 30
0.0
 11
89.971237
 21
78.79409600000001
 31
0.0
  0
LINE
  5
C386
  8
OUTLINE
  6
CONTINUOUS
 62
     3
 10
89.885998
 20
79.075186
 30
0.0
 11
89.935532
 21
78.93670900000001
 31
0.0
  0
LINE
  5
C387
  8
OUTLINE
  6
CONTINUOUS
 62
     3
 10
89.8231
 20
79.20818200000001
 30
0.0
 11
89.885998
 21
79.075186
 31
0.0
  0
LINE
  5
C388
  8
OUTLINE
  6
CONTINUOUS
 62
     3
 10
89.747449
 20
79.33438000000001
 30
0.0
 11
89.8231
 21
79.20818200000001
 31
0.0
  0
LINE
  5
C389
  8
OUTLINE
  6
CONTINUOUS
 62
     3
 10
89.659795
 20
79.452532
 30
0.0
 11
89.747449
 21
79.33438000000001
 31
0.0
  0
LINE
  5
C38A
  8
OUTLINE
  6
CONTINUOUS
 62
     3
 10
89.560977
 20
79.56151200000001
 30
0.0
 11
89.659795
 21
79.452532
 31
0.0
  0
LINE
  5
C38B
  8
OUTLINE
  6
CONTINUOUS
 62
     3
 10
89.451947
 20
79.660272
 30
0.0
 11
89.560977
 21
79.56151200000001
 31
0.0
  0
LINE
  5
C38C
  8
OUTLINE
  6
CONTINUOUS
 62
     3
 10
89.333747
 20
79.747865
 30
0.0
 11
89.451947
 21
79.660272
 31
0.0
  0
LINE
  5
C38D
  8
OUTLINE
  6
CONTINUOUS
 62
     3
 10
89.207464
 20
79.823474
 30
0.0
 11
89.333747
 21
79.747865
 31
0.0
  0
LINE
  5
C38E
  8
OUTLINE
  6
CONTINUOUS
 62
     3
 10
89.074439
 20
79.886295
 30
0.0
 11
89.207464
 21
79.823474
 31
0.0
  0
LINE
  5
C38F
  8
OUTLINE
  6
CONTINUOUS
 62
     3
 10
88.936129
 20
79.935693
 30
0.0
 11
89.074439
 21
79.886295
 31
0.0
  0
LINE
  5
C390
  8
OUTLINE
  6
CONTINUOUS
 62
     3
 10
88.793752
 20
79.971288
 30
0.0
 11
88.936129
 21
79.935693
 31
0.0
  0
LINE
  5
C391
  8
OUTLINE
  6
CONTINUOUS
 62
     3
 10
88.648594
 20
79.992778
 30
0.0
 11
88.793752
 21
79.971288
 31
0.0
  0
LINE
  5
C392
  8
OUTLINE
  6
CONTINUOUS
 62
     3
 10
88.502078
 20
79.99996300000001
 30
0.0
 11
88.648594
 21
79.992778
 31
0.0
  0
LINE
  5
C393
  8
BASIS
  6
DASHDOT
 62
     6
 39
50.0
 10
-60.038402
 20
5.999999
 30
0.0
 11
-99.970637
 21
5.999998
 31
0.0
  0
LINE
  5
C394
  8
BASIS
  6
DASHDOT
 62
     6
 39
50.0
 10
99.961598
 20
5.999999
 30
0.0
 11
60.029363
 21
5.999998
 31
0.0
  0
LINE
  5
C395
  8
SIZE
  6
CONTINUOUS
 62
    30
 10
-89.999996
 20
-118.502099
 30
0.0
 11
-89.999996
 21
-455.211426
 31
0.0
  0
LINE
  5
C396
  8
SIZE
  6
CONTINUOUS
 62
    30
 10
89.999996
 20
-118.502099
 30
0.0
 11
89.999996
 21
-455.211426
 31
0.0
  0
LINE
  5
C397
  8
SIZE
  6
CONTINUOUS
 62
    30
 10
-101.999996
 20
-435.211426
 30
0.0
 11
-113.999996
 21
-435.211426
 31
0.0
  0
LINE
  5
C398
  8
SIZE
  6
CONTINUOUS
 62
    30
 10
101.999996
 20
-435.211426
 30
0.0
 11
113.999996
 21
-435.211426
 31
0.0
  0
LINE
  5
C399
  8
SIZE
  6
CONTINUOUS
 62
    30
 10
-89.999996
 20
-435.211426
 30
0.0
 11
89.999996
 21
-435.211426
 31
0.0
  0
CIRCLE
  5
C39A
  8
SIZE
  6
CONTINUOUS
 62
    30
 10
-89.999996
 20
-435.211426
 30
0.0
 40
6.0
  0
LINE
  5
C39B
  8
SIZE
  6
CONTINUOUS
 62
    30
 10
-89.999996
 20
-435.211426
 30
0.0
 11
-101.999996
 21
-435.211426
 31
0.0
  0
CIRCLE
  5
C39C
  8
SIZE
  6
CONTINUOUS
 62
    30
 10
89.999996
 20
-435.211426
 30
0.0
 40
6.0
  0
LINE
  5
C39D
  8
SIZE
  6
CONTINUOUS
 62
    30
 10
89.999996
 20
-435.211426
 30
0.0
 11
101.999996
 21
-435.211426
 31
0.0
  0
TEXT
  5
C39E
  8
SIZE
  6
CONTINUOUS
 62
    30
 10
-86.4
 20
-410.211426
 30
0.0
 40
64.0
  1
180
 41
0.9
 72
     1
 11
0.0
 21
-410.211426
 31
0.0
  0
POINT
  5
C39F
  8
DEFPOINTS
  6
CONTINUOUS
 62
    30
 10
-89.999996
 20
-98.502099
 30
0.0
  0
POINT
  5
C3A0
  8
DEFPOINTS
  6
CONTINUOUS
 62
    30
 10
89.999996
 20
-98.502099
 30
0.0
  0
POINT
  5
C3A1
  8
DEFPOINTS
  6
CONTINUOUS
 62
    30
 10
89.999996
 20
-435.211426
 30
0.0
  0
LINE
  5
C3A2
  8
SIZE
  6
CONTINUOUS
 62
    30
 10
-80.10863
 20
-37.004074
 30
0.0
 11
-80.10863
 21
-326.52696
 31
0.0
  0
LINE
  5
C3A3
  8
SIZE
  6
CONTINUOUS
 62
    30
 10
79.89137
 20
-37.004074
 30
0.0
 11
79.89137
 21
-326.52696
 31
0.0
  0
LINE
  5
C3A4
  8
SIZE
  6
CONTINUOUS
 62
    30
 10
-92.10863
 20
-306.52696
 30
0.0
 11
-104.10863
 21
-306.52696
 31
0.0
  0
LINE
  5
C3A5
  8
SIZE
  6
CONTINUOUS
 62
    30
 10
91.89137
 20
-306.52696
 30
0.0
 11
103.89137
 21
-306.52696
 31
0.0
  0
LINE
  5
C3A6
  8
SIZE
  6
CONTINUOUS
 62
    30
 10
-80.10863
 20
-306.52696
 30
0.0
 11
79.89137
 21
-306.52696
 31
0.0
  0
CIRCLE
  5
C3A7
  8
SIZE
  6
CONTINUOUS
 62
    30
 10
-80.10863
 20
-306.52696
 30
0.0
 40
6.0
  0
LINE
  5
C3A8
  8
SIZE
  6
CONTINUOUS
 62
    30
 10
-80.10863
 20
-306.52696
 30
0.0
 11
-92.10863
 21
-306.52696
 31
0.0
  0
CIRCLE
  5
C3A9
  8
SIZE
  6
CONTINUOUS
 62
    30
 10
79.89137
 20
-306.52696
 30
0.0
 40
6.0
  0
LINE
  5
C3AA
  8
SIZE
  6
CONTINUOUS
 62
    30
 10
79.89137
 20
-306.52696
 30
0.0
 11
91.89137
 21
-306.52696
 31
0.0
  0
TEXT
  5
C3AB
  8
SIZE
  6
CONTINUOUS
 62
    30
 10
-86.50863000000001
 20
-281.52696
 30
0.0
 40
64.0
  1
160
 41
0.9
 72
     1
 11
-0.10863
 21
-281.52696
 31
0.0
  0
POINT
  5
C3AC
  8
DEFPOINTS
  6
CONTINUOUS
 62
    30
 10
-80.10863
 20
-17.004074
 30
0.0
  0
POINT
  5
C3AD
  8
DEFPOINTS
  6
CONTINUOUS
 62
    30
 10
79.89137
 20
-17.004074
 30
0.0
  0
POINT
  5
C3AE
  8
DEFPOINTS
  6
CONTINUOUS
 62
    30
 10
79.89137
 20
-306.52696
 30
0.0
  0
LINE
  5
C3AF
  8
SIZE
  6
CONTINUOUS
 62
    30
 10
108.502078
 20
-100.000017
 30
0.0
 11
613.877105
 21
-100.000017
 31
0.0
  0
LINE
  5
C3B0
  8
SIZE
  6
CONTINUOUS
 62
    30
 10
108.502078
 20
79.99996300000001
 30
0.0
 11
613.877105
 21
79.99996300000001
 31
0.0
  0
LINE
  5
C3B1
  8
SIZE
  6
CONTINUOUS
 62
    30
 10
593.877105
 20
-112.000017
 30
0.0
 11
593.877105
 21
-124.000017
 31
0.0
  0
LINE
  5
C3B2
  8
SIZE
  6
CONTINUOUS
 62
    30
 10
593.877105
 20
91.99996300000001
 30
0.0
 11
593.877105
 21
103.999963
 31
0.0
  0
LINE
  5
C3B3
  8
SIZE
  6
CONTINUOUS
 62
    30
 10
593.877105
 20
-100.000017
 30
0.0
 11
593.877105
 21
79.99996300000001
 31
0.0
  0
CIRCLE
  5
C3B4
  8
SIZE
  6
CONTINUOUS
 62
    30
 10
593.877105
 20
-100.000017
 30
0.0
 40
6.0
  0
LINE
  5
C3B5
  8
SIZE
  6
CONTINUOUS
 62
    30
 10
593.877105
 20
-100.000017
 30
0.0
 11
593.877105
 21
-112.000017
 31
0.0
  0
CIRCLE
  5
C3B6
  8
SIZE
  6
CONTINUOUS
 62
    30
 10
593.877105
 20
79.99996300000001
 30
0.0
 40
6.0
  0
LINE
  5
C3B7
  8
SIZE
  6
CONTINUOUS
 62
    30
 10
593.877105
 20
79.99996300000001
 30
0.0
 11
593.877105
 21
91.99996300000001
 31
0.0
  0
TEXT
  5
C3B8
  8
SIZE
  6
CONTINUOUS
 62
    30
 10
568.877105
 20
-96.40002700000001
 30
0.0
 40
64.0
  1
180
 50
90.0
 41
0.9
 72
     1
 11
568.877105
 21
-10.000027
 31
0.0
  0
POINT
  5
C3B9
  8
DEFPOINTS
  6
CONTINUOUS
 62
    30
 10
88.502078
 20
-100.000017
 30
0.0
  0
POINT
  5
C3BA
  8
DEFPOINTS
  6
CONTINUOUS
 62
    30
 10
88.502078
 20
79.99996300000001
 30
0.0
  0
POINT
  5
C3BB
  8
DEFPOINTS
  6
CONTINUOUS
 62
    30
 10
593.877105
 20
79.99996300000001
 30
0.0
  0
LINE
  5
C3BC
  8
SIZE
  6
CONTINUOUS
 62
    30
 10
119.961598
 20
5.999999
 30
0.0
 11
318.269508
 21
5.999999
 31
0.0
  0
LINE
  5
C3BD
  8
SIZE
  6
CONTINUOUS
 62
    30
 10
143.753937
 20
0.000003
 30
0.0
 11
318.269508
 21
0.000003
 31
0.0
  0
LINE
  5
C3BE
  8
SIZE
  6
CONTINUOUS
 62
    30
 10
298.269508
 20
-11.999997
 30
0.0
 11
298.269508
 21
-23.999997
 31
0.0
  0
LINE
  5
C3BF
  8
SIZE
  6
CONTINUOUS
 62
    30
 10
298.269508
 20
17.999999
 30
0.0
 11
298.269508
 21
195.046743
 31
0.0
  0
LINE
  5
C3C0
  8
SIZE
  6
CONTINUOUS
 62
    30
 10
298.269508
 20
0.000003
 30
0.0
 11
298.269508
 21
5.999999
 31
0.0
  0
CIRCLE
  5
C3C1
  8
SIZE
  6
CONTINUOUS
 62
    30
 10
298.269508
 20
0.000003
 30
0.0
 40
6.0
  0
LINE
  5
C3C2
  8
SIZE
  6
CONTINUOUS
 62
    30
 10
298.269508
 20
0.000003
 30
0.0
 11
298.269508
 21
-11.999997
 31
0.0
  0
CIRCLE
  5
C3C3
  8
SIZE
  6
CONTINUOUS
 62
    30
 10
298.269508
 20
5.999999
 30
0.0
 40
6.0
  0
LINE
  5
C3C4
  8
SIZE
  6
CONTINUOUS
 62
    30
 10
298.269508
 20
5.999999
 30
0.0
 11
298.269508
 21
17.999999
 31
0.0
  0
TEXT
  5
C3C5
  8
SIZE
  6
CONTINUOUS
 62
    30
 10
273.269508
 20
123.418172
 30
0.0
 40
64.0
  1
6
 50
90.0
 41
0.9
 72
     1
 11
273.269508
 21
152.218172
 31
0.0
  0
POINT
  5
C3C6
  8
DEFPOINTS
  6
CONTINUOUS
 62
    30
 10
99.961598
 20
5.999999
 30
0.0
  0
POINT
  5
C3C7
  8
DEFPOINTS
  6
CONTINUOUS
 62
    30
 10
123.753937
 20
0.000003
 30
0.0
  0
POINT
  5
C3C8
  8
DEFPOINTS
  6
CONTINUOUS
 62
    30
 10
298.269508
 20
0.000003
 30
0.0
  0
LINE
  5
C3C9
  8
SIZE
  6
CONTINUOUS
 62
    30
 10
108.502078
 20
79.99997400000001
 30
0.0
 11
458.706502
 21
79.99997400000001
 31
0.0
  0
LINE
  5
C3CA
  8
SIZE
  6
CONTINUOUS
 62
    30
 10
143.753937
 20
0.000003
 30
0.0
 11
458.706502
 21
0.000003
 31
0.0
  0
LINE
  5
C3CB
  8
SIZE
  6
CONTINUOUS
 62
    30
 10
438.706502
 20
12.000003
 30
0.0
 11
438.706502
 21
67.99997400000001
 31
0.0
  0
LINE
  5
C3CC
  8
SIZE
  6
CONTINUOUS
 62
    30
 10
438.706502
 20
79.99997400000001
 30
0.0
 11
438.706502
 21
235.257117
 31
0.0
  0
CIRCLE
  5
C3CD
  8
SIZE
  6
CONTINUOUS
 62
    30
 10
438.706502
 20
0.000003
 30
0.0
 40
6.0
  0
LINE
  5
C3CE
  8
SIZE
  6
CONTINUOUS
 62
    30
 10
438.706502
 20
0.000003
 30
0.0
 11
438.706502
 21
12.000003
 31
0.0
  0
CIRCLE
  5
C3CF
  8
SIZE
  6
CONTINUOUS
 62
    30
 10
438.706502
 20
79.99997400000001
 30
0.0
 40
6.0
  0
LINE
  5
C3D0
  8
SIZE
  6
CONTINUOUS
 62
    30
 10
438.706502
 20
79.99997400000001
 30
0.0
 11
438.706502
 21
67.99997400000001
 31
0.0
  0
TEXT
  5
C3D1
  8
SIZE
  6
CONTINUOUS
 62
    30
 10
413.706502
 20
108.7714031428571
 30
0.0
 40
64.0
  1
80
 50
90.0
 41
0.9
 72
     1
 11
413.706502
 21
163.628546
 31
0.0
  0
POINT
  5
C3D2
  8
DEFPOINTS
  6
CONTINUOUS
 62
    30
 10
88.502078
 20
79.99997400000001
 30
0.0
  0
POINT
  5
C3D3
  8
DEFPOINTS
  6
CONTINUOUS
 62
    30
 10
123.753937
 20
0.000003
 30
0.0
  0
POINT
  5
C3D4
  8
DEFPOINTS
  6
CONTINUOUS
 62
    30
 10
438.706502
 20
0.000003
 30
0.0
  0
CIRCLE
  5
C3D5
  8
DETAIL
  6
CONTINUOUS
 62
     5
 39
50.0
 10
0.0
 20
0.0
 30
0.0
 40
23.0
  0
CIRCLE
  5
C3D6
  8
DETAIL
  6
CONTINUOUS
 62
     5
 39
50.0
 10
0.0
 20
0.0
 30
0.0
 40
47.5
  0
LINE
  5
C3D7
  8
SIZE
  6
CONTINUOUS
 62
    30
 10
131.486181
 20
259.456035
 30
0.0
 11
26.896537
 21
53.073782
 31
0.0
  0
LINE
  5
C3D8
  8
SIZE
  6
CONTINUOUS
 62
    30
 10
-26.896537
 20
-53.07378199999999
 30
0.0
 11
-32.321049
 21
-63.777738
 31
0.0
  0
TEXT
  5
C3D9
  8
SIZE
  6
CONTINUOUS
 62
    30
 10
29.07136183339811
 20
112.6698691395591
 30
0.0
 40
64.0
  1
φ95
 50
63.12516000000001
 41
0.9
 72
     1
 11
65.028158
 21
183.621789
 31
0.0
  0
LINE
  5
C3DA
  8
SIZE
  6
CONTINUOUS
 62
    30
 10
-21.472025
 20
-42.369826
 30
0.0
 11
21.472025
 21
42.369826
 31
0.0
  0
CIRCLE
  5
C3DB
  8
SIZE
  6
CONTINUOUS
 62
    30
 10
-21.472025
 20
-42.369826
 30
0.0
 40
6.0
  0
LINE
  5
C3DC
  8
SIZE
  6
CONTINUOUS
 62
    30
 10
-21.472025
 20
-42.369826
 30
0.0
 11
-26.896537
 21
-53.07378199999999
 31
0.0
  0
CIRCLE
  5
C3DD
  8
SIZE
  6
CONTINUOUS
 62
    30
 10
21.472025
 20
42.369826
 30
0.0
 40
6.0
  0
LINE
  5
C3DE
  8
SIZE
  6
CONTINUOUS
 62
    30
 10
21.472025
 20
42.369826
 30
0.0
 11
26.896537
 21
53.073782
 31
0.0
  0
POINT
  5
C3DF
  8
DEFPOINTS
  6
CONTINUOUS
 62
    30
 10
21.472025
 20
42.369826
 30
0.0
  0
POINT
  5
C3E0
  8
DEFPOINTS
  6
CONTINUOUS
 62
    30
 10
-21.472025
 20
-42.369826
 30
0.0
  0
LINE
  5
C3E1
  8
SIZE
  6
CONTINUOUS
 62
    30
 10
225.876826
 20
-296.752838
 30
0.0
 11
21.198413
 21
-27.850086
 31
0.0
  0
LINE
  5
C3E2
  8
SIZE
  6
CONTINUOUS
 62
    30
 10
-21.198413
 20
27.850086
 30
0.0
 11
-28.46644
 21
37.398687
 31
0.0
  0
TEXT
  5
C3E3
  8
SIZE
  6
CONTINUOUS
 62
    30
 10
139.2585423965375
 20
-141.6786331765931
 30
0.0
 40
64.0
  1
φ46
 50
307.2769870000001
 41
0.8999999999999999
 72
     1
 11
187.435173
 21
-204.972222
 31
0.0
  0
LINE
  5
C3E4
  8
SIZE
  6
CONTINUOUS
 62
    30
 10
-13.930385
 20
18.301485
 30
0.0
 11
13.930385
 21
-18.301485
 31
0.0
  0
CIRCLE
  5
C3E5
  8
SIZE
  6
CONTINUOUS
 62
    30
 10
-13.930385
 20
18.301485
 30
0.0
 40
6.0
  0
LINE
  5
C3E6
  8
SIZE
  6
CONTINUOUS
 62
    30
 10
-13.930385
 20
18.301485
 30
0.0
 11
-21.198412
 21
27.850086
 31
0.0
  0
CIRCLE
  5
C3E7
  8
SIZE
  6
CONTINUOUS
 62
    30
 10
13.930385
 20
-18.301485
 30
0.0
 40
6.0
  0
LINE
  5
C3E8
  8
SIZE
  6
CONTINUOUS
 62
    30
 10
13.930385
 20
-18.301485
 30
0.0
 11
21.198412
 21
-27.850086
 31
0.0
  0
POINT
  5
C3E9
  8
DEFPOINTS
  6
CONTINUOUS
 62
    30
 10
13.930385
 20
-18.301485
 30
0.0
  0
POINT
  5
C3EA
  8
DEFPOINTS
  6
CONTINUOUS
 62
    30
 10
-13.930385
 20
18.301485
 30
0.0
  0
LINE
  5
C3EB
  8
OUTLINE
  6
CONTINUOUS
 62
     3
 10
-6.573367
 20
-99.865192
 30
0.0
 11
-6.782136
 21
-99.86579499999999
 31
0.0
  0
LINE
  5
C3EC
  8
OUTLINE
  6
CONTINUOUS
 62
     3
 10
-10.549617
 20
-99.901301
 30
0.0
 11
-10.543731
 21
-99.89805199999999
 31
0.0
  0
LINE
  5
C3ED
  8
OUTLINE
  6
CONTINUOUS
 62
     3
 10
-10.652915
 20
-99.944046
 30
0.0
 11
-10.549617
 21
-99.901301
 31
0.0
  0
LINE
  5
C3EE
  8
OUTLINE
  6
CONTINUOUS
 62
     3
 10
-10.760314
 20
-99.974971
 30
0.0
 11
-10.652915
 21
-99.944046
 31
0.0
  0
LINE
  5
C3EF
  8
OUTLINE
  6
CONTINUOUS
 62
     3
 10
-10.87067
 20
-99.99372199999999
 30
0.0
 11
-10.760314
 21
-99.974971
 31
0.0
  0
LINE
  5
C3F0
  8
OUTLINE
  6
CONTINUOUS
 62
     3
 10
-10.98254
 20
-100.000005
 30
0.0
 11
-10.87067
 21
-99.99372199999999
 31
0.0
  0
LINE
  5
C3F1
  8
OUTLINE
  6
CONTINUOUS
 62
     3
 10
-10.513362
 20
-99.897303
 30
0.0
 11
-10.611351
 21
-99.89987099999999
 31
0.0
  0
LINE
  5
C3F2
  8
OUTLINE
  6
CONTINUOUS
 62
     3
 10
-10.359914
 20
-99.89399
 30
0.0
 11
-10.513362
 21
-99.897303
 31
0.0
  0
LINE
  5
C3F3
  8
OUTLINE
  6
CONTINUOUS
 62
     3
 10
-10.086182
 20
-99.88929
 30
0.0
 11
-10.359914
 21
-99.89399
 31
0.0
  0
LINE
  5
C3F4
  8
OUTLINE
  6
CONTINUOUS
 62
     3
 10
-9.574843
 20
-99.882739
 30
0.0
 11
-10.086182
 21
-99.88929
 31
0.0
  0
LINE
  5
C3F5
  8
OUTLINE
  6
CONTINUOUS
 62
     3
 10
-8.45795
 20
-99.873362
 30
0.0
 11
-9.574843
 21
-99.882739
 31
0.0
  0
LINE
  5
C3F6
  8
OUTLINE
  6
CONTINUOUS
 62
     3
 10
-6.782136
 20
-99.86579499999999
 30
0.0
 11
-8.45795
 21
-99.873362
 31
0.0
  0
TEXT
  5
C3F7
  8
ETC
  6
CONTINUOUS
 62
    61
 10
434.814795
 20
328.561995
 30
0.0
 40
40.0
  1
V-08PED5-BE
 41
0.9
  0
ARC
  5
C3F8
  8
DETAIL
  6
CONTINUOUS
 62
     5
 10
0.00584
 20
0.026846
 30
0.0
 40
42.291004
 50
64.35003
 51
134.04929
  0
ARC
  5
C3F9
  8
DETAIL
  6
CONTINUOUS
 62
     5
 10
-14.017725
 20
26.266487
 30
0.0
 40
34.44509
 50
0.0
 51
20.18224600000001
  0
ARC
  5
C3FA
  8
DETAIL
  6
CONTINUOUS
 62
     5
 10
29.779864
 20
-1.034338
 30
0.0
 40
34.44509
 50
239.9999999999999
 51
260.182246
  0
ARC
  5
C3FB
  8
DETAIL
  6
CONTINUOUS
 62
     5
 10
-4.563156
 20
23.741971
 30
0.0
 40
24.516611
 50
337.225101
 51
338.040912
  0
ARC
  5
C3FC
  8
DETAIL
  6
CONTINUOUS
 62
     5
 10
0.043885
 20
-0.059281
 30
0.0
 40
42.291004
 50
304.35003
 51
14.04929000000001
  0
ARC
  5
C3FD
  8
DETAIL
  6
CONTINUOUS
 62
     5
 10
10.445712
 20
21.287969
 30
0.0
 40
27.011488
 50
297.316013
 51
319.502107
  0
ARC
  5
C3FE
  8
DETAIL
  6
CONTINUOUS
 62
     5
 10
-8.789507
 20
25.81951
 30
0.0
 40
29.220291
 50
336.675697
 51
0.8764759999997447
  0
ARC
  5
C3FF
  8
DETAIL
  6
CONTINUOUS
 62
     5
 10
38.193117
 20
9.085847
 30
0.0
 40
3.087536
 50
21.294782
 51
160.473427
  0
ARC
  5
C400
  8
DETAIL
  6
CONTINUOUS
 62
     5
 10
5.357334
 20
25.665197
 30
0.0
 40
33.723511
 50
319.131923
 51
333.87324
  0
ARC
  5
C401
  8
DETAIL
  6
CONTINUOUS
 62
     5
 10
26.778661
 20
-5.338619
 30
0.0
 40
29.220291
 50
216.6269349999999
 51
240.876476
  0
ARC
  5
C402
  8
DETAIL
  6
CONTINUOUS
 62
     5
 10
-0.049726
 20
-0.049165
 30
0.0
 40
42.291004
 50
184.35003
 51
254.04929
  0
ARC
  5
C403
  8
DETAIL
  6
CONTINUOUS
 62
     5
 10
19.571601
 20
-17.512985
 30
0.0
 40
33.723511
 50
199.1319229999999
 51
213.87324
  0
ARC
  5
C404
  8
DETAIL
  6
CONTINUOUS
 62
     5
 10
-11.204428
 20
-37.659933
 30
0.0
 40
3.087536
 50
261.294782
 51
40.47342700000003
  0
ARC
  5
C405
  8
DETAIL
  6
CONTINUOUS
 62
     5
 10
-15.762139
 20
-25.313749
 30
0.0
 40
34.44509
 50
120.0
 51
140.182246
  0
ARC
  5
C406
  8
DETAIL
  6
CONTINUOUS
 62
     5
 10
22.866284
 20
-7.959977
 30
0.0
 40
24.516611
 50
217.166682
 51
218.040912
  0
ARC
  5
C407
  8
DETAIL
  6
CONTINUOUS
 62
     5
 10
13.236622
 20
-19.731037
 30
0.0
 40
27.011488
 50
177.292184
 51
199.502107
  0
ARC
  5
C408
  8
DETAIL
  6
CONTINUOUS
 62
     5
 10
-23.682334
 20
-1.638533
 30
0.0
 40
27.011488
 50
57.352047
 51
79.502107
  0
ARC
  5
C409
  8
DETAIL
  6
CONTINUOUS
 62
     5
 10
-18.303128
 20
-15.863595
 30
0.0
 40
24.516611
 50
97.21596399999999
 51
98.04091200000002
  0
ARC
  5
C40A
  8
DETAIL
  6
CONTINUOUS
 62
     5
 10
-17.989155
 20
-20.562491
 30
0.0
 40
29.220291
 50
96.668074
 51
120.876476
  0
ARC
  5
C40B
  8
DETAIL
  6
CONTINUOUS
 62
     5
 10
-26.988689
 20
28.492486
 30
0.0
 40
3.087536
 50
141.294782
 51
280.473427
  0
ARC
  5
C40C
  8
DETAIL
  6
CONTINUOUS
 62
     5
 10
-24.928935
 20
-8.233811000000001
 30
0.0
 40
33.723511
 50
79.131923
 51
93.87324000000001
  0
POINT
  5
C40D
  8
ARRANGE
  6
CONTINUOUS
 62
     1
 39
50.0
 10
0.0
 20
-0.0136
 30
0.0
  0
ENDSEC
  0
EOF
