  0
SECTION
  2
HEADER
  9
$ACADVER
  1
AC1009
  9
$INSBASE
 10
0.0
 20
0.0
 30
0.0
  9
$EXTMIN
 10
-740.47135099999969
 20
-417.03967699999993
 30
0.0
  9
$EXTMAX
 10
841.82140428571461
 20
683.00301599999989
 30
50.0
  9
$LIMMIN
 10
-2970.0
 20
-2100.0
  9
$LIMMAX
 10
2970.0
 20
2100.0
  9
$ORTHOMODE
 70
     1
  9
$REGENMODE
 70
     1
  9
$FILLMODE
 70
     1
  9
$QTEXTMODE
 70
     0
  9
$MIRRTEXT
 70
     0
  9
$DRAGMODE
 70
     2
  9
$LTSCALE
 40
5.0
  9
$OSMODE
 70
   164
  9
$ATTMODE
 70
     1
  9
$TEXTSIZE
 40
64.0
  9
$TRACEWID
 40
0.05
  9
$TEXTSTYLE
  7
STANDARD
  9
$CLAYER
  8
SIZE
  9
$CELTYPE
  6
CONTINUOUS
  9
$CECOLOR
 62
     7
  9
$DIMSCALE
 40
1.0
  9
$DIMASZ
 40
12.0
  9
$DIMEXO
 40
20.0
  9
$DIMDLI
 40
200.0
  9
$DIMRND
 40
0.0
  9
$DIMDLE
 40
0.0
  9
$DIMEXE
 40
20.0
  9
$DIMTP
 40
0.0
  9
$DIMTM
 40
0.0
  9
$DIMTXT
 40
64.0
  9
$DIMCEN
 40
0.09
  9
$DIMTSZ
 40
0.0
  9
$DIMTOL
 70
     0
  9
$DIMLIM
 70
     0
  9
$DIMTIH
 70
     0
  9
$DIMTOH
 70
     0
  9
$DIMSE1
 70
     0
  9
$DIMSE2
 70
     0
  9
$DIMTAD
 70
     1
  9
$DIMZIN
 70
     8
  9
$DIMBLK
  1
DOT1
  9
$DIMASO
 70
     1
  9
$DIMSHO
 70
     1
  9
$DIMPOST
  1

  9
$DIMAPOST
  1

  9
$DIMALT
 70
     0
  9
$DIMALTD
 70
     2
  9
$DIMALTF
 40
25.399999999999999
  9
$DIMLFAC
 40
1.0
  9
$DIMTOFL
 70
     1
  9
$DIMTVP
 40
0.0
  9
$DIMTIX
 70
     1
  9
$DIMSOXD
 70
     0
  9
$DIMSAH
 70
     1
  9
$DIMBLK1
  1
ORIGIN
  9
$DIMBLK2
  1
ORIGIN
  9
$DIMSTYLE
  2
STANDARD
  9
$DIMCLRD
 70
     7
  9
$DIMCLRE
 70
     7
  9
$DIMCLRT
 70
     7
  9
$DIMTFAC
 40
1.0
  9
$DIMGAP
 40
25.0
  9
$LUNITS
 70
     2
  9
$LUPREC
 70
     4
  9
$SKETCHINC
 40
0.1
  9
$FILLETRAD
 40
3.0
  9
$AUNITS
 70
     1
  9
$AUPREC
 70
     3
  9
$MENU
  1
ACAD
  9
$ELEVATION
 40
0.0
  9
$PELEVATION
 40
0.0
  9
$THICKNESS
 40
50.0
  9
$LIMCHECK
 70
     0
  9
$BLIPMODE
 70
     0
  9
$CHAMFERA
 40
0.0
  9
$CHAMFERB
 40
0.0
  9
$SKPOLY
 70
     0
  9
$TDCREATE
 40
2453019.6230103699
  9
$TDUPDATE
 40
2454565.4961834489
  9
$TDINDWG
 40
1.038070625
  9
$TDUSRTIMER
 40
1.0380704514000001
  9
$USRTIMER
 70
     1
  9
$ANGBASE
 50
0.0
  9
$ANGDIR
 70
     0
  9
$PDMODE
 70
     3
  9
$PDSIZE
 40
-2.0
  9
$PLINEWID
 40
0.0
  9
$COORDS
 70
     2
  9
$SPLFRAME
 70
     0
  9
$SPLINETYPE
 70
     6
  9
$SPLINESEGS
 70
     8
  9
$ATTDIA
 70
     0
  9
$ATTREQ
 70
     1
  9
$HANDLING
 70
 22529
  9
$HANDSEED
  5
1AF3
  9
$SURFTAB1
 70
     6
  9
$SURFTAB2
 70
     6
  9
$SURFTYPE
 70
     6
  9
$SURFU
 70
     6
  9
$SURFV
 70
     6
  9
$UCSNAME
  2

  9
$UCSORG
 10
0.0
 20
0.0
 30
0.0
  9
$UCSXDIR
 10
1.0
 20
0.0
 30
0.0
  9
$UCSYDIR
 10
0.0
 20
1.0
 30
0.0
  9
$PUCSNAME
  2

  9
$PUCSORG
 10
0.0
 20
0.0
 30
0.0
  9
$PUCSXDIR
 10
1.0
 20
0.0
 30
0.0
  9
$PUCSYDIR
 10
0.0
 20
1.0
 30
0.0
  9
$USERI1
 70
     0
  9
$USERI2
 70
     0
  9
$USERI3
 70
     0
  9
$USERI4
 70
     0
  9
$USERI5
 70
     0
  9
$USERR1
 40
20.0
  9
$USERR2
 40
0.0
  9
$USERR3
 40
0.0
  9
$USERR4
 40
0.0
  9
$USERR5
 40
0.0
  9
$WORLDVIEW
 70
     1
  9
$SHADEDGE
 70
     3
  9
$SHADEDIF
 70
    70
  9
$TILEMODE
 70
     1
  9
$MAXACTVP
 70
    48
  9
$PLIMCHECK
 70
     0
  9
$PEXTMIN
 10
-1.0000000000000000E+020
 20
-1.0000000000000000E+020
 30
-1.0000000000000000E+020
  9
$PEXTMAX
 10
1.0000000000000000E+020
 20
1.0000000000000000E+020
 30
1.0000000000000000E+020
  9
$PLIMMIN
 10
0.0
 20
0.0
  9
$PLIMMAX
 10
12.0
 20
9.0
  9
$UNITMODE
 70
     0
  9
$VISRETAIN
 70
     0
  9
$PLINEGEN
 70
     0
  9
$PSLTSCALE
 70
     0
  0
ENDSEC
  0
SECTION
  2
TABLES
  0
TABLE
  2
VPORT
 70
     3
  0
VPORT
  2
*ACTIVE
 70
     0
 10
0.0
 20
0.0
 11
1.0
 21
1.0
 12
36.254897000000817
 22
132.98238871190071
 13
0.0
 23
0.0
 14
1.0
 24
1.0
 15
0.0
 25
0.0
 16
0.0
 26
0.0
 36
1.0
 17
0.0
 27
0.0
 37
0.0
 40
1169.460308738117
 41
1.670382165605095
 42
50.0
 43
0.0
 44
0.0
 50
0.0
 51
0.0
 71
     0
 72
  1000
 73
     1
 74
     0
 75
     0
 76
     0
 77
     0
 78
     0
  0
ENDTAB
  0
TABLE
  2
LTYPE
 70
     4
  0
LTYPE
  2
CONTINUOUS
 70
     0
  3
実線
 72
    65
 73
     0
 40
0.0
  0
LTYPE
  2
DASHDOT
 70
     0
  3
____ _ ____ _ ____ _ ____ _ ____ _ ____ _ ____
 72
    65
 73
     4
 40
5.5
 49
4.0
 49
-0.6
 49
0.3
 49
-0.6
  0
LTYPE
  2
DASHED
 70
     0
  3
-- -- -- -- -- -- -- -- -- -- -- -- -- -- --
 72
    65
 73
     2
 40
0.75
 49
0.5
 49
-0.25
  0
LTYPE
  2
DIVIDE
 70
     0
  3
__ . . __ . . __ . . __ . . __ . . __ . . __
 72
    65
 73
     6
 40
1.25
 49
0.5
 49
-0.25
 49
0.0
 49
-0.25
 49
0.0
 49
-0.25
  0
ENDTAB
  0
TABLE
  2
LAYER
 70
    12
  0
LAYER
  2
0
 70
     0
 62
     7
  6
CONTINUOUS
  0
LAYER
  2
SIZE
 70
     0
 62
    30
  6
CONTINUOUS
  0
LAYER
  2
BASIS
 70
     0
 62
     6
  6
DASHDOT
  0
LAYER
  2
OUTLINE
 70
     0
 62
     3
  6
CONTINUOUS
  0
LAYER
  2
DETAIL
 70
     0
 62
     5
  6
CONTINUOUS
  0
LAYER
  2
ARRANGE
 70
     0
 62
     1
  6
CONTINUOUS
  0
LAYER
  2
DEFPOINTS
 70
     0
 62
     7
  6
CONTINUOUS
  0
LAYER
  2
ETC
 70
     0
 62
    61
  6
CONTINUOUS
  0
LAYER
  2
NOTE
 70
     0
 62
     4
  6
CONTINUOUS
  0
LAYER
  2
FIX
 70
     0
 62
    11
  6
CONTINUOUS
  0
LAYER
  2
SERVICESPACE
 70
     0
 62
     2
  6
DASHDOT
  0
LAYER
  2
SYMBOLLINE
 70
     0
 62
    15
  6
CONTINUOUS
  0
ENDTAB
  0
TABLE
  2
STYLE
 70
     1
  0
STYLE
  2
STANDARD
 70
     0
 40
64.0
 41
0.9
 50
0.0
 71
     0
 42
64.0
  3
SIMPLEX.shx
  4
BIGFONT.shx
  0
ENDTAB
  0
TABLE
  2
VIEW
 70
     1
  0
VIEW
  2
ALL
 70
     0
 40
4282.6198079999967
 10
0.0
 20
41.309903999999989
 41
5940.0
 11
0.0
 21
0.0
 31
1.0
 12
0.0
 22
0.0
 32
0.0
 42
50.0
 43
0.0
 44
0.0
 50
0.0
 71
     0
  0
ENDTAB
  0
TABLE
  2
UCS
 70
     0
  0
ENDTAB
  0
TABLE
  2
APPID
 70
    15
  0
APPID
  2
ACAD
 70
     0
  0
APPID
  2
AUTOCAD_POSTSCRIPT_FIGURE
 70
     0
  0
APPID
  2
ACAD_EXEMPT_FROM_CAD_STANDARDS
 70
     0
  0
APPID
  2
ACAD_PSEXT
 70
     0
  0
APPID
  2
ACAUTHENVIRON
 70
     0
  0
APPID
  2
GENIUS_GENOENT_13
 70
     0
  0
APPID
  2
GENIUS_GENCFG_13
 70
     0
  0
APPID
  2
GENIUS_GENCFG0_13
 70
     0
  0
APPID
  2
GENIUS_GENCFG1_13
 70
     0
  0
APPID
  2
GENIUS_GENCFG2_13
 70
     0
  0
APPID
  2
GENIUS_GENCFG3_13
 70
     0
  0
APPID
  2
GENIUS_GENCFG4_13
 70
     0
  0
APPID
  2
GENIUS_GEVCFG0_13
 70
     0
  0
APPID
  2
CONTENTBLOCKDESCRIPTION
 70
     0
  0
APPID
  2
CONTENTBLOCKICON
 70
     0
  0
ENDTAB
  0
TABLE
  2
DIMSTYLE
 70
     1
  0
DIMSTYLE
  2
STANDARD
 70
     0
  3

  4

  5

  6

  7

 40
1.0
 41
0.18
 42
0.0625
 43
0.38
 44
0.18
 45
0.0
 46
0.0
 47
0.0
 48
0.0
140
0.18
141
0.09
142
0.0
143
25.399999999999999
144
1.0
145
0.0
146
1.0
147
0.09
 71
     0
 72
     0
 73
     1
 74
     1
 75
     0
 76
     0
 77
     0
 78
     0
170
     0
171
     2
172
     0
173
     0
174
     0
175
     0
176
     7
177
     7
178
     7
  0
ENDTAB
  0
ENDSEC
  0
SECTION
  2
BLOCKS
  0
BLOCK
  8
0
  2
$MODEL_SPACE
 70
     0
 10
0.0
 20
0.0
 30
0.0
  3
$MODEL_SPACE
  1

  0
ENDBLK
  5
145A
  8
0
  0
BLOCK
 67
     1
  8
0
  2
$PAPER_SPACE
 70
     0
 10
0.0
 20
0.0
 30
0.0
  3
$PAPER_SPACE
  1

  0
ENDBLK
  5
1456
 67
     1
  8
0
  0
BLOCK
  8
0
  2
DOT1
 70
     0
 10
0.0
 20
0.0
 30
0.0
  3
DOT1
  1

  0
CIRCLE
  5
1485
  8
SIZE
  6
CONTINUOUS
 62
     7
 10
0.0
 20
0.0
 30
0.0
 40
3.0
  0
ENDBLK
  5
1486
  8
0
  0
BLOCK
  8
0
  2
_ORIGIN
 70
     0
 10
0.0
 20
0.0
 30
0.0
  3
_ORIGIN
  1

  0
CIRCLE
  5
1489
  8
0
  6
CONTINUOUS
 62
     7
 10
0.0
 20
0.0
 30
0.0
 40
0.5
  0
LINE
  5
148A
  8
0
  6
CONTINUOUS
 62
     7
 10
0.0
 20
0.0
 30
0.0
 11
-1.0
 21
0.0
 31
0.0
  0
ENDBLK
  5
148B
  8
0
  0
ENDSEC
  0
SECTION
  2
ENTITIES
  0
TEXT
  5
148C
  8
ETC
  6
CONTINUOUS
 62
    61
 10
423.53568999999999
 20
643.003016
 30
0.0
 40
40.0
  1
V-08PEHLD5_5
 41
0.9
  0
TEXT
  5
148D
  8
ETC
  6
CONTINUOUS
 62
    61
 10
418.109846
 20
582.93290000000002
 30
0.0
 40
40.0
  1
換気扇
 41
0.9
  0
TEXT
  5
148E
  8
ETC
  6
CONTINUOUS
 62
    61
 10
473.53165899999999
 20
516.38836200000003
 30
0.0
 40
40.0
  1
V-08PEHLD5
 41
0.9
  0
LINE
  5
148F
  8
BASIS
  6
DASHDOT
 62
     6
 39
50.0
 10
90.0
 20
0.0
 30
0.0
 11
-90.0
 21
0.0
 31
0.0
  0
LINE
  5
1490
  8
BASIS
  6
DASHDOT
 62
     6
 39
50.0
 10
0.0
 20
105.519175
 30
0.0
 11
0.0
 21
-125.2089009999999
 31
0.0
  0
TEXT
  5
1491
  8
NOTE
  6
CONTINUOUS
 62
     4
 10
-563.45743900000002
 20
344.13607400000001
 30
0.0
 40
64.0
  1
2-4×10
 41
0.9
  0
LINE
  5
1492
  8
NOTE
  6
CONTINUOUS
 62
     4
 10
-12.20867
 20
41.091315999999999
 30
0.0
 11
0.0
 21
3.0
 31
0.0
  0
LINE
  5
1493
  8
NOTE
  6
CONTINUOUS
 62
     4
 10
0.0
 20
3.0
 30
0.0
 11
-29.618677000000002
 21
29.883711999999989
 31
0.0
  0
LINE
  5
1494
  8
NOTE
  6
CONTINUOUS
 62
     4
 39
50.0
 10
0.0
 20
3.0
 30
0.0
 11
-206.2897669999999
 21
317.52058599999992
 31
0.0
  0
CIRCLE
  5
1495
  8
ARRANGE
  6
CONTINUOUS
 62
     1
 39
25.0
 10
0.0
 20
0.0
 30
0.0
 40
20.0
  0
POINT
  5
1496
  8
ARRANGE
  6
CONTINUOUS
 62
     1
 10
0.0
 20
0.0
 30
0.0
 39
50.0
  0
ARC
  5
1497
  8
DETAIL
  6
DIVIDE
 62
     5
 10
-576.93259
 20
223.35115999999991
 30
0.0
 40
689.23472100000004
 50
334.94559900000002
 51
347.12078500000001
  0
ARC
  5
1498
  8
DETAIL
  6
DIVIDE
 62
     5
 10
-620.05282499999964
 20
240.171954
 30
0.0
 40
725.79263699999979
 50
335.68619299999989
 51
346.78855800000002
  0
LINE
  5
1499
  8
DETAIL
  6
CONTINUOUS
 62
     5
 10
-44.982621999999999
 20
37.573021999999959
 30
0.0
 11
-36.268765999999999
 21
33.032121999999987
 31
0.0
  0
LINE
  5
149A
  8
DETAIL
  6
CONTINUOUS
 62
     5
 10
-44.076423999999989
 20
36.092779
 30
0.0
 11
-36.268765999999999
 21
32.011565999999988
 31
0.0
  0
LINE
  5
149B
  8
DETAIL
  6
CONTINUOUS
 62
     5
 10
-43.483736999999977
 20
37.297888999999991
 30
0.0
 11
-36.26545999999999
 21
33.598776999999998
 31
0.0
  0
LINE
  5
149C
  8
DETAIL
  6
CONTINUOUS
 62
     5
 10
-44.982621999999999
 20
37.020959999999988
 30
0.0
 11
-36.268765999999999
 21
32.579861000000001
 31
0.0
  0
LINE
  5
149D
  8
DETAIL
  6
CONTINUOUS
 62
     5
 10
-35.751387999999992
 20
46.250473999999983
 30
0.0
 11
-35.751387999999992
 21
21.389702999999962
 31
0.0
  0
LINE
  5
149E
  8
DETAIL
  6
CONTINUOUS
 62
     5
 10
-31.27929099999999
 20
34.259701
 30
0.0
 11
-32.119849000000002
 21
34.333917
 31
0.0
  0
ARC
  5
149F
  8
DETAIL
  6
DASHED
 62
     5
 10
148.80522500000001
 20
32.584053999999988
 30
0.0
 40
163.3302789999999
 50
178.5973469999999
 51
187.0693039999999
  0
ARC
  5
14A0
  8
DETAIL
  6
DASHED
 62
     5
 10
-1.435929999999999
 20
17.959441000000002
 30
0.0
 40
25.818574999999989
 50
28.959900999999999
 51
57.134923000000008
  0
LINE
  5
14A1
  8
DETAIL
  6
CONTINUOUS
 62
     5
 10
38.008284000000003
 20
42.579636000000001
 30
0.0
 11
38.611508999999998
 21
33.992649
 31
0.0
  0
LINE
  5
14A2
  8
DETAIL
  6
CONTINUOUS
 62
     5
 10
42.816746000000002
 20
25.826671999999991
 30
0.0
 11
42.301271999999997
 21
34.603825000000001
 31
0.0
  0
ARC
  5
14A3
  8
DETAIL
  6
CONTINUOUS
 62
     5
 10
-639.06307400000003
 20
-10.000021
 30
0.0
 40
689.06306600000016
 50
355.18767400000002
 51
7.3643770000000002
  0
LINE
  5
14A4
  8
DETAIL
  6
CONTINUOUS
 62
     5
 10
0.0
 20
79.700381999999976
 30
0.0
 11
0.0
 21
-99.700423999999998
 31
0.0
  0
LINE
  5
14A5
  8
DETAIL
  6
CONTINUOUS
 62
     5
 10
38.599800000000002
 20
-93.463301000000016
 30
0.0
 11
37.89602399999999
 21
-99.046307999999996
 31
0.0
  0
LINE
  5
14A6
  8
DETAIL
  6
CONTINUOUS
 62
     5
 10
43.719954000000001
 20
-96.608067000000005
 30
0.0
 11
37.711452000000001
 21
-99.529089999999997
 31
0.0
  0
ARC
  5
14A7
  8
DETAIL
  6
CONTINUOUS
 62
     5
 10
-648.34333099999958
 20
-10.000021
 30
0.0
 40
689.06306600000016
 50
352.52026999999993
 51
354.99478699999997
  0
LINE
  5
14A8
  8
DETAIL
  6
CONTINUOUS
 62
     5
 10
34.856479999999991
 20
-99.699109000000021
 30
0.0
 11
0.302207
 21
-100.000005
 31
0.0
  0
LINE
  5
14A9
  8
DETAIL
  6
CONTINUOUS
 62
     5
 10
37.069584999999982
 20
-99.679795999999996
 30
0.0
 11
34.856479999999991
 21
-99.699109000000021
 31
0.0
  0
ARC
  5
14AA
  8
DETAIL
  6
CONTINUOUS
 62
     5
 10
37.056513000000002
 20
-98.181889999999996
 30
0.0
 40
1.497962999999999
 50
270.5
 51
295.92662300000001
  0
ARC
  5
14AB
  8
DETAIL
  6
CONTINUOUS
 62
     5
 10
0.299593
 20
-99.700411000000017
 30
0.0
 40
0.299593
 50
180.00246999999999
 51
270.499978
  0
LINE
  5
14AC
  8
DETAIL
  6
CONTINUOUS
 62
     5
 10
0.303219
 20
-99.747906999999984
 30
0.0
 11
0.302666
 21
-99.971330000000023
 31
0.0
  0
LINE
  5
14AD
  8
DETAIL
  6
CONTINUOUS
 62
     5
 10
0.302446
 20
-99.992821000000021
 30
0.0
 11
0.302207
 21
-100.000005
 31
0.0
  0
LINE
  5
14AE
  8
DETAIL
  6
CONTINUOUS
 62
     5
 10
0.302666
 20
-99.971330000000023
 30
0.0
 11
0.302446
 21
-99.992821000000021
 31
0.0
  0
ARC
  5
14AF
  8
DETAIL
  6
DASHED
 62
     5
 10
-161.81544600000001
 20
-117.9515649999999
 30
0.0
 40
200.243223
 50
23.857572999999999
 51
35.618009999999991
  0
ARC
  5
14B0
  8
DETAIL
  6
DASHED
 62
     5
 10
195.453498
 20
137.02491499999999
 30
0.0
 40
249.387112
 50
219.400418
 51
224.63111499999999
  0
ARC
  5
14B1
  8
DETAIL
  6
DASHED
 62
     5
 10
1.1983709999999981
 20
0.0
 30
0.0
 40
14.979632000000001
 50
309.40056900000002
 51
50.599430999999989
  0
ARC
  5
14B2
  8
DETAIL
  6
DASHED
 62
     5
 10
82.789393000000004
 20
-47.43587999999999
 30
0.0
 40
99.183897999999985
 50
135.08516999999961
 51
141.60738899999981
  0
LINE
  5
14B3
  8
DETAIL
  6
CONTINUOUS
 62
     5
 10
39.825431999999999
 20
-26.259810999999999
 30
0.0
 11
39.56853499999999
 21
-34.864317
 31
0.0
  0
LINE
  5
14B4
  8
DETAIL
  6
CONTINUOUS
 62
     5
 10
43.271509999999992
 20
-35.696429999999999
 30
0.0
 11
43.544558000000002
 21
-26.908636000000001
 31
0.0
  0
LINE
  5
14B5
  8
DETAIL
  6
DIVIDE
 62
     5
 10
41.364967
 20
-58.661537000000003
 30
0.0
 11
44.168152999999982
 21
-64.401358999999999
 31
0.0
  0
LINE
  5
14B6
  8
DETAIL
  6
CONTINUOUS
 62
     5
 10
41.776989
 20
-62.028664999999982
 30
0.0
 11
47.555503000000002
 21
-67.807181
 31
0.0
  0
LINE
  5
14B7
  8
DETAIL
  6
CONTINUOUS
 62
     5
 10
38.165968999999997
 20
-60.523212000000001
 30
0.0
 11
47.410184000000001
 21
-69.767426999999984
 31
0.0
  0
LINE
  5
14B8
  8
DETAIL
  6
CONTINUOUS
 62
     5
 10
41.551233999999987
 20
-63.908478000000002
 30
0.0
 11
41.425185999999982
 21
-65.481651999999997
 31
0.0
  0
LINE
  5
14B9
  8
DETAIL
  6
DIVIDE
 62
     5
 10
44.168152999999982
 20
-64.401358999999999
 30
0.0
 11
45.900964999999999
 21
-67.969905999999995
 31
0.0
  0
ARC
  5
14BA
  8
DETAIL
  6
CONTINUOUS
 62
     5
 10
42.934027
 20
-94.991427000000002
 30
0.0
 40
1.797555999999999
 50
295.92662300000001
 51
352.89627199999973
  0
LINE
  5
14BB
  8
DETAIL
  6
CONTINUOUS
 62
     5
 10
43.66146899999999
 20
-72.846668999999963
 30
0.0
 11
44.416308000000001
 21
-73.546891000000002
 31
0.0
  0
ARC
  5
14BC
  8
DETAIL
  6
CONTINUOUS
 62
     5
 10
-639.05595900000003
 20
-10.000021
 30
0.0
 40
689.06306600000016
 50
352.89627199999973
 51
354.51114200000001
  0
ARC
  5
14BD
  8
DETAIL
  6
CONTINUOUS
 62
     5
 10
45.564020999999983
 20
-68.420585000000003
 30
0.0
 40
0.5991850000000003
 50
96.40801500000002
 51
98.840469999999996
  0
LINE
  5
14BE
  8
DETAIL
  6
DIVIDE
 62
     5
 10
45.497146999999998
 20
-67.825143999999995
 30
0.0
 11
47.449359000000001
 21
-68.524982999999992
 31
0.0
  0
LINE
  5
14BF
  8
DETAIL
  6
CONTINUOUS
 62
     5
 10
46.326458999999993
 20
-75.38523499999998
 30
0.0
 11
46.847627000000003
 21
-75.910400999999979
 31
0.0
  0
LINE
  5
14C0
  8
DETAIL
  6
CONTINUOUS
 62
     5
 10
45.747516999999988
 20
-74.816358999999963
 30
0.0
 11
46.326458999999993
 21
-75.38523499999998
 31
0.0
  0
LINE
  5
14C1
  8
DETAIL
  6
CONTINUOUS
 62
     5
 10
45.111330000000002
 20
-74.203518000000003
 30
0.0
 11
45.747516999999988
 21
-74.816358999999963
 31
0.0
  0
LINE
  5
14C2
  8
DETAIL
  6
CONTINUOUS
 62
     5
 10
44.416308000000001
 20
-73.546891000000002
 30
0.0
 11
45.111330000000002
 21
-74.203518000000003
 31
0.0
  0
LINE
  5
14C3
  8
DETAIL
  6
CONTINUOUS
 62
     5
 10
45.497146999999998
 20
-67.825143999999995
 30
0.0
 11
47.570931000000002
 21
-67.807045999999985
 31
0.0
  0
ARC
  5
14C4
  8
DETAIL
  6
CONTINUOUS
 62
     5
 10
-639.05595900000003
 20
-10.000021
 30
0.0
 40
689.06306600000016
 50
354.51213899999999
 51
355.02407099999999
  0
LINE
  5
14C5
  8
DETAIL
  6
CONTINUOUS
 62
     5
 10
40.148043000000001
 20
-79.687436000000005
 30
0.0
 11
39.662917999999998
 21
-84.282751999999988
 31
0.0
  0
LINE
  5
14C6
  8
DETAIL
  6
CONTINUOUS
 62
     5
 10
39.146836999999991
 20
-88.874703999999966
 30
0.0
 11
38.599800000000002
 21
-93.463301000000016
 31
0.0
  0
LINE
  5
14C7
  8
DETAIL
  6
CONTINUOUS
 62
     5
 10
39.662917999999998
 20
-84.282751999999988
 30
0.0
 11
39.146836999999991
 21
-88.874703999999966
 31
0.0
  0
LINE
  5
14C8
  8
DETAIL
  6
CONTINUOUS
 62
     5
 10
41.191906000000003
 20
-68.284828000000005
 30
0.0
 11
41.00348799999999
 21
-70.467675
 31
0.0
  0
LINE
  5
14C9
  8
DETAIL
  6
CONTINUOUS
 62
     5
 10
41.309983000000003
 20
-66.883358000000001
 30
0.0
 11
41.191906000000003
 21
-68.284828000000005
 31
0.0
  0
LINE
  5
14CA
  8
DETAIL
  6
CONTINUOUS
 62
     5
 10
41.425185999999982
 20
-65.481651999999997
 30
0.0
 11
41.309983000000003
 21
-66.883358000000001
 31
0.0
  0
LINE
  5
14CB
  8
DETAIL
  6
CONTINUOUS
 62
     5
 10
40.602209999999999
 20
-75.088751999999999
 30
0.0
 11
40.148043000000001
 21
-79.687436000000005
 31
0.0
  0
LINE
  5
14CC
  8
DETAIL
  6
CONTINUOUS
 62
     5
 10
41.025388
 20
-70.486975000000001
 30
0.0
 11
40.602209999999999
 21
-75.088751999999999
 31
0.0
  0
LINE
  5
14CD
  8
DETAIL
  6
CONTINUOUS
 62
     5
 10
42.845514000000001
 20
-72.103063000000006
 30
0.0
 11
43.66146899999999
 21
-72.846668999999963
 31
0.0
  0
LINE
  5
14CE
  8
DETAIL
  6
CONTINUOUS
 62
     5
 10
41.966617999999997
 20
-71.316485999999998
 30
0.0
 11
42.845514000000001
 21
-72.103063000000006
 31
0.0
  0
LINE
  5
14CF
  8
DETAIL
  6
CONTINUOUS
 62
     5
 10
41.025388
 20
-70.486975999999999
 30
0.0
 11
41.966617999999997
 21
-71.316485999999998
 31
0.0
  0
LINE
  5
14D0
  8
DETAIL
  6
CONTINUOUS
 62
     5
 10
39.910919
 20
-70.128905000000003
 30
0.0
 11
39.788445000000003
 21
-70.125853000000006
 31
0.0
  0
LINE
  5
14D1
  8
DETAIL
  6
CONTINUOUS
 62
     5
 10
40.032234999999993
 20
-70.137175999999997
 30
0.0
 11
39.910919
 21
-70.128905000000003
 31
0.0
  0
LINE
  5
14D2
  8
DETAIL
  6
CONTINUOUS
 62
     5
 10
40.153040999999973
 20
-70.150706
 30
0.0
 11
40.032234999999993
 21
-70.137175999999997
 31
0.0
  0
LINE
  5
14D3
  8
DETAIL
  6
CONTINUOUS
 62
     5
 10
40.271391999999992
 20
-70.169340000000005
 30
0.0
 11
40.153040999999973
 21
-70.150706
 31
0.0
  0
LINE
  5
14D4
  8
DETAIL
  6
CONTINUOUS
 62
     5
 10
40.385684999999988
 20
-70.192980000000006
 30
0.0
 11
40.271391999999992
 21
-70.169340000000005
 31
0.0
  0
LINE
  5
14D5
  8
DETAIL
  6
CONTINUOUS
 62
     5
 10
40.495531999999997
 20
-70.221468000000002
 30
0.0
 11
40.385684999999988
 21
-70.192980000000006
 31
0.0
  0
LINE
  5
14D6
  8
DETAIL
  6
CONTINUOUS
 62
     5
 10
40.600101999999993
 20
-70.254593
 30
0.0
 11
40.495531999999997
 21
-70.221468000000002
 31
0.0
  0
LINE
  5
14D7
  8
DETAIL
  6
CONTINUOUS
 62
     5
 10
40.699111999999992
 20
-70.292397999999991
 30
0.0
 11
40.600101999999993
 21
-70.254593
 31
0.0
  0
LINE
  5
14D8
  8
DETAIL
  6
CONTINUOUS
 62
     5
 10
40.792501000000001
 20
-70.335037999999997
 30
0.0
 11
40.699111999999992
 21
-70.292397999999991
 31
0.0
  0
LINE
  5
14D9
  8
DETAIL
  6
CONTINUOUS
 62
     5
 10
40.878770000000003
 20
-70.381940999999998
 30
0.0
 11
40.792501000000001
 21
-70.335037999999997
 31
0.0
  0
LINE
  5
14DA
  8
DETAIL
  6
CONTINUOUS
 62
     5
 10
40.956209000000001
 20
-70.432537999999994
 30
0.0
 11
40.878770000000003
 21
-70.381940999999998
 31
0.0
  0
LINE
  5
14DB
  8
DETAIL
  6
CONTINUOUS
 62
     5
 10
41.025388
 20
-70.486975999999999
 30
0.0
 11
40.956209000000001
 21
-70.432537999999994
 31
0.0
  0
LINE
  5
14DC
  8
DETAIL
  6
CONTINUOUS
 62
     5
 10
38.09217499999999
 20
-70.118277000000006
 30
0.0
 11
39.788445000000003
 21
-70.125853000000006
 31
0.0
  0
LINE
  5
14DD
  8
DETAIL
  6
CONTINUOUS
 62
     5
 10
39.20384099999999
 20
-43.472079999999998
 30
0.0
 11
38.732073999999997
 21
-52.065969000000003
 31
0.0
  0
LINE
  5
14DE
  8
DETAIL
  6
CONTINUOUS
 62
     5
 10
42.387652000000003
 20
-53.257871999999999
 30
0.0
 11
42.885852999999997
 21
-44.479982999999997
 31
0.0
  0
LINE
  5
14DF
  8
DETAIL
  6
CONTINUOUS
 62
     5
 10
38.731850000000001
 20
-52.069631000000001
 30
0.0
 11
38.162008
 21
-60.519250999999997
 31
0.0
  0
LINE
  5
14E0
  8
DETAIL
  6
CONTINUOUS
 62
     5
 10
41.776989
 20
-62.028664999999982
 30
0.0
 11
42.387652000000003
 21
-53.257871999999999
 31
0.0
  0
LINE
  5
14E1
  8
DETAIL
  6
CONTINUOUS
 62
     5
 10
40.591169999999991
 20
-61.557090000000002
 30
0.0
 11
40.42833499999999
 21
-61.543953000000002
 31
0.0
  0
LINE
  5
14E2
  8
DETAIL
  6
CONTINUOUS
 62
     5
 10
40.750112000000001
 20
-61.578404000000013
 30
0.0
 11
40.591169999999991
 21
-61.557090000000002
 31
0.0
  0
LINE
  5
14E3
  8
DETAIL
  6
CONTINUOUS
 62
     5
 10
40.905862999999997
 20
-61.607937999999997
 30
0.0
 11
40.750112000000001
 21
-61.578404000000013
 31
0.0
  0
LINE
  5
14E4
  8
DETAIL
  6
CONTINUOUS
 62
     5
 10
41.056320999999997
 20
-61.645456000000003
 30
0.0
 11
40.905862999999997
 21
-61.607937999999997
 31
0.0
  0
LINE
  5
14E5
  8
DETAIL
  6
CONTINUOUS
 62
     5
 10
41.199859999999987
 20
-61.690711999999998
 30
0.0
 11
41.056320999999997
 21
-61.645456000000003
 31
0.0
  0
LINE
  5
14E6
  8
DETAIL
  6
CONTINUOUS
 62
     5
 10
41.335765000000002
 20
-61.743737000000003
 30
0.0
 11
41.199859999999987
 21
-61.690711999999998
 31
0.0
  0
LINE
  5
14E7
  8
DETAIL
  6
CONTINUOUS
 62
     5
 10
41.463543999999978
 20
-61.804713
 30
0.0
 11
41.335765000000002
 21
-61.743737000000003
 31
0.0
  0
LINE
  5
14E8
  8
DETAIL
  6
CONTINUOUS
 62
     5
 10
41.580903999999983
 20
-61.872879000000012
 30
0.0
 11
41.463543999999978
 21
-61.804713
 31
0.0
  0
LINE
  5
14E9
  8
DETAIL
  6
CONTINUOUS
 62
     5
 10
41.68507799999999
 20
-61.947477999999997
 30
0.0
 11
41.580903999999983
 21
-61.872879000000012
 31
0.0
  0
LINE
  5
14EA
  8
DETAIL
  6
CONTINUOUS
 62
     5
 10
41.776989
 20
-62.028664999999982
 30
0.0
 11
41.68507799999999
 21
-61.947477999999997
 31
0.0
  0
LINE
  5
14EB
  8
DETAIL
  6
CONTINUOUS
 62
     5
 10
40.530515999999977
 20
-62.892934999999987
 30
0.0
 11
40.532899999999991
 21
-62.890143000000002
 31
0.0
  0
LINE
  5
14EC
  8
DETAIL
  6
CONTINUOUS
 62
     5
 10
40.523014000000003
 20
-62.900834000000003
 30
0.0
 11
40.530515999999977
 21
-62.892934999999987
 31
0.0
  0
LINE
  5
14ED
  8
DETAIL
  6
CONTINUOUS
 62
     5
 10
38.161675999999993
 20
-60.524805000000008
 30
0.0
 11
38.165968999999997
 21
-60.523212000000001
 31
0.0
  0
LINE
  5
14EE
  8
DETAIL
  6
CONTINUOUS
 62
     5
 10
38.14941799999999
 20
-60.529681999999987
 30
0.0
 11
38.161675999999993
 21
-60.524805000000008
 31
0.0
  0
LINE
  5
14EF
  8
DETAIL
  6
CONTINUOUS
 62
     5
 10
40.42833499999999
 20
-61.543953000000002
 30
0.0
 11
39.186709999999991
 21
-61.543953000000002
 31
0.0
  0
LINE
  5
14F0
  8
DETAIL
  6
CONTINUOUS
 62
     5
 10
39.568401999999999
 20
-34.867983000000002
 30
0.0
 11
39.20402
 21
-43.468414000000003
 31
0.0
  0
LINE
  5
14F1
  8
DETAIL
  6
CONTINUOUS
 62
     5
 10
42.885852999999997
 20
-44.479982999999997
 30
0.0
 11
43.271509999999992
 21
-35.696429999999999
 31
0.0
  0
ARC
  5
14F2
  8
DETAIL
  6
DASHED
 62
     5
 10
20.404423999999992
 20
-37.364209000000002
 30
0.0
 40
0.998642
 50
1.6958
 51
23.857572999999999
  0
ARC
  5
14F3
  8
DETAIL
  6
DASHED
 62
     5
 10
-223.626261
 20
-44.58896699999999
 30
0.0
 40
245.1362519999999
 50
0.9651759999999999
 51
1.6958
  0
ARC
  5
14F4
  8
DETAIL
  6
DASHED
 62
     5
 10
21.311095000000002
 20
-40.613849000000002
 30
0.0
 40
0.114844
 50
236.7316779999999
 51
318.48940800000003
  0
ARC
  5
14F5
  8
DETAIL
  6
DASHED
 62
     5
 10
21.162161999999991
 20
-40.482034999999982
 30
0.0
 40
0.313731
 50
318.48940800000003
 51
3.3260900000000002
  0
ARC
  5
14F6
  8
DETAIL
  6
DASHED
 62
     5
 10
35.800655999999989
 20
-18.529001000000001
 30
0.0
 40
26.528625000000002
 50
227.79319699999991
 51
236.7316779999999
  0
ARC
  5
14F7
  8
DETAIL
  6
DASHED
 62
     5
 10
-165.65058099999979
 20
92.551297000000005
 30
0.0
 40
204.19391200000001
 50
332.92949700000003
 51
334.92063899999988
  0
LINE
  5
14F8
  8
DETAIL
  6
CONTINUOUS
 62
     5
 10
39.777360999999992
 20
8.1825840000000003
 30
0.0
 11
39.950741000000001
 21
-0.423138
 31
0.0
  0
LINE
  5
14F9
  8
DETAIL
  6
CONTINUOUS
 62
     5
 10
43.687671999999992
 20
-0.5341239999999999
 30
0.0
 11
43.51000299999999
 21
8.2562549999999977
 31
0.0
  0
LINE
  5
14FA
  8
DETAIL
  6
CONTINUOUS
 62
     5
 10
40.016628999999959
 20
-9.0378150000000002
 30
0.0
 11
39.974874999999997
 21
-17.645651999999991
 31
0.0
  0
LINE
  5
14FB
  8
DETAIL
  6
CONTINUOUS
 62
     5
 10
43.704949999999997
 20
-18.118013999999999
 30
0.0
 11
43.752657999999997
 21
-9.3260260000000006
 31
0.0
  0
LINE
  5
14FC
  8
DETAIL
  6
CONTINUOUS
 62
     5
 10
39.974834000000001
 20
-17.649319999999989
 30
0.0
 11
39.825518000000002
 21
-26.25614199999999
 31
0.0
  0
LINE
  5
14FD
  8
DETAIL
  6
CONTINUOUS
 62
     5
 10
43.544558000000002
 20
-26.908636000000001
 30
0.0
 11
43.704949999999997
 21
-18.118013999999999
 31
0.0
  0
LINE
  5
14FE
  8
DETAIL
  6
CONTINUOUS
 62
     5
 10
39.950792
 20
-0.4268060000000001
 30
0.0
 11
40.016623999999993
 21
-9.0341450000000005
 31
0.0
  0
LINE
  5
14FF
  8
DETAIL
  6
CONTINUOUS
 62
     5
 10
43.752657999999997
 20
-9.3260260000000006
 30
0.0
 11
43.687671999999992
 21
-0.5341239999999999
 31
0.0
  0
LINE
  5
1500
  8
DETAIL
  6
CONTINUOUS
 62
     5
 10
39.107798999999993
 20
25.391639000000001
 30
0.0
 11
39.496203000000001
 21
16.792802999999999
 31
0.0
  0
LINE
  5
1501
  8
DETAIL
  6
CONTINUOUS
 62
     5
 10
43.219676999999997
 20
17.043668
 30
0.0
 11
42.816746000000002
 21
25.826671999999991
 31
0.0
  0
LINE
  5
1502
  8
DETAIL
  6
CONTINUOUS
 62
     5
 10
39.496344999999998
 20
16.789137
 30
0.0
 11
39.777264000000002
 21
8.1862519999999979
 31
0.0
  0
LINE
  5
1503
  8
DETAIL
  6
CONTINUOUS
 62
     5
 10
43.51000299999999
 20
8.2562549999999977
 30
0.0
 11
43.219676999999997
 21
17.043668
 31
0.0
  0
ARC
  5
1504
  8
DETAIL
  6
DASHED
 62
     5
 10
-17.995276999999991
 20
27.359896999999989
 30
0.0
 40
41.790824000000001
 50
324.18544100000008
 51
330.44363299999992
  0
ARC
  5
1505
  8
DETAIL
  6
DASHED
 62
     5
 10
21.362613
 20
12.130884
 30
0.0
 40
0.068453
 50
50.026567999999997
 51
117.4036279999999
  0
ARC
  5
1506
  8
DETAIL
  6
DASHED
 62
     5
 10
20.727153000000001
 20
11.335236999999999
 30
0.0
 40
0.998642
 50
333.546063
 51
347.55497300000002
  0
ARC
  5
1507
  8
DETAIL
  6
DASHED
 62
     5
 10
161.5635689999996
 20
-58.741893999999981
 30
0.0
 40
156.30901999999961
 50
153.54606299999961
 51
155.531991
  0
ARC
  5
1508
  8
DETAIL
  6
DASHED
 62
     5
 10
20.303634999999989
 20
11.428703000000001
 30
0.0
 40
1.43235
 50
347.55497300000002
 51
21.778010999999999
  0
ARC
  5
1509
  8
DETAIL
  6
DASHED
 62
     5
 10
21.024591999999991
 20
11.56739299999999
 30
0.0
 40
0.724787
 50
32.809816999999988
 51
58.193759999999997
  0
ARC
  5
150A
  8
DETAIL
  6
DASHED
 62
     5
 10
21.477829
 20
11.906817999999991
 30
0.0
 40
0.320406
 50
117.17171500000001
 51
140.53414100000001
  0
ARC
  5
150B
  8
DETAIL
  6
DASHED
 62
     5
 10
38.413955999999999
 20
2.2509600000000001
 30
0.0
 40
19.84025199999996
 50
151.16329799999991
 51
154.25695400000001
  0
ARC
  5
150C
  8
DETAIL
  6
DASHED
 62
     5
 10
22.413364999999999
 20
11.097875
 30
0.0
 40
1.557107999999999
 50
138.8658649999999
 51
152.361323
  0
ARC
  5
150D
  8
DETAIL
  6
DASHED
 62
     5
 10
-35.778250999999997
 20
38.08212799999999
 30
0.0
 40
62.551233999999987
 50
329.93527699999999
 51
334.23291899999998
  0
LINE
  5
150E
  8
DETAIL
  6
CONTINUOUS
 62
     5
 10
38.611742999999997
 20
33.988987999999992
 30
0.0
 11
39.107610999999999
 21
25.395303999999999
 31
0.0
  0
ARC
  5
150F
  8
DETAIL
  6
DASHED
 62
     5
 10
20.364309999999961
 20
19.540082999999989
 30
0.0
 40
6.9641469999999988
 50
85.685704999999984
 51
103.980401
  0
ARC
  5
1510
  8
DETAIL
  6
DASHED
 62
     5
 10
23.438368000000001
 20
11.502518999999991
 30
0.0
 40
15.541204999999991
 50
107.82189099999999
 51
135.93185099999999
  0
ARC
  5
1511
  8
DETAIL
  6
DASHED
 62
     5
 10
20.876432000000001
 20
26.983678999999999
 30
0.0
 40
0.4993210000000003
 50
260.77740399999982
 51
333.73357099999998
  0
ARC
  5
1512
  8
DETAIL
  6
DASHED
 62
     5
 10
20.280487999999998
 20
29.977187000000001
 30
0.0
 40
0.998642
 50
14.64452
 51
28.959900999999999
  0
ARC
  5
1513
  8
DETAIL
  6
DASHED
 62
     5
 10
13.98861
 20
28.333054000000001
 30
0.0
 40
7.5017869999999984
 50
347.91691700000001
 51
14.64452
  0
LINE
  5
1514
  8
DETAIL
  6
CONTINUOUS
 62
     5
 10
-27.159800000000001
 20
-31.205708999999999
 30
0.0
 11
-27.274979999999999
 21
-31.304531999999991
 31
0.0
  0
LINE
  5
1515
  8
DETAIL
  6
CONTINUOUS
 62
     5
 10
-35.751387999999992
 20
-35.868417000000001
 30
0.0
 11
-35.751387999999992
 21
-7.3006710000000004
 31
0.0
  0
LINE
  5
1516
  8
DETAIL
  6
CONTINUOUS
 62
     5
 10
-18.974142000000001
 20
-46.839433
 30
0.0
 11
-18.974145
 21
-25.497773999999989
 31
0.0
  0
ARC
  5
1517
  8
DETAIL
  6
DASHED
 62
     5
 10
-44.143267000000002
 20
17.012799999999991
 30
0.0
 40
60.531616999999997
 50
301.12411600000001
 51
320.76928099999992
  0
ARC
  5
1518
  8
DETAIL
  6
DASHED
 62
     5
 10
118.532338
 20
-39.564484
 30
0.0
 40
133.109476
 50
168.26107400000001
 51
177.84357700000001
  0
LINE
  5
1519
  8
DETAIL
  6
CONTINUOUS
 62
     5
 10
-20.400881999999999
 20
-38.626302000000003
 30
0.0
 11
-20.656828999999998
 21
-38.488347999999981
 31
0.0
  0
LINE
  5
151A
  8
DETAIL
  6
CONTINUOUS
 62
     5
 10
-18.479178999999991
 20
-47.338735
 30
0.0
 11
0.0
 21
-47.5
 31
0.0
  0
LINE
  5
151B
  8
DETAIL
  6
CONTINUOUS
 62
     5
 10
-18.992570000000001
 20
-40.187992999999999
 30
0.0
 11
-18.989436999999999
 21
-40.228615999999981
 31
0.0
  0
LINE
  5
151C
  8
DETAIL
  6
CONTINUOUS
 62
     5
 10
-18.974428
 20
-40.382309999999983
 30
0.0
 11
-18.974142000000001
 21
-40.403328999999999
 31
0.0
  0
LINE
  5
151D
  8
DETAIL
  6
CONTINUOUS
 62
     5
 10
-18.97438
 20
-40.388143999999983
 30
0.0
 11
-18.989436999999999
 21
-40.228615999999981
 31
0.0
  0
LINE
  5
151E
  8
DETAIL
  6
CONTINUOUS
 62
     5
 10
-18.989436999999999
 20
-40.228615999999981
 30
0.0
 11
-19.030913999999999
 21
-40.059041999999977
 31
0.0
  0
LINE
  5
151F
  8
DETAIL
  6
CONTINUOUS
 62
     5
 10
-19.030913999999999
 20
-40.059041999999977
 30
0.0
 11
-19.095852000000001
 21
-39.892556999999989
 31
0.0
  0
LINE
  5
1520
  8
DETAIL
  6
CONTINUOUS
 62
     5
 10
-19.095852000000001
 20
-39.892556999999989
 30
0.0
 11
-19.182891000000001
 21
-39.727879999999992
 31
0.0
  0
LINE
  5
1521
  8
DETAIL
  6
CONTINUOUS
 62
     5
 10
-19.182891000000001
 20
-39.727879999999992
 30
0.0
 11
-19.291471999999999
 21
-39.564473999999997
 31
0.0
  0
LINE
  5
1522
  8
DETAIL
  6
CONTINUOUS
 62
     5
 10
-19.291471999999999
 20
-39.564473999999997
 30
0.0
 11
-19.42139899999998
 21
-39.402335999999998
 31
0.0
  0
LINE
  5
1523
  8
DETAIL
  6
CONTINUOUS
 62
     5
 10
-19.42139899999998
 20
-39.402335999999998
 30
0.0
 11
-19.574193999999999
 21
-39.240366999999999
 31
0.0
  0
LINE
  5
1524
  8
DETAIL
  6
CONTINUOUS
 62
     5
 10
-19.574193999999999
 20
-39.240366999999999
 30
0.0
 11
-19.748974
 21
-39.080550000000002
 31
0.0
  0
LINE
  5
1525
  8
DETAIL
  6
CONTINUOUS
 62
     5
 10
-19.748974
 20
-39.080550000000002
 30
0.0
 11
-19.945792999999991
 21
-38.923794000000001
 31
0.0
  0
LINE
  5
1526
  8
DETAIL
  6
CONTINUOUS
 62
     5
 10
-19.945792999999991
 20
-38.923794000000001
 30
0.0
 11
-20.163478999999992
 21
-38.771886999999992
 31
0.0
  0
LINE
  5
1527
  8
DETAIL
  6
CONTINUOUS
 62
     5
 10
-20.163478999999992
 20
-38.771886999999992
 30
0.0
 11
-20.400881999999999
 21
-38.626302000000003
 31
0.0
  0
ARC
  5
1528
  8
DETAIL
  6
CONTINUOUS
 62
     5
 10
-18.474820999999991
 20
-46.839433
 30
0.0
 40
0.4993210000000003
 50
180.0
 51
269.5
  0
ARC
  5
1529
  8
DETAIL
  6
DASHED
 62
     5
 10
-13.267809
 20
-34.121357000000003
 30
0.0
 40
0.798914
 50
264.86168599999991
 51
301.12411600000001
  0
ARC
  5
152A
  8
DETAIL
  6
DASHED
 62
     5
 10
-12.91546499999999
 20
-30.203014
 30
0.0
 40
4.7330659999999991
 50
251.9814639999999
 51
264.86168599999991
  0
ARC
  5
152B
  8
DETAIL
  6
DASHED
 62
     5
 10
-14.33318299999998
 20
-34.561503999999999
 30
0.0
 40
0.149796
 50
177.84357700000001
 51
251.9814639999999
  0
LINE
  5
152C
  8
DETAIL
  6
CONTINUOUS
 62
     5
 10
-20.656828999999998
 20
-38.488347999999981
 30
0.0
 11
-20.929936999999999
 21
-38.359246999999989
 31
0.0
  0
LINE
  5
152D
  8
DETAIL
  6
CONTINUOUS
 62
     5
 10
-20.929936999999999
 20
-38.359246999999989
 30
0.0
 11
-21.218838999999981
 21
-38.240107000000002
 31
0.0
  0
LINE
  5
152E
  8
DETAIL
  6
CONTINUOUS
 62
     5
 10
-21.218838999999981
 20
-38.240107000000002
 30
0.0
 11
-21.521993999999999
 21
-38.131920999999998
 31
0.0
  0
LINE
  5
152F
  8
DETAIL
  6
CONTINUOUS
 62
     5
 10
-21.521993999999999
 20
-38.131920999999998
 30
0.0
 11
-21.837883999999999
 21
-38.035579999999982
 31
0.0
  0
LINE
  5
1530
  8
DETAIL
  6
CONTINUOUS
 62
     5
 10
-21.837883999999999
 20
-38.035579999999982
 30
0.0
 11
-22.164940999999988
 21
-37.95186799999999
 31
0.0
  0
LINE
  5
1531
  8
DETAIL
  6
CONTINUOUS
 62
     5
 10
-22.164940999999988
 20
-37.95186799999999
 30
0.0
 11
-22.501605999999999
 21
-37.881450999999991
 31
0.0
  0
LINE
  5
1532
  8
DETAIL
  6
CONTINUOUS
 62
     5
 10
-22.501605999999999
 20
-37.881450999999991
 30
0.0
 11
-22.84628
 21
-37.824923999999982
 31
0.0
  0
LINE
  5
1533
  8
DETAIL
  6
CONTINUOUS
 62
     5
 10
-22.84628
 20
-37.824923999999982
 30
0.0
 11
-23.070242999999991
 21
-37.796255000000002
 31
0.0
  0
LINE
  5
1534
  8
DETAIL
  6
CONTINUOUS
 62
     5
 10
-23.070242999999991
 20
-37.796255000000002
 30
0.0
 11
-23.074134000000001
 21
-37.794893000000002
 31
0.0
  0
LINE
  5
1535
  8
DETAIL
  6
CONTINUOUS
 62
     5
 10
-23.074134000000001
 20
-37.794893000000002
 30
0.0
 11
-23.082467999999999
 21
-37.784421000000002
 31
0.0
  0
LINE
  5
1536
  8
DETAIL
  6
CONTINUOUS
 62
     5
 10
-23.082467999999999
 20
-37.784421000000002
 30
0.0
 11
-23.08938299999998
 21
-37.763961999999999
 31
0.0
  0
LINE
  5
1537
  8
DETAIL
  6
CONTINUOUS
 62
     5
 10
-35.74801200000001
 20
-34.791871999999998
 30
0.0
 11
-35.751387999999992
 21
-34.750883000000002
 31
0.0
  0
LINE
  5
1538
  8
DETAIL
  6
CONTINUOUS
 62
     5
 10
-31.270882
 20
-36.844715000000001
 30
0.0
 11
-35.311498
 21
-36.364187999999992
 31
0.0
  0
LINE
  5
1539
  8
DETAIL
  6
CONTINUOUS
 62
     5
 10
-27.10941
 20
-37.331555999999992
 30
0.0
 11
-31.270882
 21
-36.844715000000001
 31
0.0
  0
LINE
  5
153A
  8
DETAIL
  6
CONTINUOUS
 62
     5
 10
-23.070242
 20
-37.796247999999999
 30
0.0
 11
-27.10941
 21
-37.331555999999992
 31
0.0
  0
LINE
  5
153B
  8
DETAIL
  6
CONTINUOUS
 62
     5
 10
-27.274979999999999
 20
-31.304531999999991
 30
0.0
 11
-27.402676
 21
-31.395474
 31
0.0
  0
LINE
  5
153C
  8
DETAIL
  6
CONTINUOUS
 62
     5
 10
-27.402676
 20
-31.395474
 30
0.0
 11
-27.542202
 21
-31.478337
 31
0.0
  0
LINE
  5
153D
  8
DETAIL
  6
CONTINUOUS
 62
     5
 10
-27.542202
 20
-31.478337
 30
0.0
 11
-27.692360999999998
 21
-31.552703999999999
 31
0.0
  0
LINE
  5
153E
  8
DETAIL
  6
CONTINUOUS
 62
     5
 10
-27.692360999999998
 20
-31.552703999999999
 30
0.0
 11
-27.852053000000002
 21
-31.618382
 31
0.0
  0
LINE
  5
153F
  8
DETAIL
  6
CONTINUOUS
 62
     5
 10
-27.852053000000002
 20
-31.618382
 30
0.0
 11
-28.019712999999989
 21
-31.675044
 31
0.0
  0
LINE
  5
1540
  8
DETAIL
  6
CONTINUOUS
 62
     5
 10
-35.462606000000001
 20
-36.321179999999998
 30
0.0
 11
-35.39977600000001
 21
-36.345390000000002
 31
0.0
  0
LINE
  5
1541
  8
DETAIL
  6
CONTINUOUS
 62
     5
 10
-35.39977600000001
 20
-36.345390000000002
 30
0.0
 11
-35.333880000000001
 21
-36.360990000000001
 31
0.0
  0
LINE
  5
1542
  8
DETAIL
  6
CONTINUOUS
 62
     5
 10
-35.333880000000001
 20
-36.360990000000001
 30
0.0
 11
-35.311534000000002
 21
-36.364184000000002
 31
0.0
  0
LINE
  5
1543
  8
DETAIL
  6
CONTINUOUS
 62
     5
 10
-35.322111
 20
-36.354339000000003
 30
0.0
 11
-35.313786999999991
 21
-36.363572999999981
 31
0.0
  0
LINE
  5
1544
  8
DETAIL
  6
CONTINUOUS
 62
     5
 10
-35.313786999999991
 20
-36.363572999999981
 30
0.0
 11
-35.31163200000001
 21
-36.364171999999989
 31
0.0
  0
LINE
  5
1545
  8
DETAIL
  6
CONTINUOUS
 62
     5
 10
-35.751387999999992
 20
-35.86842
 30
0.0
 11
-35.747574999999998
 21
-35.93000700000001
 31
0.0
  0
LINE
  5
1546
  8
DETAIL
  6
CONTINUOUS
 62
     5
 10
-35.747574999999998
 20
-35.93000700000001
 30
0.0
 11
-35.73617500000001
 21
-35.990732000000001
 31
0.0
  0
LINE
  5
1547
  8
DETAIL
  6
CONTINUOUS
 62
     5
 10
-35.73617500000001
 20
-35.990732000000001
 30
0.0
 11
-35.717624000000001
 21
-36.04891099999999
 31
0.0
  0
LINE
  5
1548
  8
DETAIL
  6
CONTINUOUS
 62
     5
 10
-35.717624000000001
 20
-36.04891099999999
 30
0.0
 11
-35.692017999999997
 21
-36.104562000000001
 31
0.0
  0
LINE
  5
1549
  8
DETAIL
  6
CONTINUOUS
 62
     5
 10
-35.692017999999997
 20
-36.104562000000001
 30
0.0
 11
-35.659216000000001
 21
-36.157470000000004
 31
0.0
  0
LINE
  5
154A
  8
DETAIL
  6
CONTINUOUS
 62
     5
 10
-35.659216000000001
 20
-36.157470000000004
 30
0.0
 11
-35.619517999999999
 21
-36.206502
 31
0.0
  0
LINE
  5
154B
  8
DETAIL
  6
CONTINUOUS
 62
     5
 10
-35.619517999999999
 20
-36.206502
 30
0.0
 11
-35.573267000000001
 21
-36.250715
 31
0.0
  0
LINE
  5
154C
  8
DETAIL
  6
CONTINUOUS
 62
     5
 10
-35.573267000000001
 20
-36.250715
 30
0.0
 11
-35.52084
 21
-36.289228000000001
 31
0.0
  0
LINE
  5
154D
  8
DETAIL
  6
CONTINUOUS
 62
     5
 10
-35.52084
 20
-36.289228000000001
 30
0.0
 11
-35.462606000000001
 21
-36.321179999999998
 31
0.0
  0
LINE
  5
154E
  8
DETAIL
  6
CONTINUOUS
 62
     5
 10
-61.403530000000011
 20
23.0
 30
0.0
 11
-48.83359999999999
 21
23.0
 31
0.0
  0
LINE
  5
154F
  8
DETAIL
  6
CONTINUOUS
 62
     5
 10
-38.447721999999992
 20
-23.0
 30
0.0
 11
-61.403530000000011
 21
-23.0
 31
0.0
  0
LINE
  5
1550
  8
DETAIL
  6
CONTINUOUS
 62
     5
 10
-37.948400999999997
 20
11.983705
 30
0.0
 11
-37.948400999999997
 21
-23.967409
 31
0.0
  0
LINE
  5
1551
  8
DETAIL
  6
CONTINUOUS
 62
     5
 10
-37.349215000000001
 20
12.237482999999999
 30
0.0
 11
-37.349215000000001
 21
-23.967409
 31
0.0
  0
LINE
  5
1552
  8
DETAIL
  6
CONTINUOUS
 62
     5
 10
-36.550302000000002
 20
12.237352
 30
0.0
 11
-36.550302000000002
 21
-6.998410999999999
 31
0.0
  0
LINE
  5
1553
  8
DETAIL
  6
CONTINUOUS
 62
     5
 10
-38.447721999999992
 20
-23.0
 30
0.0
 11
-38.447721999999992
 21
11.434452
 31
0.0
  0
LINE
  5
1554
  8
DETAIL
  6
CONTINUOUS
 62
     5
 10
-18.974145999999958
 20
-3.3529330000000002
 30
0.0
 11
-18.974142000000001
 21
31.264205
 31
0.0
  0
LINE
  5
1555
  8
DETAIL
  6
CONTINUOUS
 62
     5
 10
-35.751387999999992
 20
-6.757058999999999
 30
0.0
 11
-35.751387999999992
 21
11.942985999999991
 31
0.0
  0
ARC
  5
1556
  8
DETAIL
  6
DASHED
 62
     5
 10
54.117697
 20
-1.0288520000000001
 30
0.0
 40
67.505021999999997
 50
174.29512600000001
 51
181.64025100000001
  0
ARC
  5
1557
  8
DETAIL
  6
DASHED
 62
     5
 10
-24.186257999999999
 20
-21.344912999999998
 30
0.0
 40
32.141176999999999
 50
38.505349000000002
 51
64.761600999999999
  0
LINE
  5
1558
  8
DETAIL
  6
DASHED
 62
     5
 10
-14.779902999999999
 20
7.5886289999999983
 30
0.0
 11
-14.779902999999999
 21
-12.333137000000001
 31
0.0
  0
LINE
  5
1559
  8
DETAIL
  6
CONTINUOUS
 62
     5
 10
-20.751664000000002
 20
-6.7743229999999981
 30
0.0
 11
-20.441272000000001
 21
-6.5063269999999971
 31
0.0
  0
LINE
  5
155A
  8
DETAIL
  6
CONTINUOUS
 62
     5
 10
0.0
 20
-13.183767
 30
0.0
 11
-29.948810999999999
 21
-12.847663000000001
 31
0.0
  0
LINE
  5
155B
  8
DETAIL
  6
CONTINUOUS
 62
     5
 10
-29.947561999999991
 20
-11.542413
 30
0.0
 11
0.0
 21
-11.371522000000001
 31
0.0
  0
LINE
  5
155C
  8
DETAIL
  6
CONTINUOUS
 62
     5
 10
-32.361373999999998
 20
-11.196585000000001
 30
0.0
 11
0.0
 21
-11.0108
 31
0.0
  0
LINE
  5
155D
  8
DETAIL
  6
CONTINUOUS
 62
     5
 10
-20.707277999999992
 20
-26.004921
 30
0.0
 11
-20.397403000000001
 21
-25.784635999999999
 31
0.0
  0
LINE
  5
155E
  8
DETAIL
  6
CONTINUOUS
 62
     5
 10
-20.149936999999991
 20
-25.937843000000001
 30
0.0
 11
-20.50812899999999
 21
-26.182407000000001
 31
0.0
  0
LINE
  5
155F
  8
DETAIL
  6
CONTINUOUS
 62
     5
 10
-20.441141999999999
 20
-22.426217000000001
 30
0.0
 11
-20.697395
 21
-22.214314000000002
 31
0.0
  0
ARC
  5
1560
  8
DETAIL
  6
CONTINUOUS
 62
     5
 10
-23.468089999999989
 20
-17.565815000000001
 30
0.0
 40
6.9904950000000001
 50
271.0
 51
303.49704100000002
  0
LINE
  5
1561
  8
DETAIL
  6
CONTINUOUS
 62
     5
 10
0.0
 20
-19.462786999999992
 30
0.0
 11
-29.948622
 21
-19.137981
 31
0.0
  0
LINE
  5
1562
  8
DETAIL
  6
CONTINUOUS
 62
     5
 10
-29.947561999999991
 20
-17.847674999999999
 30
0.0
 11
0.0
 21
-17.688079999999989
 31
0.0
  0
LINE
  5
1563
  8
DETAIL
  6
CONTINUOUS
 62
     5
 10
-32.211739000000001
 20
-17.522576000000001
 30
0.0
 11
0.0
 21
-17.349917000000001
 31
0.0
  0
ARC
  5
1564
  8
DETAIL
  6
DASHED
 62
     5
 10
-181.238159
 20
-166.86363600000001
 30
0.0
 40
234.62145699999991
 50
38.356057
 51
44.313416999999987
  0
LINE
  5
1565
  8
DETAIL
  6
CONTINUOUS
 62
     5
 10
-18.921690999999999
 20
-25.633610999999991
 30
0.0
 11
-18.951039999999988
 21
-25.594124000000001
 31
0.0
  0
LINE
  5
1566
  8
DETAIL
  6
CONTINUOUS
 62
     5
 10
-18.951039999999988
 20
-25.594124000000001
 30
0.0
 11
-18.968661999999991
 21
-25.552627999999991
 31
0.0
  0
LINE
  5
1567
  8
DETAIL
  6
CONTINUOUS
 62
     5
 10
-18.968661999999991
 20
-25.552627999999991
 30
0.0
 11
-18.974142000000001
 21
-25.512530999999999
 31
0.0
  0
LINE
  5
1568
  8
DETAIL
  6
CONTINUOUS
 62
     5
 10
-18.920235999999989
 20
-25.58224899999999
 30
0.0
 11
-18.94998
 21
-25.543503000000001
 31
0.0
  0
LINE
  5
1569
  8
DETAIL
  6
CONTINUOUS
 62
     5
 10
-18.94998
 20
-25.543503000000001
 30
0.0
 11
-18.968196999999989
 21
-25.502632999999999
 31
0.0
  0
LINE
  5
156A
  8
DETAIL
  6
CONTINUOUS
 62
     5
 10
-20.397403000000001
 20
-25.784635999999999
 30
0.0
 11
-20.103338999999998
 21
-25.540234000000002
 31
0.0
  0
LINE
  5
156B
  8
DETAIL
  6
CONTINUOUS
 62
     5
 10
-20.103338999999998
 20
-25.540234000000002
 30
0.0
 11
-19.828023000000002
 21
-25.273651000000001
 31
0.0
  0
LINE
  5
156C
  8
DETAIL
  6
CONTINUOUS
 62
     5
 10
-19.828023000000002
 20
-25.273651000000001
 30
0.0
 11
-19.572582000000001
 21
-24.986285999999989
 31
0.0
  0
LINE
  5
156D
  8
DETAIL
  6
CONTINUOUS
 62
     5
 10
-19.572582000000001
 20
-24.986285999999989
 30
0.0
 11
-19.338751999999999
 21
-24.681683
 31
0.0
  0
LINE
  5
156E
  8
DETAIL
  6
CONTINUOUS
 62
     5
 10
-19.338751999999999
 20
-24.681683
 30
0.0
 11
-19.147023000000001
 21
-24.393840000000001
 31
0.0
  0
LINE
  5
156F
  8
DETAIL
  6
CONTINUOUS
 62
     5
 10
-19.035340999999988
 20
-24.839690000000001
 30
0.0
 11
-19.244648999999999
 21
-25.09855799999999
 31
0.0
  0
LINE
  5
1570
  8
DETAIL
  6
CONTINUOUS
 62
     5
 10
-19.244648999999999
 20
-25.09855799999999
 30
0.0
 11
-19.515035999999991
 21
-25.389510999999999
 31
0.0
  0
LINE
  5
1571
  8
DETAIL
  6
CONTINUOUS
 62
     5
 10
-19.515035999999991
 20
-25.389510999999999
 30
0.0
 11
-19.817207
 21
-25.672411
 31
0.0
  0
LINE
  5
1572
  8
DETAIL
  6
CONTINUOUS
 62
     5
 10
-19.817207
 20
-25.672411
 30
0.0
 11
-20.149936999999991
 21
-25.937843000000001
 31
0.0
  0
LINE
  5
1573
  8
DETAIL
  6
CONTINUOUS
 62
     5
 10
-18.974145
 20
-25.497773999999989
 30
0.0
 11
-18.974301000000001
 21
-25.473013999999999
 31
0.0
  0
LINE
  5
1574
  8
DETAIL
  6
CONTINUOUS
 62
     5
 10
-18.974301000000001
 20
-25.473013999999999
 30
0.0
 11
-18.974428
 21
-25.460625
 31
0.0
  0
LINE
  5
1575
  8
DETAIL
  6
CONTINUOUS
 62
     5
 10
-18.974434999999961
 20
-25.461634
 30
0.0
 11
-18.989667999999991
 21
-25.166753
 31
0.0
  0
LINE
  5
1576
  8
DETAIL
  6
CONTINUOUS
 62
     5
 10
-18.989667999999991
 20
-25.166753
 30
0.0
 11
-19.030636999999992
 21
-24.8612
 31
0.0
  0
LINE
  5
1577
  8
DETAIL
  6
CONTINUOUS
 62
     5
 10
-19.030636999999992
 20
-24.8612
 30
0.0
 11
-19.096675000000001
 21
-24.559217
 31
0.0
  0
LINE
  5
1578
  8
DETAIL
  6
CONTINUOUS
 62
     5
 10
-19.096675000000001
 20
-24.559217
 30
0.0
 11
-19.187159999999992
 21
-24.262004999999998
 31
0.0
  0
LINE
  5
1579
  8
DETAIL
  6
CONTINUOUS
 62
     5
 10
-19.187159999999992
 20
-24.262004999999998
 30
0.0
 11
-19.301483999999999
 21
-23.970837
 31
0.0
  0
LINE
  5
157A
  8
DETAIL
  6
CONTINUOUS
 62
     5
 10
-19.301483999999999
 20
-23.970837
 30
0.0
 11
-19.438877999999981
 21
-23.687089
 31
0.0
  0
LINE
  5
157B
  8
DETAIL
  6
CONTINUOUS
 62
     5
 10
-19.438877999999981
 20
-23.687089
 30
0.0
 11
-19.598558999999991
 21
-23.41212899999999
 31
0.0
  0
LINE
  5
157C
  8
DETAIL
  6
CONTINUOUS
 62
     5
 10
-19.598558999999991
 20
-23.41212899999999
 30
0.0
 11
-19.779634999999981
 21
-23.147289999999991
 31
0.0
  0
LINE
  5
157D
  8
DETAIL
  6
CONTINUOUS
 62
     5
 10
-19.779634999999981
 20
-23.147289999999991
 30
0.0
 11
-19.981118999999961
 21
-22.89387
 31
0.0
  0
LINE
  5
157E
  8
DETAIL
  6
CONTINUOUS
 62
     5
 10
-19.981118999999961
 20
-22.89387
 30
0.0
 11
-20.202002
 21
-22.653120000000001
 31
0.0
  0
LINE
  5
157F
  8
DETAIL
  6
CONTINUOUS
 62
     5
 10
-20.202002
 20
-22.653120000000001
 30
0.0
 11
-20.441141999999999
 21
-22.426217000000001
 31
0.0
  0
LINE
  5
1580
  8
DETAIL
  6
CONTINUOUS
 62
     5
 10
-18.968196999999989
 20
-25.502632999999999
 30
0.0
 11
-18.974434999999961
 21
-25.461634
 31
0.0
  0
ARC
  5
1581
  8
DETAIL
  6
DASHED
 62
     5
 10
8.1710100000000008
 20
-8.4884579999999961
 30
0.0
 40
3.9945680000000001
 50
272.65454799999998
 51
309.40056900000002
  0
LINE
  5
1582
  8
DETAIL
  6
DASHED
 62
     5
 10
9.3281609999999997
 20
-12.311752
 30
0.0
 11
8.7796850000000006
 21
-13.128038999999999
 31
0.0
  0
LINE
  5
1583
  8
DETAIL
  6
CONTINUOUS
 62
     5
 10
-18.977502999999999
 20
-3.521687999999997
 30
0.0
 11
-18.974298999999991
 21
-3.3841379999999992
 31
0.0
  0
LINE
  5
1584
  8
DETAIL
  6
CONTINUOUS
 62
     5
 10
-18.974428
 20
-3.4000439999999981
 30
0.0
 11
-18.974145999999958
 21
-3.3529330000000002
 31
0.0
  0
LINE
  5
1585
  8
DETAIL
  6
CONTINUOUS
 62
     5
 10
-20.441272000000001
 20
-6.5063269999999971
 30
0.0
 11
-20.140839
 21
-6.2042909999999987
 31
0.0
  0
LINE
  5
1586
  8
DETAIL
  6
CONTINUOUS
 62
     5
 10
-20.140839
 20
-6.2042909999999987
 30
0.0
 11
-19.854825000000002
 21
-5.870003999999998
 31
0.0
  0
LINE
  5
1587
  8
DETAIL
  6
CONTINUOUS
 62
     5
 10
-19.854825000000002
 20
-5.870003999999998
 30
0.0
 11
-19.6602
 21
-5.6113669999999987
 31
0.0
  0
LINE
  5
1588
  8
DETAIL
  6
CONTINUOUS
 62
     5
 10
-19.663091000000001
 20
-5.6154209999999987
 30
0.0
 11
-19.572583999999981
 21
-5.4816199999999986
 31
0.0
  0
LINE
  5
1589
  8
DETAIL
  6
CONTINUOUS
 62
     5
 10
-19.572583999999981
 20
-5.4816199999999986
 30
0.0
 11
-19.480335
 21
-5.3288399999999987
 31
0.0
  0
LINE
  5
158A
  8
DETAIL
  6
CONTINUOUS
 62
     5
 10
-19.480335
 20
-5.3288399999999987
 30
0.0
 11
-19.388482999999962
 21
-5.1565219999999981
 31
0.0
  0
LINE
  5
158B
  8
DETAIL
  6
CONTINUOUS
 62
     5
 10
-19.388482999999962
 20
-5.1565219999999981
 30
0.0
 11
-19.300066999999991
 21
-4.9658949999999971
 31
0.0
  0
LINE
  5
158C
  8
DETAIL
  6
CONTINUOUS
 62
     5
 10
-19.300066999999991
 20
-4.9658949999999971
 30
0.0
 11
-19.217784999999999
 21
-4.7581499999999961
 31
0.0
  0
LINE
  5
158D
  8
DETAIL
  6
CONTINUOUS
 62
     5
 10
-19.217784999999999
 20
-4.7581499999999961
 30
0.0
 11
-19.144179000000001
 21
-4.534837999999997
 31
0.0
  0
LINE
  5
158E
  8
DETAIL
  6
CONTINUOUS
 62
     5
 10
-19.144179000000001
 20
-4.534837999999997
 30
0.0
 11
-19.081495
 21
-4.2975879999999993
 31
0.0
  0
LINE
  5
158F
  8
DETAIL
  6
CONTINUOUS
 62
     5
 10
-19.081495
 20
-4.2975879999999993
 30
0.0
 11
-19.031732999999981
 21
-4.0482699999999987
 31
0.0
  0
LINE
  5
1590
  8
DETAIL
  6
CONTINUOUS
 62
     5
 10
-19.031732999999981
 20
-4.0482699999999987
 30
0.0
 11
-18.996592
 21
-3.7888079999999991
 31
0.0
  0
LINE
  5
1591
  8
DETAIL
  6
CONTINUOUS
 62
     5
 10
-18.996592
 20
-3.7888079999999991
 30
0.0
 11
-18.977502999999999
 21
-3.521687999999997
 31
0.0
  0
LINE
  5
1592
  8
DETAIL
  6
DASHED
 62
     5
 10
-14.779902999999999
 20
-12.48302699999998
 30
0.0
 11
-4.5222259999999981
 21
-12.48302699999998
 31
0.0
  0
LINE
  5
1593
  8
DETAIL
  6
CONTINUOUS
 62
     5
 10
-36.550302000000002
 20
-24.580490999999999
 30
0.0
 11
-36.550302000000002
 21
-10.72890099999999
 31
0.0
  0
LINE
  5
1594
  8
DETAIL
  6
CONTINUOUS
 62
     5
 10
-36.550302000000002
 20
-23.967410999999991
 30
0.0
 11
-37.948400999999997
 21
-23.967410999999991
 31
0.0
  0
LINE
  5
1595
  8
DETAIL
  6
CONTINUOUS
 62
     5
 10
-36.550302000000002
 20
-21.372993999999991
 30
0.0
 11
-35.751387999999992
 21
-21.372993999999991
 31
0.0
  0
LINE
  5
1596
  8
DETAIL
  6
CONTINUOUS
 62
     5
 10
-36.550302000000002
 20
-24.580501999999999
 30
0.0
 11
-35.751387999999992
 21
-24.580501999999999
 31
0.0
  0
LINE
  5
1597
  8
DETAIL
  6
CONTINUOUS
 62
     5
 10
-23.063423999999991
 20
-26.866023999999989
 30
0.0
 11
-23.058913
 21
-26.866941999999991
 31
0.0
  0
LINE
  5
1598
  8
DETAIL
  6
CONTINUOUS
 62
     5
 10
-23.058913
 20
-26.866941999999991
 30
0.0
 11
-23.049710000000001
 21
-26.876346000000002
 31
0.0
  0
LINE
  5
1599
  8
DETAIL
  6
CONTINUOUS
 62
     5
 10
-23.049710000000001
 20
-26.876346000000002
 30
0.0
 11
-23.039425000000001
 21
-26.895557
 31
0.0
  0
LINE
  5
159A
  8
DETAIL
  6
CONTINUOUS
 62
     5
 10
-23.039425000000001
 20
-26.895557
 30
0.0
 11
-23.028264
 21
-26.924187
 31
0.0
  0
LINE
  5
159B
  8
DETAIL
  6
CONTINUOUS
 62
     5
 10
-23.028264
 20
-26.924187
 30
0.0
 11
-23.016455000000001
 21
-26.961655
 31
0.0
  0
LINE
  5
159C
  8
DETAIL
  6
CONTINUOUS
 62
     5
 10
-23.016455000000001
 20
-26.961655
 30
0.0
 11
-23.004235999999992
 21
-27.007201999999999
 31
0.0
  0
LINE
  5
159D
  8
DETAIL
  6
CONTINUOUS
 62
     5
 10
-23.004235999999992
 20
-27.007201999999999
 30
0.0
 11
-22.99185499999999
 21
-27.059908
 31
0.0
  0
LINE
  5
159E
  8
DETAIL
  6
CONTINUOUS
 62
     5
 10
-23.063427999999991
 20
-26.86600399999999
 30
0.0
 11
-22.806424
 21
-26.82557199999999
 31
0.0
  0
LINE
  5
159F
  8
DETAIL
  6
CONTINUOUS
 62
     5
 10
-22.806424
 20
-26.82557199999999
 30
0.0
 11
-22.437407
 21
-26.747678000000001
 31
0.0
  0
LINE
  5
15A0
  8
DETAIL
  6
CONTINUOUS
 62
     5
 10
-22.437407
 20
-26.747678000000001
 30
0.0
 11
-22.073827999999988
 21
-26.646633999999999
 31
0.0
  0
LINE
  5
15A1
  8
DETAIL
  6
CONTINUOUS
 62
     5
 10
-22.073827999999988
 20
-26.646633999999999
 30
0.0
 11
-21.717124999999989
 21
-26.52208499999999
 31
0.0
  0
LINE
  5
15A2
  8
DETAIL
  6
CONTINUOUS
 62
     5
 10
-21.717124999999989
 20
-26.52208499999999
 30
0.0
 11
-21.36910499999998
 21
-26.373685999999999
 31
0.0
  0
LINE
  5
15A3
  8
DETAIL
  6
CONTINUOUS
 62
     5
 10
-21.36910499999998
 20
-26.373685999999999
 30
0.0
 11
-21.031817999999991
 21
-26.201332999999991
 31
0.0
  0
LINE
  5
15A4
  8
DETAIL
  6
CONTINUOUS
 62
     5
 10
-21.031817999999991
 20
-26.201332999999991
 30
0.0
 11
-20.707277999999992
 21
-26.004921
 31
0.0
  0
LINE
  5
15A5
  8
DETAIL
  6
CONTINUOUS
 62
     5
 10
-20.50812899999999
 20
-26.182407000000001
 30
0.0
 11
-20.887339000000001
 21
-26.399695000000001
 31
0.0
  0
LINE
  5
15A6
  8
DETAIL
  6
CONTINUOUS
 62
     5
 10
-20.887339000000001
 20
-26.399695000000001
 30
0.0
 11
-21.284374
 21
-26.589832000000001
 31
0.0
  0
LINE
  5
15A7
  8
DETAIL
  6
CONTINUOUS
 62
     5
 10
-21.284374
 20
-26.589832000000001
 30
0.0
 11
-21.695027
 21
-26.750581
 31
0.0
  0
LINE
  5
15A8
  8
DETAIL
  6
CONTINUOUS
 62
     5
 10
-21.695027
 20
-26.750581
 30
0.0
 11
-22.117895000000001
 21
-26.882595999999999
 31
0.0
  0
LINE
  5
15A9
  8
DETAIL
  6
CONTINUOUS
 62
     5
 10
-22.117895000000001
 20
-26.882595999999999
 30
0.0
 11
-22.54982
 21
-26.985581
 31
0.0
  0
LINE
  5
15AA
  8
DETAIL
  6
CONTINUOUS
 62
     5
 10
-22.54982
 20
-26.985581
 30
0.0
 11
-22.99185499999999
 21
-27.059908
 31
0.0
  0
LINE
  5
15AB
  8
DETAIL
  6
CONTINUOUS
 62
     5
 10
-20.697395
 20
-22.214314000000002
 30
0.0
 11
-20.969505999999988
 21
-22.018460000000001
 31
0.0
  0
LINE
  5
15AC
  8
DETAIL
  6
CONTINUOUS
 62
     5
 10
-20.969505999999988
 20
-22.018460000000001
 30
0.0
 11
-21.256204
 21
-21.839649999999999
 31
0.0
  0
LINE
  5
15AD
  8
DETAIL
  6
CONTINUOUS
 62
     5
 10
-21.256204
 20
-21.839649999999999
 30
0.0
 11
-21.556168
 21
-21.678809000000001
 31
0.0
  0
LINE
  5
15AE
  8
DETAIL
  6
CONTINUOUS
 62
     5
 10
-21.556168
 20
-21.678809000000001
 30
0.0
 11
-21.868030999999998
 21
-21.536743000000001
 31
0.0
  0
LINE
  5
15AF
  8
DETAIL
  6
CONTINUOUS
 62
     5
 10
-21.868030999999998
 20
-21.536743000000001
 30
0.0
 11
-22.190429000000002
 21
-21.414242000000002
 31
0.0
  0
LINE
  5
15B0
  8
DETAIL
  6
CONTINUOUS
 62
     5
 10
-22.190429000000002
 20
-21.414242000000002
 30
0.0
 11
-22.52196799999999
 21
-21.311957
 31
0.0
  0
LINE
  5
15B1
  8
DETAIL
  6
CONTINUOUS
 62
     5
 10
-22.52196799999999
 20
-21.311957
 30
0.0
 11
-22.861363000000001
 21
-21.230495000000001
 31
0.0
  0
LINE
  5
15B2
  8
DETAIL
  6
CONTINUOUS
 62
     5
 10
-22.861363000000001
 20
-21.230495000000001
 30
0.0
 11
-23.093715
 21
-21.187626999999988
 31
0.0
  0
LINE
  5
15B3
  8
DETAIL
  6
CONTINUOUS
 62
     5
 10
-23.089382000000001
 20
-21.185123000000001
 30
0.0
 11
-23.093713000000001
 21
-21.187621
 31
0.0
  0
LINE
  5
15B4
  8
DETAIL
  6
CONTINUOUS
 62
     5
 10
-30.021965000000002
 20
-19.131759999999989
 30
0.0
 11
-30.040832000000002
 21
-19.126415999999981
 31
0.0
  0
LINE
  5
15B5
  8
DETAIL
  6
CONTINUOUS
 62
     5
 10
-30.040832000000002
 20
-19.126415999999981
 30
0.0
 11
-30.068435999999991
 21
-19.109086999999999
 31
0.0
  0
LINE
  5
15B6
  8
DETAIL
  6
CONTINUOUS
 62
     5
 10
-30.068435999999991
 20
-19.109086999999999
 30
0.0
 11
-30.093209999999988
 21
-19.081159
 31
0.0
  0
LINE
  5
15B7
  8
DETAIL
  6
CONTINUOUS
 62
     5
 10
-35.333356999999999
 20
-19.183234999999961
 30
0.0
 11
-35.35843899999999
 21
-19.178435
 31
0.0
  0
LINE
  5
15B8
  8
DETAIL
  6
CONTINUOUS
 62
     5
 10
-35.35843899999999
 20
-19.178435
 30
0.0
 11
-35.41610699999999
 21
-19.162182000000001
 31
0.0
  0
LINE
  5
15B9
  8
DETAIL
  6
CONTINUOUS
 62
     5
 10
-35.41610699999999
 20
-19.162182000000001
 30
0.0
 11
-35.471486999999989
 21
-19.139102999999992
 31
0.0
  0
LINE
  5
15BA
  8
DETAIL
  6
CONTINUOUS
 62
     5
 10
-35.471486999999989
 20
-19.139102999999992
 30
0.0
 11
-35.523924000000001
 21
-19.109401999999982
 31
0.0
  0
LINE
  5
15BB
  8
DETAIL
  6
CONTINUOUS
 62
     5
 10
-35.523924000000001
 20
-19.109401999999982
 30
0.0
 11
-35.572734999999987
 21
-19.073320999999961
 31
0.0
  0
LINE
  5
15BC
  8
DETAIL
  6
CONTINUOUS
 62
     5
 10
-35.572734999999987
 20
-19.073320999999961
 30
0.0
 11
-35.617078999999997
 21
-19.031292999999991
 31
0.0
  0
LINE
  5
15BD
  8
DETAIL
  6
CONTINUOUS
 62
     5
 10
-35.617078999999997
 20
-19.031292999999991
 30
0.0
 11
-35.656207000000002
 21
-18.983820000000001
 31
0.0
  0
LINE
  5
15BE
  8
DETAIL
  6
CONTINUOUS
 62
     5
 10
-35.656207000000002
 20
-18.983820000000001
 30
0.0
 11
-35.68941199999999
 21
-18.931513999999961
 31
0.0
  0
LINE
  5
15BF
  8
DETAIL
  6
CONTINUOUS
 62
     5
 10
-35.68941199999999
 20
-18.931513999999961
 30
0.0
 11
-35.716059000000001
 21
-18.875056000000001
 31
0.0
  0
LINE
  5
15C0
  8
DETAIL
  6
CONTINUOUS
 62
     5
 10
-35.716059000000001
 20
-18.875056000000001
 30
0.0
 11
-35.735540999999991
 21
-18.815375
 31
0.0
  0
LINE
  5
15C1
  8
DETAIL
  6
CONTINUOUS
 62
     5
 10
-29.201578000000001
 20
-20.19136
 30
0.0
 11
-35.333384000000002
 21
-19.183230999999999
 31
0.0
  0
LINE
  5
15C2
  8
DETAIL
  6
CONTINUOUS
 62
     5
 10
-23.093713000000001
 20
-21.187621
 30
0.0
 11
-29.201578000000001
 21
-20.19136
 31
0.0
  0
LINE
  5
15C3
  8
DETAIL
  6
CONTINUOUS
 62
     5
 10
-30.022003999999988
 20
-19.131752999999961
 30
0.0
 11
-32.764707000000001
 21
-18.693404999999991
 31
0.0
  0
LINE
  5
15C4
  8
DETAIL
  6
CONTINUOUS
 62
     5
 10
-29.947561999999991
 20
-17.847674999999999
 30
0.0
 11
-32.211739000000001
 21
-17.522576000000001
 31
0.0
  0
LINE
  5
15C5
  8
DETAIL
  6
CONTINUOUS
 62
     5
 10
-30.021951000000001
 20
-19.131761999999991
 30
0.0
 11
-29.98751699999999
 21
-19.136039999999991
 31
0.0
  0
LINE
  5
15C6
  8
DETAIL
  6
CONTINUOUS
 62
     5
 10
-29.98751699999999
 20
-19.136039999999991
 30
0.0
 11
-29.948651000000002
 21
-19.137981
 31
0.0
  0
LINE
  5
15C7
  8
DETAIL
  6
CONTINUOUS
 62
     5
 10
-35.243352999999999
 20
-24.762913000000001
 30
0.0
 11
-23.346088999999999
 21
-24.555246
 31
0.0
  0
LINE
  5
15C8
  8
DETAIL
  6
CONTINUOUS
 62
     5
 10
-22.99185499999999
 20
-27.059908
 30
0.0
 11
-26.763608999999999
 21
-27.562844999999999
 31
0.0
  0
LINE
  5
15C9
  8
DETAIL
  6
CONTINUOUS
 62
     5
 10
-26.763608999999999
 20
-27.365172999999999
 30
0.0
 11
-23.063423999999991
 21
-26.866023999999989
 31
0.0
  0
LINE
  5
15CA
  8
DETAIL
  6
CONTINUOUS
 62
     5
 10
-32.211739000000001
 20
-17.522576000000001
 30
0.0
 11
-32.312905999999991
 21
-17.525019
 31
0.0
  0
LINE
  5
15CB
  8
DETAIL
  6
CONTINUOUS
 62
     5
 10
-32.312905999999991
 20
-17.525019
 30
0.0
 11
-32.40927199999998
 21
-17.530142999999999
 31
0.0
  0
LINE
  5
15CC
  8
DETAIL
  6
CONTINUOUS
 62
     5
 10
-32.40927199999998
 20
-17.530142999999999
 30
0.0
 11
-32.50077799999999
 21
-17.538101000000001
 31
0.0
  0
LINE
  5
15CD
  8
DETAIL
  6
CONTINUOUS
 62
     5
 10
-32.50077799999999
 20
-17.538101000000001
 30
0.0
 11
-32.58759899999999
 21
-17.548431000000001
 31
0.0
  0
LINE
  5
15CE
  8
DETAIL
  6
CONTINUOUS
 62
     5
 10
-32.58759899999999
 20
-17.548431000000001
 30
0.0
 11
-32.66979899999999
 21
-17.560762
 31
0.0
  0
LINE
  5
15CF
  8
DETAIL
  6
CONTINUOUS
 62
     5
 10
-32.66979899999999
 20
-17.560762
 30
0.0
 11
-32.747655999999999
 21
-17.574971999999981
 31
0.0
  0
LINE
  5
15D0
  8
DETAIL
  6
CONTINUOUS
 62
     5
 10
-32.747655999999999
 20
-17.574971999999981
 30
0.0
 11
-32.821379
 21
-17.590821999999989
 31
0.0
  0
LINE
  5
15D1
  8
DETAIL
  6
CONTINUOUS
 62
     5
 10
-32.821379
 20
-17.590821999999989
 30
0.0
 11
-32.891241999999991
 21
-17.608294999999991
 31
0.0
  0
LINE
  5
15D2
  8
DETAIL
  6
CONTINUOUS
 62
     5
 10
-32.891241999999991
 20
-17.608294999999991
 30
0.0
 11
-32.957490999999997
 21
-17.627253
 31
0.0
  0
LINE
  5
15D3
  8
DETAIL
  6
CONTINUOUS
 62
     5
 10
-32.957490999999997
 20
-17.627253
 30
0.0
 11
-33.020408000000003
 21
-17.647824
 31
0.0
  0
LINE
  5
15D4
  8
DETAIL
  6
CONTINUOUS
 62
     5
 10
-33.020408000000003
 20
-17.647824
 30
0.0
 11
-33.080432999999999
 21
-17.670059999999999
 31
0.0
  0
LINE
  5
15D5
  8
DETAIL
  6
CONTINUOUS
 62
     5
 10
-33.080432999999999
 20
-17.670059999999999
 30
0.0
 11
-33.137338
 21
-17.694044999999999
 31
0.0
  0
LINE
  5
15D6
  8
DETAIL
  6
CONTINUOUS
 62
     5
 10
-33.137338
 20
-17.694044999999999
 30
0.0
 11
-33.191333
 21
-17.719971999999991
 31
0.0
  0
LINE
  5
15D7
  8
DETAIL
  6
CONTINUOUS
 62
     5
 10
-33.191333
 20
-17.719971999999991
 30
0.0
 11
-33.241553000000003
 21
-17.747562999999989
 31
0.0
  0
LINE
  5
15D8
  8
DETAIL
  6
CONTINUOUS
 62
     5
 10
-33.241553000000003
 20
-17.747562999999989
 30
0.0
 11
-33.28723699999999
 21
-17.776567
 31
0.0
  0
LINE
  5
15D9
  8
DETAIL
  6
CONTINUOUS
 62
     5
 10
-33.28723699999999
 20
-17.776567
 30
0.0
 11
-33.32828099999999
 21
-17.807089999999992
 31
0.0
  0
LINE
  5
15DA
  8
DETAIL
  6
CONTINUOUS
 62
     5
 10
-33.32828099999999
 20
-17.807089999999992
 30
0.0
 11
-33.36450399999999
 21
-17.839148000000002
 31
0.0
  0
LINE
  5
15DB
  8
DETAIL
  6
CONTINUOUS
 62
     5
 10
-33.36450399999999
 20
-17.839148000000002
 30
0.0
 11
-33.395369999999993
 21
-17.872752999999999
 31
0.0
  0
LINE
  5
15DC
  8
DETAIL
  6
CONTINUOUS
 62
     5
 10
-33.395369999999993
 20
-17.872752999999999
 30
0.0
 11
-33.420540000000003
 21
-17.908127
 31
0.0
  0
LINE
  5
15DD
  8
DETAIL
  6
CONTINUOUS
 62
     5
 10
-33.420540000000003
 20
-17.908127
 30
0.0
 11
-33.439233999999992
 21
-17.944649999999982
 31
0.0
  0
LINE
  5
15DE
  8
DETAIL
  6
CONTINUOUS
 62
     5
 10
-33.439233999999992
 20
-17.944649999999982
 30
0.0
 11
-33.450445999999999
 21
-17.981710999999979
 31
0.0
  0
LINE
  5
15DF
  8
DETAIL
  6
CONTINUOUS
 62
     5
 10
-33.450445999999999
 20
-17.981710999999979
 30
0.0
 11
-33.454510999999997
 21
-18.019512999999961
 31
0.0
  0
LINE
  5
15E0
  8
DETAIL
  6
CONTINUOUS
 62
     5
 10
-29.947561
 20
-17.847676
 30
0.0
 11
-29.976744
 21
-17.871532999999989
 31
0.0
  0
LINE
  5
15E1
  8
DETAIL
  6
CONTINUOUS
 62
     5
 10
-26.763608999999999
 20
-30.329498999999998
 30
0.0
 11
-26.772120000000001
 21
-30.469507
 31
0.0
  0
LINE
  5
15E2
  8
DETAIL
  6
CONTINUOUS
 62
     5
 10
-26.772120000000001
 20
-30.469507
 30
0.0
 11
-26.797374999999992
 21
-30.606180999999999
 31
0.0
  0
LINE
  5
15E3
  8
DETAIL
  6
CONTINUOUS
 62
     5
 10
-26.797374999999992
 20
-30.606180999999999
 30
0.0
 11
-26.839103999999999
 21
-30.738381
 31
0.0
  0
LINE
  5
15E4
  8
DETAIL
  6
CONTINUOUS
 62
     5
 10
-26.839103999999999
 20
-30.738381
 30
0.0
 11
-26.896840999999998
 21
-30.865067
 31
0.0
  0
LINE
  5
15E5
  8
DETAIL
  6
CONTINUOUS
 62
     5
 10
-26.896840999999998
 20
-30.865067
 30
0.0
 11
-26.970022
 21
-30.985617999999999
 31
0.0
  0
LINE
  5
15E6
  8
DETAIL
  6
CONTINUOUS
 62
     5
 10
-26.970022
 20
-30.985617999999999
 30
0.0
 11
-27.057894999999991
 21
-31.099270000000001
 31
0.0
  0
LINE
  5
15E7
  8
DETAIL
  6
CONTINUOUS
 62
     5
 10
-27.057894999999991
 20
-31.099270000000001
 30
0.0
 11
-27.159800000000001
 21
-31.205708999999999
 31
0.0
  0
LINE
  5
15E8
  8
DETAIL
  6
CONTINUOUS
 62
     5
 10
-26.763608999999999
 20
-24.614899000000001
 30
0.0
 11
-26.763608999999999
 21
-30.327297999999999
 31
0.0
  0
LINE
  5
15E9
  8
DETAIL
  6
CONTINUOUS
 62
     5
 10
-29.948651000000002
 20
-19.137981
 30
0.0
 11
-29.948899000000001
 21
-19.133973000000001
 31
0.0
  0
LINE
  5
15EA
  8
DETAIL
  6
CONTINUOUS
 62
     5
 10
-29.948899000000001
 20
-19.133973000000001
 30
0.0
 11
-29.949089000000001
 21
-19.118998999999992
 31
0.0
  0
LINE
  5
15EB
  8
DETAIL
  6
CONTINUOUS
 62
     5
 10
-29.949089000000001
 20
-19.118998999999992
 30
0.0
 11
-29.949169999999999
 21
-19.093249
 31
0.0
  0
LINE
  5
15EC
  8
DETAIL
  6
CONTINUOUS
 62
     5
 10
-33.454510999999997
 20
-18.286049999999982
 30
0.0
 11
-33.454510999999997
 21
-18.019512999999961
 31
0.0
  0
LINE
  5
15ED
  8
DETAIL
  6
CONTINUOUS
 62
     5
 10
-33.454510999999997
 20
-18.286049999999982
 30
0.0
 11
-33.451161999999989
 21
-18.320524999999961
 31
0.0
  0
LINE
  5
15EE
  8
DETAIL
  6
CONTINUOUS
 62
     5
 10
-33.451161999999989
 20
-18.320524999999961
 30
0.0
 11
-33.441482000000001
 21
-18.354354999999991
 31
0.0
  0
LINE
  5
15EF
  8
DETAIL
  6
CONTINUOUS
 62
     5
 10
-33.441482000000001
 20
-18.354354999999991
 30
0.0
 11
-33.425235000000001
 21
-18.387744000000001
 31
0.0
  0
LINE
  5
15F0
  8
DETAIL
  6
CONTINUOUS
 62
     5
 10
-33.425235000000001
 20
-18.387744000000001
 30
0.0
 11
-33.403131999999999
 21
-18.420083999999999
 31
0.0
  0
LINE
  5
15F1
  8
DETAIL
  6
CONTINUOUS
 62
     5
 10
-33.403131999999999
 20
-18.420083999999999
 30
0.0
 11
-33.375675000000001
 21
-18.450790999999992
 31
0.0
  0
LINE
  5
15F2
  8
DETAIL
  6
CONTINUOUS
 62
     5
 10
-33.375675000000001
 20
-18.450790999999992
 30
0.0
 11
-33.343254999999999
 21
-18.479994000000001
 31
0.0
  0
LINE
  5
15F3
  8
DETAIL
  6
CONTINUOUS
 62
     5
 10
-33.343254999999999
 20
-18.479994000000001
 30
0.0
 11
-33.306342999999991
 21
-18.507621
 31
0.0
  0
LINE
  5
15F4
  8
DETAIL
  6
CONTINUOUS
 62
     5
 10
-33.306342999999991
 20
-18.507621
 30
0.0
 11
-33.26520099999999
 21
-18.533688000000001
 31
0.0
  0
LINE
  5
15F5
  8
DETAIL
  6
CONTINUOUS
 62
     5
 10
-33.26520099999999
 20
-18.533688000000001
 30
0.0
 11
-33.21999799999999
 21
-18.558247999999981
 31
0.0
  0
LINE
  5
15F6
  8
DETAIL
  6
CONTINUOUS
 62
     5
 10
-33.21999799999999
 20
-18.558247999999981
 30
0.0
 11
-33.171486999999999
 21
-18.581112999999998
 31
0.0
  0
LINE
  5
15F7
  8
DETAIL
  6
CONTINUOUS
 62
     5
 10
-33.171486999999999
 20
-18.581112999999998
 30
0.0
 11
-33.120564000000002
 21
-18.602032000000001
 31
0.0
  0
LINE
  5
15F8
  8
DETAIL
  6
CONTINUOUS
 62
     5
 10
-33.120564000000002
 20
-18.602032000000001
 30
0.0
 11
-33.066965000000003
 21
-18.621245999999982
 31
0.0
  0
LINE
  5
15F9
  8
DETAIL
  6
CONTINUOUS
 62
     5
 10
-33.066965000000003
 20
-18.621245999999982
 30
0.0
 11
-33.010804999999991
 21
-18.638902999999981
 31
0.0
  0
LINE
  5
15FA
  8
DETAIL
  6
CONTINUOUS
 62
     5
 10
-33.010804999999991
 20
-18.638902999999981
 30
0.0
 11
-32.951832000000003
 21
-18.655037
 31
0.0
  0
LINE
  5
15FB
  8
DETAIL
  6
CONTINUOUS
 62
     5
 10
-32.951832000000003
 20
-18.655037
 30
0.0
 11
-32.889881000000003
 21
-18.669757000000001
 31
0.0
  0
LINE
  5
15FC
  8
DETAIL
  6
CONTINUOUS
 62
     5
 10
-32.889881000000003
 20
-18.669757000000001
 30
0.0
 11
-32.824798000000001
 21
-18.682986
 31
0.0
  0
LINE
  5
15FD
  8
DETAIL
  6
CONTINUOUS
 62
     5
 10
-32.824798000000001
 20
-18.682986
 30
0.0
 11
-32.764707999999999
 21
-18.693410999999969
 31
0.0
  0
LINE
  5
15FE
  8
DETAIL
  6
CONTINUOUS
 62
     5
 10
-35.320870999999997
 20
-19.162810999999991
 30
0.0
 11
-35.326839
 21
-19.176517
 31
0.0
  0
LINE
  5
15FF
  8
DETAIL
  6
CONTINUOUS
 62
     5
 10
-35.326839
 20
-19.176517
 30
0.0
 11
-35.331732000000002
 21
-19.182814
 31
0.0
  0
LINE
  5
1600
  8
DETAIL
  6
CONTINUOUS
 62
     5
 10
-35.331732000000002
 20
-19.182814
 30
0.0
 11
-35.333320000000001
 21
-19.183241999999961
 31
0.0
  0
ARC
  5
1601
  8
DETAIL
  6
CONTINUOUS
 62
     5
 10
-35.252066999999997
 20
-24.263667999999999
 30
0.0
 40
0.4993210000000003
 50
187.582112
 51
271.00000999999992
  0
ARC
  5
1602
  8
DETAIL
  6
CONTINUOUS
 62
     5
 10
-36.001049000000002
 20
-23.49808299999998
 30
0.0
 40
0.7489819999999999
 50
218.81216800000001
 51
222.74372799999969
  0
ARC
  5
1603
  8
DETAIL
  6
CONTINUOUS
 62
     5
 10
-38.447721999999992
 20
-23.499320999999991
 30
0.0
 40
0.4993210000000003
 50
0.0
 51
90.0
  0
LINE
  5
1604
  8
DETAIL
  6
CONTINUOUS
 62
     5
 10
-36.592024000000002
 20
-10.680647
 30
0.0
 11
-37.948400999999997
 21
-10.680647
 31
0.0
  0
ARC
  5
1605
  8
DETAIL
  6
CONTINUOUS
 62
     5
 10
-36.001049000000002
 20
-10.221272000000001
 30
0.0
 40
0.7489819999999999
 50
90.0
 51
270.0
  0
ARC
  5
1606
  8
DETAIL
  6
CONTINUOUS
 62
     5
 10
-36.001049000000002
 20
-7.506039999999996
 30
0.0
 40
0.7489819999999999
 50
90.0
 51
270.0
  0
LINE
  5
1607
  8
DETAIL
  6
CONTINUOUS
 62
     5
 10
-23.080964999999988
 20
-7.8269229999999981
 30
0.0
 11
-22.815480999999991
 21
-7.7738459999999989
 31
0.0
  0
LINE
  5
1608
  8
DETAIL
  6
CONTINUOUS
 62
     5
 10
-22.815480999999991
 20
-7.7738459999999989
 30
0.0
 11
-22.445937000000001
 21
-7.6748089999999989
 31
0.0
  0
LINE
  5
1609
  8
DETAIL
  6
CONTINUOUS
 62
     5
 10
-22.445937000000001
 20
-7.6748089999999989
 30
0.0
 11
-22.088269
 21
-7.5494589999999988
 31
0.0
  0
LINE
  5
160A
  8
DETAIL
  6
CONTINUOUS
 62
     5
 10
-22.088269
 20
-7.5494589999999988
 30
0.0
 11
-21.740380999999999
 21
-7.3975470000000003
 31
0.0
  0
LINE
  5
160B
  8
DETAIL
  6
CONTINUOUS
 62
     5
 10
-21.740380999999999
 20
-7.3975470000000003
 30
0.0
 11
-21.401679999999999
 21
-7.2184399999999984
 31
0.0
  0
LINE
  5
160C
  8
DETAIL
  6
CONTINUOUS
 62
     5
 10
-21.401679999999999
 20
-7.2184399999999984
 30
0.0
 11
-21.072050999999991
 21
-7.0112050000000004
 31
0.0
  0
LINE
  5
160D
  8
DETAIL
  6
CONTINUOUS
 62
     5
 10
-21.072050999999991
 20
-7.0112050000000004
 30
0.0
 11
-20.751664000000002
 21
-6.7743229999999981
 31
0.0
  0
LINE
  5
160E
  8
DETAIL
  6
CONTINUOUS
 62
     5
 10
-23.080960000000001
 20
-7.8269520000000004
 30
0.0
 11
-23.081572000000001
 21
-7.8273369999999982
 31
0.0
  0
LINE
  5
160F
  8
DETAIL
  6
CONTINUOUS
 62
     5
 10
-23.081572000000001
 20
-7.8273369999999982
 30
0.0
 11
-23.083123999999991
 21
-7.835121
 31
0.0
  0
LINE
  5
1610
  8
DETAIL
  6
CONTINUOUS
 62
     5
 10
-25.439900000000002
 20
-8.2056950000000004
 30
0.0
 11
-25.436682000000001
 21
-8.2319960000000005
 31
0.0
  0
LINE
  5
1611
  8
DETAIL
  6
CONTINUOUS
 62
     5
 10
-31.932869
 20
-9.3428509999999996
 30
0.0
 11
-27.497354999999992
 21
-8.5854169999999979
 31
0.0
  0
LINE
  5
1612
  8
DETAIL
  6
CONTINUOUS
 62
     5
 10
-27.497354999999992
 20
-8.5854169999999979
 30
0.0
 11
-23.080957999999988
 21
-7.8269520000000004
 31
0.0
  0
LINE
  5
1613
  8
DETAIL
  6
CONTINUOUS
 62
     5
 10
-30.022127000000001
 20
-12.841417
 30
0.0
 11
-30.032411
 21
-12.839095
 31
0.0
  0
LINE
  5
1614
  8
DETAIL
  6
CONTINUOUS
 62
     5
 10
-30.032411
 20
-12.839095
 30
0.0
 11
-30.058101000000001
 21
-12.826822999999999
 31
0.0
  0
LINE
  5
1615
  8
DETAIL
  6
CONTINUOUS
 62
     5
 10
-30.058101000000001
 20
-12.826822999999999
 30
0.0
 11
-30.081681
 21
-12.80578
 31
0.0
  0
LINE
  5
1616
  8
DETAIL
  6
CONTINUOUS
 62
     5
 10
-30.022152999999999
 20
-12.84141299999999
 30
0.0
 11
-32.624860999999981
 21
-12.424621999999999
 31
0.0
  0
LINE
  5
1617
  8
DETAIL
  6
CONTINUOUS
 62
     5
 10
-30.022127000000001
 20
-12.84141799999999
 30
0.0
 11
-30.010591999999999
 21
-12.843126
 31
0.0
  0
LINE
  5
1618
  8
DETAIL
  6
CONTINUOUS
 62
     5
 10
-30.010591999999999
 20
-12.843126
 30
0.0
 11
-29.973352999999989
 21
-12.846783
 31
0.0
  0
LINE
  5
1619
  8
DETAIL
  6
CONTINUOUS
 62
     5
 10
-29.973352999999989
 20
-12.846783
 30
0.0
 11
-29.948846
 21
-12.847661999999991
 31
0.0
  0
LINE
  5
161A
  8
DETAIL
  6
CONTINUOUS
 62
     5
 10
-29.947561999999991
 20
-11.542413
 30
0.0
 11
-32.361373999999998
 21
-11.196585000000001
 31
0.0
  0
LINE
  5
161B
  8
DETAIL
  6
CONTINUOUS
 62
     5
 10
-35.729627000000001
 20
-6.757058999999999
 30
0.0
 11
-35.724603000000002
 21
-6.757579999999999
 31
0.0
  0
LINE
  5
161C
  8
DETAIL
  6
CONTINUOUS
 62
     5
 10
-35.724603000000002
 20
-6.757579999999999
 30
0.0
 11
-35.718271000000001
 21
-6.7596410000000002
 31
0.0
  0
LINE
  5
161D
  8
DETAIL
  6
CONTINUOUS
 62
     5
 10
-35.718271000000001
 20
-6.7596410000000002
 30
0.0
 11
-35.711725999999999
 21
-6.7633739999999971
 31
0.0
  0
LINE
  5
161E
  8
DETAIL
  6
CONTINUOUS
 62
     5
 10
-35.711725999999999
 20
-6.7633739999999971
 30
0.0
 11
-35.705197999999989
 21
-6.768942
 31
0.0
  0
LINE
  5
161F
  8
DETAIL
  6
CONTINUOUS
 62
     5
 10
-35.705197999999989
 20
-6.768942
 30
0.0
 11
-35.698830999999998
 21
-6.7765570000000004
 31
0.0
  0
LINE
  5
1620
  8
DETAIL
  6
CONTINUOUS
 62
     5
 10
-35.698830999999998
 20
-6.7765570000000004
 30
0.0
 11
-35.692993999999999
 21
-6.7865000000000002
 31
0.0
  0
LINE
  5
1621
  8
DETAIL
  6
CONTINUOUS
 62
     5
 10
-35.692993999999999
 20
-6.7865000000000002
 30
0.0
 11
-35.687933000000001
 21
-6.7991070000000011
 31
0.0
  0
LINE
  5
1622
  8
DETAIL
  6
CONTINUOUS
 62
     5
 10
-35.687933000000001
 20
-6.7991070000000011
 30
0.0
 11
-35.684162999999991
 21
-6.8148070000000001
 31
0.0
  0
LINE
  5
1623
  8
DETAIL
  6
CONTINUOUS
 62
     5
 10
-35.684162999999991
 20
-6.8148070000000001
 30
0.0
 11
-35.682127000000001
 21
-6.8341310000000002
 31
0.0
  0
LINE
  5
1624
  8
DETAIL
  6
CONTINUOUS
 62
     5
 10
-35.682127000000001
 20
-6.8341310000000002
 30
0.0
 11
-35.682277999999982
 21
-6.8575549999999987
 31
0.0
  0
LINE
  5
1625
  8
DETAIL
  6
CONTINUOUS
 62
     5
 10
-35.682277999999982
 20
-6.8575549999999987
 30
0.0
 11
-35.68529199999999
 21
-6.8856739999999981
 31
0.0
  0
LINE
  5
1626
  8
DETAIL
  6
CONTINUOUS
 62
     5
 10
-35.68529199999999
 20
-6.8856739999999981
 30
0.0
 11
-35.690944999999999
 21
-6.9188710000000002
 31
0.0
  0
LINE
  5
1627
  8
DETAIL
  6
CONTINUOUS
 62
     5
 10
-35.751387999999992
 20
-10.970253
 30
0.0
 11
-36.001049000000002
 21
-10.970253
 31
0.0
  0
LINE
  5
1628
  8
DETAIL
  6
CONTINUOUS
 62
     5
 10
-35.751387999999992
 20
-9.4722899999999992
 30
0.0
 11
-36.001049000000002
 21
-9.4722899999999992
 31
0.0
  0
LINE
  5
1629
  8
DETAIL
  6
CONTINUOUS
 62
     5
 10
-35.751387999999992
 20
-8.2550220000000003
 30
0.0
 11
-36.001049000000002
 21
-8.2550220000000003
 31
0.0
  0
LINE
  5
162A
  8
DETAIL
  6
CONTINUOUS
 62
     5
 10
-35.729559000000002
 20
-6.757058999999999
 30
0.0
 11
-36.001049000000002
 21
-6.757058999999999
 31
0.0
  0
LINE
  5
162B
  8
DETAIL
  6
CONTINUOUS
 62
     5
 10
-32.361373999999998
 20
-11.196585000000001
 30
0.0
 11
-32.447633000000003
 21
-11.198504
 31
0.0
  0
LINE
  5
162C
  8
DETAIL
  6
CONTINUOUS
 62
     5
 10
-32.447633000000003
 20
-11.198504
 30
0.0
 11
-32.530256999999999
 21
-11.202638
 31
0.0
  0
LINE
  5
162D
  8
DETAIL
  6
CONTINUOUS
 62
     5
 10
-32.530256999999999
 20
-11.202638
 30
0.0
 11
-32.609223
 21
-11.209076
 31
0.0
  0
LINE
  5
162E
  8
DETAIL
  6
CONTINUOUS
 62
     5
 10
-32.609223
 20
-11.209076
 30
0.0
 11
-32.684603000000003
 21
-11.217547
 31
0.0
  0
LINE
  5
162F
  8
DETAIL
  6
CONTINUOUS
 62
     5
 10
-32.684603000000003
 20
-11.217547
 30
0.0
 11
-32.756408
 21
-11.227834
 31
0.0
  0
LINE
  5
1630
  8
DETAIL
  6
CONTINUOUS
 62
     5
 10
-32.756408
 20
-11.227834
 30
0.0
 11
-32.824798999999999
 21
-11.23985899999998
 31
0.0
  0
LINE
  5
1631
  8
DETAIL
  6
CONTINUOUS
 62
     5
 10
-32.824798999999999
 20
-11.23985899999998
 30
0.0
 11
-32.889882
 21
-11.25347199999999
 31
0.0
  0
LINE
  5
1632
  8
DETAIL
  6
CONTINUOUS
 62
     5
 10
-32.889882
 20
-11.25347199999999
 30
0.0
 11
-32.951833000000001
 21
-11.268677
 31
0.0
  0
LINE
  5
1633
  8
DETAIL
  6
CONTINUOUS
 62
     5
 10
-32.951833000000001
 20
-11.268677
 30
0.0
 11
-33.010806000000002
 21
-11.285389
 31
0.0
  0
LINE
  5
1634
  8
DETAIL
  6
CONTINUOUS
 62
     5
 10
-33.010806000000002
 20
-11.285389
 30
0.0
 11
-33.066965000000003
 21
-11.303720999999991
 31
0.0
  0
LINE
  5
1635
  8
DETAIL
  6
CONTINUOUS
 62
     5
 10
-33.066965000000003
 20
-11.303720999999991
 30
0.0
 11
-33.120564999999999
 21
-11.32370899999999
 31
0.0
  0
LINE
  5
1636
  8
DETAIL
  6
CONTINUOUS
 62
     5
 10
-33.120564999999999
 20
-11.32370899999999
 30
0.0
 11
-33.171486999999999
 21
-11.34550399999998
 31
0.0
  0
LINE
  5
1637
  8
DETAIL
  6
CONTINUOUS
 62
     5
 10
-33.171486999999999
 20
-11.34550399999998
 30
0.0
 11
-33.219999000000001
 21
-11.36936
 31
0.0
  0
LINE
  5
1638
  8
DETAIL
  6
CONTINUOUS
 62
     5
 10
-33.219999000000001
 20
-11.36936
 30
0.0
 11
-33.26520099999999
 21
-11.39501499999999
 31
0.0
  0
LINE
  5
1639
  8
DETAIL
  6
CONTINUOUS
 62
     5
 10
-33.26520099999999
 20
-11.39501499999999
 30
0.0
 11
-33.306342999999991
 21
-11.422271
 31
0.0
  0
LINE
  5
163A
  8
DETAIL
  6
CONTINUOUS
 62
     5
 10
-33.306342999999991
 20
-11.422271
 30
0.0
 11
-33.343254999999999
 21
-11.45118599999997
 31
0.0
  0
LINE
  5
163B
  8
DETAIL
  6
CONTINUOUS
 62
     5
 10
-33.343254999999999
 20
-11.45118599999997
 30
0.0
 11
-33.375675000000001
 21
-11.481774
 31
0.0
  0
LINE
  5
163C
  8
DETAIL
  6
CONTINUOUS
 62
     5
 10
-33.375675000000001
 20
-11.481774
 30
0.0
 11
-33.403131999999999
 21
-11.513960000000001
 31
0.0
  0
LINE
  5
163D
  8
DETAIL
  6
CONTINUOUS
 62
     5
 10
-33.403131999999999
 20
-11.513960000000001
 30
0.0
 11
-33.425235000000001
 21
-11.54788099999999
 31
0.0
  0
LINE
  5
163E
  8
DETAIL
  6
CONTINUOUS
 62
     5
 10
-33.425235000000001
 20
-11.54788099999999
 30
0.0
 11
-33.441482999999998
 21
-11.58292199999997
 31
0.0
  0
LINE
  5
163F
  8
DETAIL
  6
CONTINUOUS
 62
     5
 10
-33.441482999999998
 20
-11.58292199999997
 30
0.0
 11
-33.451161999999989
 21
-11.618444999999991
 31
0.0
  0
LINE
  5
1640
  8
DETAIL
  6
CONTINUOUS
 62
     5
 10
-33.451161999999989
 20
-11.618444999999991
 30
0.0
 11
-33.454510999999997
 21
-11.654662999999999
 31
0.0
  0
LINE
  5
1641
  8
DETAIL
  6
CONTINUOUS
 62
     5
 10
-35.654485999999991
 20
-6.866776999999999
 30
0.0
 11
-35.690939999999991
 21
-6.9188529999999986
 31
0.0
  0
LINE
  5
1642
  8
DETAIL
  6
CONTINUOUS
 62
     5
 10
-35.327890999999987
 20
-9.8928189999999994
 30
0.0
 11
-34.238618000000002
 21
-9.7225049999999982
 31
0.0
  0
LINE
  5
1643
  8
DETAIL
  6
CONTINUOUS
 62
     5
 10
-34.238618000000002
 20
-9.7225049999999982
 30
0.0
 11
-33.02565899999999
 21
-9.5260079999999991
 31
0.0
  0
LINE
  5
1644
  8
DETAIL
  6
CONTINUOUS
 62
     5
 10
-33.02565899999999
 20
-9.5260079999999991
 30
0.0
 11
-31.932869
 21
-9.3428520000000006
 31
0.0
  0
LINE
  5
1645
  8
DETAIL
  6
CONTINUOUS
 62
     5
 10
-35.364815
 20
-9.8999249999999996
 30
0.0
 11
-35.327877000000001
 21
-9.8928180000000001
 31
0.0
  0
LINE
  5
1646
  8
DETAIL
  6
CONTINUOUS
 62
     5
 10
-29.948846
 20
-12.847661999999991
 30
0.0
 11
-29.949054999999991
 21
-12.84581
 31
0.0
  0
LINE
  5
1647
  8
DETAIL
  6
CONTINUOUS
 62
     5
 10
-29.949054999999991
 20
-12.84581
 30
0.0
 11
-29.949342999999999
 21
-12.83535599999999
 31
0.0
  0
LINE
  5
1648
  8
DETAIL
  6
CONTINUOUS
 62
     5
 10
-29.949342999999999
 20
-12.83535599999999
 30
0.0
 11
-29.949525000000001
 21
-12.815861
 31
0.0
  0
LINE
  5
1649
  8
DETAIL
  6
CONTINUOUS
 62
     5
 10
-29.947561
 20
-11.54241399999998
 30
0.0
 11
-29.979862000000001
 21
-11.569366999999991
 31
0.0
  0
LINE
  5
164A
  8
DETAIL
  6
CONTINUOUS
 62
     5
 10
-35.745103
 20
-3.7414610000000001
 30
0.0
 11
-35.750692999999998
 21
-3.809307
 31
0.0
  0
LINE
  5
164B
  8
DETAIL
  6
CONTINUOUS
 62
     5
 10
-35.745103
 20
-3.509536999999999
 30
0.0
 11
-35.751387999999992
 21
-3.5858189999999981
 31
0.0
  0
LINE
  5
164C
  8
DETAIL
  6
CONTINUOUS
 62
     5
 10
-35.751387999999992
 20
-10.38634999999999
 30
0.0
 11
-35.747714999999999
 21
-10.325900000000001
 31
0.0
  0
LINE
  5
164D
  8
DETAIL
  6
CONTINUOUS
 62
     5
 10
-35.747714999999999
 20
-10.325900000000001
 30
0.0
 11
-35.736868999999999
 21
-10.266813999999981
 31
0.0
  0
LINE
  5
164E
  8
DETAIL
  6
CONTINUOUS
 62
     5
 10
-35.736868999999999
 20
-10.266813999999981
 30
0.0
 11
-35.719440999999989
 21
-10.210614
 31
0.0
  0
LINE
  5
164F
  8
DETAIL
  6
CONTINUOUS
 62
     5
 10
-35.719440999999989
 20
-10.210614
 30
0.0
 11
-35.695535999999983
 21
-10.156879
 31
0.0
  0
LINE
  5
1650
  8
DETAIL
  6
CONTINUOUS
 62
     5
 10
-35.695535999999983
 20
-10.156879
 30
0.0
 11
-35.664844000000002
 21
-10.105392999999999
 31
0.0
  0
LINE
  5
1651
  8
DETAIL
  6
CONTINUOUS
 62
     5
 10
-35.664844000000002
 20
-10.105392999999999
 30
0.0
 11
-35.62786599999999
 21
-10.05757
 31
0.0
  0
LINE
  5
1652
  8
DETAIL
  6
CONTINUOUS
 62
     5
 10
-35.62786599999999
 20
-10.05757
 30
0.0
 11
-35.585346999999999
 21
-10.014536
 31
0.0
  0
LINE
  5
1653
  8
DETAIL
  6
CONTINUOUS
 62
     5
 10
-35.585346999999999
 20
-10.014536
 30
0.0
 11
-35.53742299999999
 21
-9.9766019999999997
 31
0.0
  0
LINE
  5
1654
  8
DETAIL
  6
CONTINUOUS
 62
     5
 10
-35.53742299999999
 20
-9.9766019999999997
 30
0.0
 11
-35.484254
 21
-9.9442970000000006
 31
0.0
  0
LINE
  5
1655
  8
DETAIL
  6
CONTINUOUS
 62
     5
 10
-35.484254
 20
-9.9442970000000006
 30
0.0
 11
-35.426518000000002
 21
-9.9184950000000001
 31
0.0
  0
LINE
  5
1656
  8
DETAIL
  6
CONTINUOUS
 62
     5
 10
-35.426518000000002
 20
-9.9184950000000001
 30
0.0
 11
-35.364815
 21
-9.8999249999999996
 31
0.0
  0
LINE
  5
1657
  8
DETAIL
  6
CONTINUOUS
 62
     5
 10
-33.454510999999997
 20
-11.93418
 30
0.0
 11
-33.454510999999997
 21
-11.654662999999999
 31
0.0
  0
LINE
  5
1658
  8
DETAIL
  6
CONTINUOUS
 62
     5
 10
-36.550302000000002
 20
-8.0136699999999976
 30
0.0
 11
-36.550302000000002
 21
-9.7136429999999994
 31
0.0
  0
LINE
  5
1659
  8
DETAIL
  6
CONTINUOUS
 62
     5
 10
-33.454510999999997
 20
-11.93418
 30
0.0
 11
-33.450445000000002
 21
-11.97375899999999
 31
0.0
  0
LINE
  5
165A
  8
DETAIL
  6
CONTINUOUS
 62
     5
 10
-33.450445000000002
 20
-11.97375899999999
 30
0.0
 11
-33.43922899999999
 21
-12.01258
 31
0.0
  0
LINE
  5
165B
  8
DETAIL
  6
CONTINUOUS
 62
     5
 10
-33.43922899999999
 20
-12.01258
 30
0.0
 11
-33.420529999999992
 21
-12.05086099999999
 31
0.0
  0
LINE
  5
165C
  8
DETAIL
  6
CONTINUOUS
 62
     5
 10
-33.420529999999992
 20
-12.05086099999999
 30
0.0
 11
-33.395352000000003
 21
-12.087956
 31
0.0
  0
LINE
  5
165D
  8
DETAIL
  6
CONTINUOUS
 62
     5
 10
-33.395352000000003
 20
-12.087956
 30
0.0
 11
-33.364477999999998
 21
-12.123215999999999
 31
0.0
  0
LINE
  5
165E
  8
DETAIL
  6
CONTINUOUS
 62
     5
 10
-33.364477999999998
 20
-12.123215999999999
 30
0.0
 11
-33.328245000000003
 21
-12.156874
 31
0.0
  0
LINE
  5
165F
  8
DETAIL
  6
CONTINUOUS
 62
     5
 10
-33.328245000000003
 20
-12.156874
 30
0.0
 11
-33.287190000000002
 21
-12.188942000000001
 31
0.0
  0
LINE
  5
1660
  8
DETAIL
  6
CONTINUOUS
 62
     5
 10
-33.287190000000002
 20
-12.188942000000001
 30
0.0
 11
-33.241492000000001
 21
-12.219438999999999
 31
0.0
  0
LINE
  5
1661
  8
DETAIL
  6
CONTINUOUS
 62
     5
 10
-33.241492000000001
 20
-12.219438999999999
 30
0.0
 11
-33.191259000000002
 21
-12.248474
 31
0.0
  0
LINE
  5
1662
  8
DETAIL
  6
CONTINUOUS
 62
     5
 10
-33.191259000000002
 20
-12.248474
 30
0.0
 11
-33.137250999999999
 21
-12.275785000000001
 31
0.0
  0
LINE
  5
1663
  8
DETAIL
  6
CONTINUOUS
 62
     5
 10
-33.137250999999999
 20
-12.275785000000001
 30
0.0
 11
-33.080331999999999
 21
-12.301079
 31
0.0
  0
LINE
  5
1664
  8
DETAIL
  6
CONTINUOUS
 62
     5
 10
-33.080331999999999
 20
-12.301079
 30
0.0
 11
-33.020296000000002
 21
-12.32455999999998
 31
0.0
  0
LINE
  5
1665
  8
DETAIL
  6
CONTINUOUS
 62
     5
 10
-33.020296000000002
 20
-12.32455999999998
 30
0.0
 11
-32.957366
 21
-12.346318
 31
0.0
  0
LINE
  5
1666
  8
DETAIL
  6
CONTINUOUS
 62
     5
 10
-32.957366
 20
-12.346318
 30
0.0
 11
-32.891106999999998
 21
-12.366409000000001
 31
0.0
  0
LINE
  5
1667
  8
DETAIL
  6
CONTINUOUS
 62
     5
 10
-32.891106999999998
 20
-12.366409000000001
 30
0.0
 11
-32.821236999999989
 21
-12.38496999999999
 31
0.0
  0
LINE
  5
1668
  8
DETAIL
  6
CONTINUOUS
 62
     5
 10
-32.821236999999989
 20
-12.38496999999999
 30
0.0
 11
-32.747509999999998
 21
-12.401859
 31
0.0
  0
LINE
  5
1669
  8
DETAIL
  6
CONTINUOUS
 62
     5
 10
-32.747509999999998
 20
-12.401859
 30
0.0
 11
-32.669655999999982
 21
-12.417062
 31
0.0
  0
LINE
  5
166A
  8
DETAIL
  6
CONTINUOUS
 62
     5
 10
-32.669655999999982
 20
-12.417062
 30
0.0
 11
-32.624867999999999
 21
-12.424663000000001
 31
0.0
  0
LINE
  5
166B
  8
DETAIL
  6
CONTINUOUS
 62
     5
 10
-31.932869
 20
-9.3428520000000006
 30
0.0
 11
-31.93532299999999
 21
-9.3490070000000003
 31
0.0
  0
LINE
  5
166C
  8
DETAIL
  6
CONTINUOUS
 62
     5
 10
-31.93532299999999
 20
-9.3490070000000003
 30
0.0
 11
-31.935756999999999
 21
-9.3687609999999992
 31
0.0
  0
LINE
  5
166D
  8
DETAIL
  6
CONTINUOUS
 62
     5
 10
-35.329572999999989
 20
-9.8934239999999996
 30
0.0
 11
-35.328012000000001
 21
-9.8928390000000004
 31
0.0
  0
LINE
  5
166E
  8
DETAIL
  6
CONTINUOUS
 62
     5
 10
-35.699154999999998
 20
-6.9569239999999981
 30
0.0
 11
-35.718367999999991
 21
-7.0419
 31
0.0
  0
LINE
  5
166F
  8
DETAIL
  6
CONTINUOUS
 62
     5
 10
-35.718367999999991
 20
-7.0419
 30
0.0
 11
-35.728172999999998
 21
-7.088811999999999
 31
0.0
  0
LINE
  5
1670
  8
DETAIL
  6
CONTINUOUS
 62
     5
 10
-35.728172999999998
 20
-7.088811999999999
 30
0.0
 11
-35.737111999999989
 21
-7.1382690000000002
 31
0.0
  0
LINE
  5
1671
  8
DETAIL
  6
CONTINUOUS
 62
     5
 10
-35.737111999999989
 20
-7.1382690000000002
 30
0.0
 11
-35.744489000000002
 21
-7.1902210000000011
 31
0.0
  0
LINE
  5
1672
  8
DETAIL
  6
CONTINUOUS
 62
     5
 10
-35.744489000000002
 20
-7.1902210000000011
 30
0.0
 11
-35.749518999999999
 21
-7.2443739999999979
 31
0.0
  0
LINE
  5
1673
  8
DETAIL
  6
CONTINUOUS
 62
     5
 10
-35.749518999999999
 20
-7.2443739999999979
 30
0.0
 11
-35.751387999999992
 21
-7.3006710000000004
 31
0.0
  0
LINE
  5
1674
  8
DETAIL
  6
CONTINUOUS
 62
     5
 10
-35.690939999999991
 20
-6.9188529999999986
 30
0.0
 11
-35.699154999999998
 21
-6.9569239999999981
 31
0.0
  0
LINE
  5
1675
  8
DETAIL
  6
CONTINUOUS
 62
     5
 10
-35.747714999999999
 20
-10.325900000000001
 30
0.0
 11
-35.74801200000001
 21
-10.33137799999999
 31
0.0
  0
LINE
  5
1676
  8
DETAIL
  6
CONTINUOUS
 62
     5
 10
-20.295562
 20
32.373536000000001
 30
0.0
 11
-20.574322999999961
 21
32.55569599999999
 31
0.0
  0
ARC
  5
1677
  8
DETAIL
  6
CONTINUOUS
 62
     5
 10
-23.468089999999989
 20
17.565815000000001
 30
0.0
 40
6.9904950000000001
 50
49.980575000000002
 51
89.0
  0
LINE
  5
1678
  8
DETAIL
  6
DASHED
 62
     5
 10
-14.779902999999999
 20
12.48302699999998
 30
0.0
 11
6.6460530000000002
 21
12.48302699999998
 31
0.0
  0
ARC
  5
1679
  8
DETAIL
  6
DASHED
 62
     5
 10
5.8360010000000004
 20
13.797559
 30
0.0
 40
0.8444719999999998
 50
136.14531099999999
 51
236.51539099999999
  0
ARC
  5
167A
  8
DETAIL
  6
DASHED
 62
     5
 10
7.4499649999999988
 20
15.803129
 30
0.0
 40
3.4160439999999981
 50
229.85654500000001
 51
256.38867199999981
  0
ARC
  5
167B
  8
DETAIL
  6
DASHED
 62
     5
 10
8.1710100000000008
 20
8.4884579999999961
 30
0.0
 40
3.9945680000000001
 50
50.599430999999989
 51
90.0
  0
LINE
  5
167C
  8
DETAIL
  6
DASHED
 62
     5
 10
6.6460530000000002
 20
12.48302699999998
 30
0.0
 11
8.1710100000000008
 21
12.48302699999998
 31
0.0
  0
ARC
  5
167D
  8
DETAIL
  6
DASHED
 62
     5
 10
-11.749022
 20
8.1422929999999987
 30
0.0
 40
0.5273560000000001
 50
65.014853000000002
 51
122.73854900000001
  0
ARC
  5
167E
  8
DETAIL
  6
DASHED
 62
     5
 10
-12.459353999999999
 20
6.5917690000000002
 30
0.0
 40
2.2328380000000001
 50
33.760815000000001
 51
65.474113000000003
  0
ARC
  5
167F
  8
DETAIL
  6
DASHED
 62
     5
 10
-11.015352
 20
7.3004990000000003
 30
0.0
 40
1.6402110000000001
 50
128.4024269999999
 51
160.37571800000001
  0
ARC
  5
1680
  8
DETAIL
  6
DASHED
 62
     5
 10
-3.9886370000000002
 20
4.7642470000000001
 30
0.0
 40
9.1106289999999994
 50
160.11319999999981
 51
174.390996
  0
ARC
  5
1681
  8
DETAIL
  6
DASHED
 62
     5
 10
-10.35398
 20
7.9991099999999982
 30
0.0
 40
0.299593
 50
213.76081500000001
 51
244.7616009999999
  0
LINE
  5
1682
  8
DETAIL
  6
DASHED
 62
     5
 10
-14.779902999999999
 20
7.8368259999999959
 30
0.0
 11
-14.779902999999999
 21
12.482813
 31
0.0
  0
LINE
  5
1683
  8
DETAIL
  6
CONTINUOUS
 62
     5
 10
-19.132192
 20
31.182642000000001
 30
0.0
 11
-19.332253999999981
 21
31.457305999999999
 31
0.0
  0
LINE
  5
1684
  8
DETAIL
  6
CONTINUOUS
 62
     5
 10
-19.332253999999981
 20
31.457305999999999
 30
0.0
 11
-19.548701999999999
 21
31.714182000000001
 31
0.0
  0
LINE
  5
1685
  8
DETAIL
  6
CONTINUOUS
 62
     5
 10
-19.548701999999999
 20
31.714182000000001
 30
0.0
 11
-19.781782999999969
 21
31.952756000000001
 31
0.0
  0
LINE
  5
1686
  8
DETAIL
  6
CONTINUOUS
 62
     5
 10
-19.781782999999969
 20
31.952756000000001
 30
0.0
 11
-20.03115
 21
32.17271599999998
 31
0.0
  0
LINE
  5
1687
  8
DETAIL
  6
CONTINUOUS
 62
     5
 10
-20.03115
 20
32.17271599999998
 30
0.0
 11
-20.295562
 21
32.373536000000001
 31
0.0
  0
LINE
  5
1688
  8
DETAIL
  6
CONTINUOUS
 62
     5
 10
-18.974142000000001
 20
30.932555999999991
 30
0.0
 11
-19.132192
 21
31.182642000000001
 31
0.0
  0
LINE
  5
1689
  8
DETAIL
  6
CONTINUOUS
 62
     5
 10
-45.837672999999981
 20
11.434452
 30
0.0
 11
-45.837672999999981
 21
23.987891000000001
 31
0.0
  0
LINE
  5
168A
  8
DETAIL
  6
CONTINUOUS
 62
     5
 10
-48.83359999999999
 20
24.487207999999999
 30
0.0
 11
-48.83359999999999
 21
13.76285
 31
0.0
  0
LINE
  5
168B
  8
DETAIL
  6
CONTINUOUS
 62
     5
 10
-45.737808999999999
 20
18.885255999999991
 30
0.0
 11
-45.737808999999999
 21
13.992945000000001
 31
0.0
  0
LINE
  5
168C
  8
DETAIL
  6
CONTINUOUS
 62
     5
 10
-36.046492999999998
 20
12.23726799999999
 30
0.0
 11
-44.286371000000003
 21
12.238519
 31
0.0
  0
LINE
  5
168D
  8
DETAIL
  6
CONTINUOUS
 62
     5
 10
-35.751387000000001
 20
11.942985999999991
 30
0.0
 11
-35.752434999999998
 21
11.967413000000001
 31
0.0
  0
LINE
  5
168E
  8
DETAIL
  6
CONTINUOUS
 62
     5
 10
-35.752434999999998
 20
11.967413000000001
 30
0.0
 11
-35.758262000000002
 21
12.005589000000001
 31
0.0
  0
LINE
  5
168F
  8
DETAIL
  6
CONTINUOUS
 62
     5
 10
-35.758262000000002
 20
12.005589000000001
 30
0.0
 11
-35.768990000000002
 21
12.042477
 31
0.0
  0
LINE
  5
1690
  8
DETAIL
  6
CONTINUOUS
 62
     5
 10
-35.768990000000002
 20
12.042477
 30
0.0
 11
-35.784185000000001
 21
12.077184000000001
 31
0.0
  0
LINE
  5
1691
  8
DETAIL
  6
CONTINUOUS
 62
     5
 10
-35.784185000000001
 20
12.077184000000001
 30
0.0
 11
-35.803246999999999
 21
12.10901
 31
0.0
  0
LINE
  5
1692
  8
DETAIL
  6
CONTINUOUS
 62
     5
 10
-35.803246999999999
 20
12.10901
 30
0.0
 11
-35.825602000000011
 21
12.13759299999999
 31
0.0
  0
LINE
  5
1693
  8
DETAIL
  6
CONTINUOUS
 62
     5
 10
-35.825602000000011
 20
12.13759299999999
 30
0.0
 11
-35.850588999999992
 21
12.162613
 31
0.0
  0
LINE
  5
1694
  8
DETAIL
  6
CONTINUOUS
 62
     5
 10
-35.850588999999992
 20
12.162613
 30
0.0
 11
-35.877670999999999
 21
12.183985
 31
0.0
  0
LINE
  5
1695
  8
DETAIL
  6
CONTINUOUS
 62
     5
 10
-35.877670999999999
 20
12.183985
 30
0.0
 11
-35.906323
 21
12.20167
 31
0.0
  0
LINE
  5
1696
  8
DETAIL
  6
CONTINUOUS
 62
     5
 10
-35.906323
 20
12.20167
 30
0.0
 11
-35.936023999999989
 21
12.215674
 31
0.0
  0
LINE
  5
1697
  8
DETAIL
  6
CONTINUOUS
 62
     5
 10
-35.936023999999989
 20
12.215674
 30
0.0
 11
-35.966273000000001
 21
12.226067
 31
0.0
  0
LINE
  5
1698
  8
DETAIL
  6
CONTINUOUS
 62
     5
 10
-35.966273000000001
 20
12.226067
 30
0.0
 11
-35.996681000000002
 21
12.232991
 31
0.0
  0
LINE
  5
1699
  8
DETAIL
  6
CONTINUOUS
 62
     5
 10
-35.996681000000002
 20
12.232991
 30
0.0
 11
-36.027023999999997
 21
12.236616
 31
0.0
  0
LINE
  5
169A
  8
DETAIL
  6
CONTINUOUS
 62
     5
 10
-36.027023999999997
 20
12.236616
 30
0.0
 11
-36.046509999999998
 21
12.237268999999991
 31
0.0
  0
LINE
  5
169B
  8
DETAIL
  6
CONTINUOUS
 62
     5
 10
-35.750870999999989
 20
11.934725999999991
 30
0.0
 11
-35.751387000000001
 21
11.942866
 31
0.0
  0
LINE
  5
169C
  8
DETAIL
  6
CONTINUOUS
 62
     5
 10
-42.925776999999982
 20
12.238313
 30
0.0
 11
-42.925776999999982
 21
11.434452
 31
0.0
  0
LINE
  5
169D
  8
DETAIL
  6
CONTINUOUS
 62
     5
 10
-37.948400999999997
 20
11.684113
 30
0.0
 11
-37.954737000000002
 21
11.644697000000001
 31
0.0
  0
LINE
  5
169E
  8
DETAIL
  6
CONTINUOUS
 62
     5
 10
-37.954737000000002
 20
11.644697000000001
 30
0.0
 11
-37.972754999999999
 21
11.60709299999999
 31
0.0
  0
LINE
  5
169F
  8
DETAIL
  6
CONTINUOUS
 62
     5
 10
-37.972754999999999
 20
11.60709299999999
 30
0.0
 11
-38.00292799999999
 21
11.57083599999997
 31
0.0
  0
LINE
  5
16A0
  8
DETAIL
  6
CONTINUOUS
 62
     5
 10
-38.00292799999999
 20
11.57083599999997
 30
0.0
 11
-38.043832999999992
 21
11.537317
 31
0.0
  0
LINE
  5
16A1
  8
DETAIL
  6
CONTINUOUS
 62
     5
 10
-38.043832999999992
 20
11.537317
 30
0.0
 11
-38.094648999999997
 21
11.507621999999991
 31
0.0
  0
LINE
  5
16A2
  8
DETAIL
  6
CONTINUOUS
 62
     5
 10
-38.094648999999997
 20
11.507621999999991
 30
0.0
 11
-38.15404199999999
 21
11.482201
 31
0.0
  0
LINE
  5
16A3
  8
DETAIL
  6
CONTINUOUS
 62
     5
 10
-38.15404199999999
 20
11.482201
 30
0.0
 11
-38.221156999999991
 21
11.461725999999979
 31
0.0
  0
LINE
  5
16A4
  8
DETAIL
  6
CONTINUOUS
 62
     5
 10
-38.221156999999991
 20
11.461725999999979
 30
0.0
 11
-38.293743999999982
 21
11.446619999999999
 31
0.0
  0
LINE
  5
16A5
  8
DETAIL
  6
CONTINUOUS
 62
     5
 10
-38.293743999999982
 20
11.446619999999999
 30
0.0
 11
-38.368947999999989
 21
11.437608999999981
 31
0.0
  0
LINE
  5
16A6
  8
DETAIL
  6
CONTINUOUS
 62
     5
 10
-38.368947999999989
 20
11.437608999999981
 30
0.0
 11
-38.447721999999992
 21
11.434452
 31
0.0
  0
LINE
  5
16A7
  8
DETAIL
  6
CONTINUOUS
 62
     5
 10
-37.848535999999989
 20
11.983705
 30
0.0
 11
-37.848535999999989
 21
12.237565
 31
0.0
  0
LINE
  5
16A8
  8
DETAIL
  6
CONTINUOUS
 62
     5
 10
-37.349215000000001
 20
11.983705
 30
0.0
 11
-37.948400999999997
 21
11.983705
 31
0.0
  0
LINE
  5
16A9
  8
DETAIL
  6
CONTINUOUS
 62
     5
 10
-45.843986999999998
 20
13.870357
 30
0.0
 11
-45.837672999999981
 21
13.822950000000001
 31
0.0
  0
LINE
  5
16AA
  8
DETAIL
  6
CONTINUOUS
 62
     5
 10
-45.862008000000003
 20
13.915616
 30
0.0
 11
-45.843986999999998
 21
13.870357
 31
0.0
  0
LINE
  5
16AB
  8
DETAIL
  6
CONTINUOUS
 62
     5
 10
-45.892220999999992
 20
13.959300000000001
 30
0.0
 11
-45.862008000000003
 21
13.915616
 31
0.0
  0
LINE
  5
16AC
  8
DETAIL
  6
CONTINUOUS
 62
     5
 10
-45.933171000000002
 20
13.999691
 30
0.0
 11
-45.892220999999992
 21
13.959300000000001
 31
0.0
  0
LINE
  5
16AD
  8
DETAIL
  6
CONTINUOUS
 62
     5
 10
-45.98401299999999
 20
14.035435
 30
0.0
 11
-45.933171000000002
 21
13.999691
 31
0.0
  0
LINE
  5
16AE
  8
DETAIL
  6
CONTINUOUS
 62
     5
 10
-46.043402999999991
 20
14.066015999999999
 30
0.0
 11
-45.98401299999999
 21
14.035435
 31
0.0
  0
LINE
  5
16AF
  8
DETAIL
  6
CONTINUOUS
 62
     5
 10
-46.110440999999987
 20
14.090632999999981
 30
0.0
 11
-46.043402999999991
 21
14.066015999999999
 31
0.0
  0
LINE
  5
16B0
  8
DETAIL
  6
CONTINUOUS
 62
     5
 10
-46.182955
 20
14.108791999999999
 30
0.0
 11
-46.110440999999987
 21
14.090632999999981
 31
0.0
  0
LINE
  5
16B1
  8
DETAIL
  6
CONTINUOUS
 62
     5
 10
-45.837672999999981
 20
16.439995
 30
0.0
 11
-45.847268999999983
 21
16.509724999999989
 31
0.0
  0
LINE
  5
16B2
  8
DETAIL
  6
CONTINUOUS
 62
     5
 10
-38.447721999999992
 20
11.434452
 30
0.0
 11
-45.837672999999981
 21
11.434452
 31
0.0
  0
LINE
  5
16B3
  8
DETAIL
  6
CONTINUOUS
 62
     5
 10
-46.336995000000002
 20
14.12344899999999
 30
0.0
 11
-46.258164000000001
 21
14.11963599999998
 31
0.0
  0
LINE
  5
16B4
  8
DETAIL
  6
CONTINUOUS
 62
     5
 10
-46.258164000000001
 20
14.11963599999998
 30
0.0
 11
-46.182955
 21
14.108791999999999
 31
0.0
  0
LINE
  5
16B5
  8
DETAIL
  6
CONTINUOUS
 62
     5
 10
-45.837672999999981
 20
13.76285
 30
0.0
 11
-48.83359999999999
 21
13.76285
 31
0.0
  0
LINE
  5
16B6
  8
DETAIL
  6
CONTINUOUS
 62
     5
 10
-46.336995000000002
 20
14.12344899999999
 30
0.0
 11
-48.83359999999999
 21
14.12344899999999
 31
0.0
  0
LINE
  5
16B7
  8
DETAIL
  6
CONTINUOUS
 62
     5
 10
-44.84198
 20
12.386553999999981
 30
0.0
 11
-44.842034000000012
 21
12.38659
 31
0.0
  0
LINE
  5
16B8
  8
DETAIL
  6
CONTINUOUS
 62
     5
 10
-44.895254000000001
 20
12.423323999999999
 30
0.0
 11
-45.038418
 21
12.535135
 31
0.0
  0
LINE
  5
16B9
  8
DETAIL
  6
CONTINUOUS
 62
     5
 10
-45.038418
 20
12.535135
 30
0.0
 11
-45.170788999999999
 21
12.658495
 31
0.0
  0
LINE
  5
16BA
  8
DETAIL
  6
CONTINUOUS
 62
     5
 10
-45.170788999999999
 20
12.658495
 30
0.0
 11
-45.29140799999999
 21
12.79231199999999
 31
0.0
  0
LINE
  5
16BB
  8
DETAIL
  6
CONTINUOUS
 62
     5
 10
-45.29140799999999
 20
12.79231199999999
 30
0.0
 11
-45.399403999999983
 21
12.935537
 31
0.0
  0
LINE
  5
16BC
  8
DETAIL
  6
CONTINUOUS
 62
     5
 10
-45.399403999999983
 20
12.935537
 30
0.0
 11
-45.493918000000001
 21
13.087069
 31
0.0
  0
LINE
  5
16BD
  8
DETAIL
  6
CONTINUOUS
 62
     5
 10
-45.493918000000001
 20
13.087069
 30
0.0
 11
-45.574131000000001
 21
13.245789999999991
 31
0.0
  0
LINE
  5
16BE
  8
DETAIL
  6
CONTINUOUS
 62
     5
 10
-45.574131000000001
 20
13.245789999999991
 30
0.0
 11
-45.639284000000004
 21
13.410629
 31
0.0
  0
LINE
  5
16BF
  8
DETAIL
  6
CONTINUOUS
 62
     5
 10
-45.639284000000004
 20
13.410629
 30
0.0
 11
-45.688602999999993
 21
13.580453
 31
0.0
  0
LINE
  5
16C0
  8
DETAIL
  6
CONTINUOUS
 62
     5
 10
-45.688602999999993
 20
13.580453
 30
0.0
 11
-45.721319999999977
 21
13.754175
 31
0.0
  0
LINE
  5
16C1
  8
DETAIL
  6
CONTINUOUS
 62
     5
 10
-45.721319999999977
 20
13.754175
 30
0.0
 11
-45.736668000000002
 21
13.930535000000001
 31
0.0
  0
LINE
  5
16C2
  8
DETAIL
  6
CONTINUOUS
 62
     5
 10
-45.736668000000002
 20
13.930535000000001
 30
0.0
 11
-45.737802000000002
 21
13.992924
 31
0.0
  0
LINE
  5
16C3
  8
DETAIL
  6
CONTINUOUS
 62
     5
 10
-44.842034000000012
 20
12.38659
 30
0.0
 11
-44.84449
 21
12.388441
 31
0.0
  0
LINE
  5
16C4
  8
DETAIL
  6
CONTINUOUS
 62
     5
 10
-44.842026999999987
 20
12.38660099999999
 30
0.0
 11
-44.895254000000001
 21
12.423323999999999
 31
0.0
  0
LINE
  5
16C5
  8
DETAIL
  6
CONTINUOUS
 62
     5
 10
-44.286447999999993
 20
12.238515
 30
0.0
 11
-44.35307199999999
 21
12.240085000000001
 31
0.0
  0
LINE
  5
16C6
  8
DETAIL
  6
CONTINUOUS
 62
     5
 10
-44.35307199999999
 20
12.240085000000001
 30
0.0
 11
-44.457132999999999
 21
12.249314
 31
0.0
  0
LINE
  5
16C7
  8
DETAIL
  6
CONTINUOUS
 62
     5
 10
-44.457132999999999
 20
12.249314
 30
0.0
 11
-44.556899000000001
 21
12.267163
 31
0.0
  0
LINE
  5
16C8
  8
DETAIL
  6
CONTINUOUS
 62
     5
 10
-44.556899000000001
 20
12.267163
 30
0.0
 11
-44.651701000000003
 21
12.293889999999999
 31
0.0
  0
LINE
  5
16C9
  8
DETAIL
  6
CONTINUOUS
 62
     5
 10
-44.651701000000003
 20
12.293889999999999
 30
0.0
 11
-44.740751000000003
 21
12.329641000000001
 31
0.0
  0
LINE
  5
16CA
  8
DETAIL
  6
CONTINUOUS
 62
     5
 10
-44.740751000000003
 20
12.329641000000001
 30
0.0
 11
-44.822845000000001
 21
12.374203
 31
0.0
  0
LINE
  5
16CB
  8
DETAIL
  6
CONTINUOUS
 62
     5
 10
-44.822845000000001
 20
12.374203
 30
0.0
 11
-44.84198
 21
12.386553999999981
 31
0.0
  0
LINE
  5
16CC
  8
DETAIL
  6
CONTINUOUS
 62
     5
 10
-44.286330999999983
 20
12.238519
 30
0.0
 11
-44.254647999999989
 21
12.239528
 31
0.0
  0
LINE
  5
16CD
  8
DETAIL
  6
CONTINUOUS
 62
     5
 10
-35.751387999999992
 20
30.311523000000001
 30
0.0
 11
-37.948400999999997
 21
30.311523000000001
 31
0.0
  0
LINE
  5
16CE
  8
DETAIL
  6
CONTINUOUS
 62
     5
 10
-36.045273999999999
 20
22.566101
 30
0.0
 11
-44.104928999999998
 21
22.719391999999988
 31
0.0
  0
LINE
  5
16CF
  8
DETAIL
  6
CONTINUOUS
 62
     5
 10
-44.502997000000001
 20
24.594605000000001
 30
0.0
 11
-35.751387999999992
 21
24.458461
 31
0.0
  0
LINE
  5
16D0
  8
DETAIL
  6
CONTINUOUS
 62
     5
 10
-43.400564000000003
 20
21.148344000000002
 30
0.0
 11
-35.980755000000002
 21
21.162386999999981
 31
0.0
  0
LINE
  5
16D1
  8
DETAIL
  6
CONTINUOUS
 62
     5
 10
-44.548233000000003
 20
26.133692
 30
0.0
 11
-35.751387999999992
 21
25.976272000000002
 31
0.0
  0
ARC
  5
16D2
  8
DETAIL
  6
CONTINUOUS
 62
     5
 10
-36.001049000000002
 20
31.048375
 30
0.0
 40
0.7489819999999999
 50
90.0
 51
260.18114800000001
  0
LINE
  5
16D3
  8
DETAIL
  6
CONTINUOUS
 62
     5
 10
-36.550302000000002
 20
30.31125999999999
 30
0.0
 11
-36.550302000000002
 21
25.99058299999999
 31
0.0
  0
LINE
  5
16D4
  8
DETAIL
  6
CONTINUOUS
 62
     5
 10
-36.550302000000002
 20
22.575718999999982
 30
0.0
 11
-36.550302000000002
 21
21.161335999999991
 31
0.0
  0
LINE
  5
16D5
  8
DETAIL
  6
CONTINUOUS
 62
     5
 10
-23.067809
 20
33.362871999999989
 30
0.0
 11
-23.077300000000001
 21
33.36956
 31
0.0
  0
LINE
  5
16D6
  8
DETAIL
  6
CONTINUOUS
 62
     5
 10
-23.077300000000001
 20
33.36956
 30
0.0
 11
-23.085242000000001
 21
33.386921000000001
 31
0.0
  0
LINE
  5
16D7
  8
DETAIL
  6
CONTINUOUS
 62
     5
 10
-20.574322999999961
 20
32.55569599999999
 30
0.0
 11
-20.866175999999982
 21
32.719335999999998
 31
0.0
  0
LINE
  5
16D8
  8
DETAIL
  6
CONTINUOUS
 62
     5
 10
-20.866175999999982
 20
32.719335999999998
 30
0.0
 11
-21.170096000000001
 21
32.864944000000001
 31
0.0
  0
LINE
  5
16D9
  8
DETAIL
  6
CONTINUOUS
 62
     5
 10
-21.170096000000001
 20
32.864944000000001
 30
0.0
 11
-21.485018
 21
32.992837000000002
 31
0.0
  0
LINE
  5
16DA
  8
DETAIL
  6
CONTINUOUS
 62
     5
 10
-21.485018
 20
32.992837000000002
 30
0.0
 11
-21.809940000000001
 21
33.103397999999991
 31
0.0
  0
LINE
  5
16DB
  8
DETAIL
  6
CONTINUOUS
 62
     5
 10
-21.809940000000001
 20
33.103397999999991
 30
0.0
 11
-22.144012
 21
33.196877000000001
 31
0.0
  0
LINE
  5
16DC
  8
DETAIL
  6
CONTINUOUS
 62
     5
 10
-22.144012
 20
33.196877000000001
 30
0.0
 11
-22.486474999999999
 21
33.273456000000003
 31
0.0
  0
LINE
  5
16DD
  8
DETAIL
  6
CONTINUOUS
 62
     5
 10
-22.486474999999999
 20
33.273456000000003
 30
0.0
 11
-22.83736699999999
 21
33.333271999999987
 31
0.0
  0
LINE
  5
16DE
  8
DETAIL
  6
CONTINUOUS
 62
     5
 10
-22.83736699999999
 20
33.333271999999987
 30
0.0
 11
-23.067809
 21
33.362871999999989
 31
0.0
  0
LINE
  5
16DF
  8
DETAIL
  6
CONTINUOUS
 62
     5
 10
-23.74221099999999
 20
26.091792000000002
 30
0.0
 11
-23.701093
 21
25.867274999999999
 31
0.0
  0
LINE
  5
16E0
  8
DETAIL
  6
CONTINUOUS
 62
     5
 10
-23.701093
 20
25.867274999999999
 30
0.0
 11
-23.643411999999991
 21
25.655424
 31
0.0
  0
LINE
  5
16E1
  8
DETAIL
  6
CONTINUOUS
 62
     5
 10
-23.643411999999991
 20
25.655424
 30
0.0
 11
-23.571783
 21
25.45795
 31
0.0
  0
LINE
  5
16E2
  8
DETAIL
  6
CONTINUOUS
 62
     5
 10
-23.571783
 20
25.45795
 30
0.0
 11
-23.489203
 21
25.276638999999999
 31
0.0
  0
LINE
  5
16E3
  8
DETAIL
  6
CONTINUOUS
 62
     5
 10
-23.489203
 20
25.276638999999999
 30
0.0
 11
-23.398869000000001
 21
25.11277999999999
 31
0.0
  0
LINE
  5
16E4
  8
DETAIL
  6
CONTINUOUS
 62
     5
 10
-23.398869000000001
 20
25.11277999999999
 30
0.0
 11
-23.304078000000001
 21
24.967174
 31
0.0
  0
LINE
  5
16E5
  8
DETAIL
  6
CONTINUOUS
 62
     5
 10
-23.304078000000001
 20
24.967174
 30
0.0
 11
-23.208321999999988
 21
24.840385999999992
 31
0.0
  0
LINE
  5
16E6
  8
DETAIL
  6
CONTINUOUS
 62
     5
 10
-23.208321999999988
 20
24.840385999999992
 30
0.0
 11
-23.114538
 21
24.731925
 31
0.0
  0
LINE
  5
16E7
  8
DETAIL
  6
CONTINUOUS
 62
     5
 10
-23.114538
 20
24.731925
 30
0.0
 11
-23.025953000000001
 21
24.641514000000001
 31
0.0
  0
LINE
  5
16E8
  8
DETAIL
  6
CONTINUOUS
 62
     5
 10
-23.025953000000001
 20
24.641514000000001
 30
0.0
 11
-22.944295
 21
24.567381000000001
 31
0.0
  0
LINE
  5
16E9
  8
DETAIL
  6
CONTINUOUS
 62
     5
 10
-22.944295
 20
24.567381000000001
 30
0.0
 11
-22.900824
 21
24.532074999999988
 31
0.0
  0
LINE
  5
16EA
  8
DETAIL
  6
CONTINUOUS
 62
     5
 10
-23.767682999999991
 20
26.460328999999991
 30
0.0
 11
-23.767682999999991
 21
27.657559999999989
 31
0.0
  0
LINE
  5
16EB
  8
DETAIL
  6
CONTINUOUS
 62
     5
 10
-23.767689000000001
 20
26.460197999999991
 30
0.0
 11
-23.764347999999991
 21
26.32649799999999
 31
0.0
  0
LINE
  5
16EC
  8
DETAIL
  6
CONTINUOUS
 62
     5
 10
-23.764347999999991
 20
26.32649799999999
 30
0.0
 11
-23.74221099999999
 21
26.091792000000002
 31
0.0
  0
LINE
  5
16ED
  8
DETAIL
  6
CONTINUOUS
 62
     5
 10
-25.843706000000001
 20
30.511081999999991
 30
0.0
 11
-25.795231000000001
 21
30.492685000000002
 31
0.0
  0
LINE
  5
16EE
  8
DETAIL
  6
CONTINUOUS
 62
     5
 10
-25.795138999999999
 20
30.492652
 30
0.0
 11
-25.797063000000001
 21
30.493307000000001
 31
0.0
  0
LINE
  5
16EF
  8
DETAIL
  6
CONTINUOUS
 62
     5
 10
-27.691614999999999
 20
33.875346
 30
0.0
 11
-27.679587999999999
 21
33.848185999999998
 31
0.0
  0
LINE
  5
16F0
  8
DETAIL
  6
CONTINUOUS
 62
     5
 10
-27.679587999999999
 20
33.848185999999998
 30
0.0
 11
-27.667888999999992
 21
33.78228699999999
 31
0.0
  0
LINE
  5
16F1
  8
DETAIL
  6
CONTINUOUS
 62
     5
 10
-27.667888999999992
 20
33.78228699999999
 30
0.0
 11
-27.671576999999999
 21
33.717199000000001
 31
0.0
  0
LINE
  5
16F2
  8
DETAIL
  6
CONTINUOUS
 62
     5
 10
-27.671576999999999
 20
33.717199000000001
 30
0.0
 11
-27.686909
 21
33.655805000000001
 31
0.0
  0
LINE
  5
16F3
  8
DETAIL
  6
CONTINUOUS
 62
     5
 10
-27.686909
 20
33.655805000000001
 30
0.0
 11
-27.717092000000001
 21
33.596738999999999
 31
0.0
  0
LINE
  5
16F4
  8
DETAIL
  6
CONTINUOUS
 62
     5
 10
-27.717092000000001
 20
33.596738999999999
 30
0.0
 11
-27.764403000000001
 21
33.539091999999989
 31
0.0
  0
LINE
  5
16F5
  8
DETAIL
  6
CONTINUOUS
 62
     5
 10
-27.764403000000001
 20
33.539091999999989
 30
0.0
 11
-27.827748
 21
33.484265999999991
 31
0.0
  0
LINE
  5
16F6
  8
DETAIL
  6
CONTINUOUS
 62
     5
 10
-26.763608999999999
 20
33.773626
 30
0.0
 11
-26.763608999999999
 21
23.866758999999991
 31
0.0
  0
LINE
  5
16F7
  8
DETAIL
  6
CONTINUOUS
 62
     5
 10
-26.763608999999999
 20
23.866423000000001
 30
0.0
 11
-26.761306999999992
 21
23.779335
 31
0.0
  0
LINE
  5
16F8
  8
DETAIL
  6
CONTINUOUS
 62
     5
 10
-26.761306999999992
 20
23.779335
 30
0.0
 11
-26.745798999999991
 21
23.623066999999988
 31
0.0
  0
LINE
  5
16F9
  8
DETAIL
  6
CONTINUOUS
 62
     5
 10
-26.745798999999991
 20
23.623066999999988
 30
0.0
 11
-26.717642000000001
 21
23.475846000000001
 31
0.0
  0
LINE
  5
16FA
  8
DETAIL
  6
CONTINUOUS
 62
     5
 10
-26.717642000000001
 20
23.475846000000001
 30
0.0
 11
-26.678858000000002
 21
23.338273999999998
 31
0.0
  0
LINE
  5
16FB
  8
DETAIL
  6
CONTINUOUS
 62
     5
 10
-26.678858000000002
 20
23.338273999999998
 30
0.0
 11
-26.631109999999971
 21
23.21047699999998
 31
0.0
  0
LINE
  5
16FC
  8
DETAIL
  6
CONTINUOUS
 62
     5
 10
-26.631109999999971
 20
23.21047699999998
 30
0.0
 11
-26.576519999999999
 21
23.093986999999998
 31
0.0
  0
LINE
  5
16FD
  8
DETAIL
  6
CONTINUOUS
 62
     5
 10
-26.576519999999999
 20
23.093986999999998
 30
0.0
 11
-26.516712999999999
 21
22.988911000000002
 31
0.0
  0
LINE
  5
16FE
  8
DETAIL
  6
CONTINUOUS
 62
     5
 10
-26.516712999999999
 20
22.988911000000002
 30
0.0
 11
-26.455380000000002
 21
22.898316999999999
 31
0.0
  0
LINE
  5
16FF
  8
DETAIL
  6
CONTINUOUS
 62
     5
 10
-26.455380000000002
 20
22.898316999999999
 30
0.0
 11
-26.396457999999999
 21
22.823982000000001
 31
0.0
  0
LINE
  5
1700
  8
DETAIL
  6
CONTINUOUS
 62
     5
 10
-26.396457999999999
 20
22.823982000000001
 30
0.0
 11
-26.343582999999999
 21
22.766342000000002
 31
0.0
  0
LINE
  5
1701
  8
DETAIL
  6
CONTINUOUS
 62
     5
 10
-26.343582999999999
 20
22.766342000000002
 30
0.0
 11
-26.30087
 21
22.725715999999998
 31
0.0
  0
LINE
  5
1702
  8
DETAIL
  6
CONTINUOUS
 62
     5
 10
-26.30087
 20
22.725715999999998
 30
0.0
 11
-26.270799
 21
22.700542999999989
 31
0.0
  0
LINE
  5
1703
  8
DETAIL
  6
CONTINUOUS
 62
     5
 10
-26.270799
 20
22.700542999999989
 30
0.0
 11
-26.256032999999992
 21
22.689551000000002
 31
0.0
  0
LINE
  5
1704
  8
DETAIL
  6
CONTINUOUS
 62
     5
 10
-26.256032999999992
 20
22.689551000000002
 30
0.0
 11
-26.255087
 21
22.6889
 31
0.0
  0
LINE
  5
1705
  8
DETAIL
  6
CONTINUOUS
 62
     5
 10
-26.763608999999999
 20
32.012254999999989
 30
0.0
 11
-26.760859
 21
31.917732000000001
 31
0.0
  0
LINE
  5
1706
  8
DETAIL
  6
CONTINUOUS
 62
     5
 10
-26.760859
 20
31.917732000000001
 30
0.0
 11
-26.740563000000002
 21
31.736737000000002
 31
0.0
  0
LINE
  5
1707
  8
DETAIL
  6
CONTINUOUS
 62
     5
 10
-26.740563000000002
 20
31.736737000000002
 30
0.0
 11
-26.700614000000002
 21
31.556702000000001
 31
0.0
  0
LINE
  5
1708
  8
DETAIL
  6
CONTINUOUS
 62
     5
 10
-26.700614000000002
 20
31.556702000000001
 30
0.0
 11
-26.642495
 21
31.383327000000001
 31
0.0
  0
LINE
  5
1709
  8
DETAIL
  6
CONTINUOUS
 62
     5
 10
-26.642495
 20
31.383327000000001
 30
0.0
 11
-26.568695999999999
 21
31.22084199999999
 31
0.0
  0
LINE
  5
170A
  8
DETAIL
  6
CONTINUOUS
 62
     5
 10
-26.568695999999999
 20
31.22084199999999
 30
0.0
 11
-26.482225
 21
31.072147000000001
 31
0.0
  0
LINE
  5
170B
  8
DETAIL
  6
CONTINUOUS
 62
     5
 10
-26.482225
 20
31.072147000000001
 30
0.0
 11
-26.386624999999999
 21
30.939499000000001
 31
0.0
  0
LINE
  5
170C
  8
DETAIL
  6
CONTINUOUS
 62
     5
 10
-26.386624999999999
 20
30.939499000000001
 30
0.0
 11
-26.285757
 21
30.824335000000001
 31
0.0
  0
LINE
  5
170D
  8
DETAIL
  6
CONTINUOUS
 62
     5
 10
-26.285757
 20
30.824335000000001
 30
0.0
 11
-26.183747
 21
30.727405000000001
 31
0.0
  0
LINE
  5
170E
  8
DETAIL
  6
CONTINUOUS
 62
     5
 10
-26.183747
 20
30.727405000000001
 30
0.0
 11
-26.084665999999991
 21
30.648634999999992
 31
0.0
  0
LINE
  5
170F
  8
DETAIL
  6
CONTINUOUS
 62
     5
 10
-26.084665999999991
 20
30.648634999999992
 30
0.0
 11
-25.992632
 21
30.587378000000001
 31
0.0
  0
LINE
  5
1710
  8
DETAIL
  6
CONTINUOUS
 62
     5
 10
-25.992632
 20
30.587378000000001
 30
0.0
 11
-25.911106
 21
30.542100999999999
 31
0.0
  0
LINE
  5
1711
  8
DETAIL
  6
CONTINUOUS
 62
     5
 10
-25.911106
 20
30.542100999999999
 30
0.0
 11
-25.843706000000001
 21
30.511081999999991
 31
0.0
  0
LINE
  5
1712
  8
DETAIL
  6
CONTINUOUS
 62
     5
 10
-23.067803999999999
 20
33.362898000000001
 30
0.0
 11
-25.519755
 21
33.636344000000001
 31
0.0
  0
LINE
  5
1713
  8
DETAIL
  6
CONTINUOUS
 62
     5
 10
-25.519755
 20
33.636344000000001
 30
0.0
 11
-28.093520999999988
 21
33.919384999999998
 31
0.0
  0
LINE
  5
1714
  8
DETAIL
  6
CONTINUOUS
 62
     5
 10
-26.763608999999999
 20
24.614899000000001
 30
0.0
 11
-23.346088999999999
 21
24.555246
 31
0.0
  0
LINE
  5
1715
  8
DETAIL
  6
CONTINUOUS
 62
     5
 10
-27.333798999999999
 20
33.836137999999998
 30
0.0
 11
-27.377303999999999
 21
33.79039199999999
 31
0.0
  0
LINE
  5
1716
  8
DETAIL
  6
CONTINUOUS
 62
     5
 10
-27.377303999999999
 20
33.79039199999999
 30
0.0
 11
-27.514247999999998
 21
33.67036199999999
 31
0.0
  0
LINE
  5
1717
  8
DETAIL
  6
CONTINUOUS
 62
     5
 10
-27.514247999999998
 20
33.67036199999999
 30
0.0
 11
-27.662652000000001
 21
33.562581000000002
 31
0.0
  0
LINE
  5
1718
  8
DETAIL
  6
CONTINUOUS
 62
     5
 10
-27.662652000000001
 20
33.562581000000002
 30
0.0
 11
-27.821967000000001
 21
33.467989000000003
 31
0.0
  0
ARC
  5
1719
  8
DETAIL
  6
CONTINUOUS
 62
     5
 10
-26.763608999999999
 20
27.657578999999998
 30
0.0
 40
2.9959259999999981
 50
0.0
 51
71.296683000000002
  0
LINE
  5
171A
  8
DETAIL
  6
CONTINUOUS
 62
     5
 10
-36.268765999999999
 20
33.032121999999987
 30
0.0
 11
-36.178280999999998
 21
32.980307000000003
 31
0.0
  0
LINE
  5
171B
  8
DETAIL
  6
CONTINUOUS
 62
     5
 10
-36.178280999999998
 20
32.980307000000003
 30
0.0
 11
-36.09498099999999
 21
32.920563999999992
 31
0.0
  0
LINE
  5
171C
  8
DETAIL
  6
CONTINUOUS
 62
     5
 10
-36.09498099999999
 20
32.920563999999992
 30
0.0
 11
-36.018374000000001
 21
32.852426999999992
 31
0.0
  0
LINE
  5
171D
  8
DETAIL
  6
CONTINUOUS
 62
     5
 10
-36.018374000000001
 20
32.852426999999992
 30
0.0
 11
-35.94993800000001
 21
32.777295000000002
 31
0.0
  0
LINE
  5
171E
  8
DETAIL
  6
CONTINUOUS
 62
     5
 10
-35.94993800000001
 20
32.777295000000002
 30
0.0
 11
-35.890884
 21
32.696173999999999
 31
0.0
  0
LINE
  5
171F
  8
DETAIL
  6
CONTINUOUS
 62
     5
 10
-35.890884
 20
32.696173999999999
 30
0.0
 11
-35.841529000000001
 21
32.609774000000002
 31
0.0
  0
LINE
  5
1720
  8
DETAIL
  6
CONTINUOUS
 62
     5
 10
-36.268765999999999
 20
32.011565999999988
 30
0.0
 11
-36.178278999999989
 21
31.95975
 31
0.0
  0
LINE
  5
1721
  8
DETAIL
  6
CONTINUOUS
 62
     5
 10
-36.178278999999989
 20
31.95975
 30
0.0
 11
-36.094978999999988
 21
31.900006000000001
 31
0.0
  0
LINE
  5
1722
  8
DETAIL
  6
CONTINUOUS
 62
     5
 10
-36.094978999999988
 20
31.900006000000001
 30
0.0
 11
-36.01836999999999
 21
31.831866999999999
 31
0.0
  0
LINE
  5
1723
  8
DETAIL
  6
CONTINUOUS
 62
     5
 10
-36.01836999999999
 20
31.831866999999999
 30
0.0
 11
-35.986936
 21
31.797357000000002
 31
0.0
  0
LINE
  5
1724
  8
DETAIL
  6
CONTINUOUS
 62
     5
 10
-27.827748
 20
33.484265999999991
 30
0.0
 11
-27.907984999999989
 21
33.432434999999991
 31
0.0
  0
LINE
  5
1725
  8
DETAIL
  6
CONTINUOUS
 62
     5
 10
-27.907984999999989
 20
33.432434999999991
 30
0.0
 11
-28.000831999999988
 21
33.385531999999991
 31
0.0
  0
LINE
  5
1726
  8
DETAIL
  6
CONTINUOUS
 62
     5
 10
-28.000831999999988
 20
33.385531999999991
 30
0.0
 11
-28.100386999999991
 21
33.345909999999989
 31
0.0
  0
LINE
  5
1727
  8
DETAIL
  6
CONTINUOUS
 62
     5
 10
-35.890760999999991
 20
32.247934000000001
 30
0.0
 11
-35.949814000000011
 21
32.328437000000001
 31
0.0
  0
LINE
  5
1728
  8
DETAIL
  6
CONTINUOUS
 62
     5
 10
-35.949814000000011
 20
32.328437000000001
 30
0.0
 11
-36.018264000000002
 21
32.402848999999982
 31
0.0
  0
LINE
  5
1729
  8
DETAIL
  6
CONTINUOUS
 62
     5
 10
-36.018264000000002
 20
32.402848999999982
 30
0.0
 11
-36.094898000000001
 21
32.470174
 31
0.0
  0
LINE
  5
172A
  8
DETAIL
  6
CONTINUOUS
 62
     5
 10
-36.094898000000001
 20
32.470174
 30
0.0
 11
-36.178234000000003
 21
32.529023999999993
 31
0.0
  0
LINE
  5
172B
  8
DETAIL
  6
CONTINUOUS
 62
     5
 10
-36.178234000000003
 20
32.529023999999993
 30
0.0
 11
-36.268765999999999
 21
32.579861000000001
 31
0.0
  0
LINE
  5
172C
  8
DETAIL
  6
CONTINUOUS
 62
     5
 10
-35.841529000000001
 20
32.609774000000002
 30
0.0
 11
-35.802447999999998
 21
32.518634999999982
 31
0.0
  0
LINE
  5
172D
  8
DETAIL
  6
CONTINUOUS
 62
     5
 10
-35.802447999999998
 20
32.518634999999982
 30
0.0
 11
-35.774082
 21
32.42428499999999
 31
0.0
  0
LINE
  5
172E
  8
DETAIL
  6
CONTINUOUS
 62
     5
 10
-35.751387999999992
 20
32.981613000000003
 30
0.0
 11
-35.78661799999999
 21
33.084229000000001
 31
0.0
  0
LINE
  5
172F
  8
DETAIL
  6
CONTINUOUS
 62
     5
 10
-35.78661799999999
 20
33.084229000000001
 30
0.0
 11
-35.830942
 21
33.179912000000002
 31
0.0
  0
LINE
  5
1730
  8
DETAIL
  6
CONTINUOUS
 62
     5
 10
-35.830942
 20
33.179912000000002
 30
0.0
 11
-35.884712999999998
 21
33.268811999999983
 31
0.0
  0
LINE
  5
1731
  8
DETAIL
  6
CONTINUOUS
 62
     5
 10
-35.884712999999998
 20
33.268811999999983
 30
0.0
 11
-35.946872999999989
 21
33.350475000000003
 31
0.0
  0
LINE
  5
1732
  8
DETAIL
  6
CONTINUOUS
 62
     5
 10
-35.946872999999989
 20
33.350475000000003
 30
0.0
 11
-36.01665899999999
 21
33.424571999999998
 31
0.0
  0
LINE
  5
1733
  8
DETAIL
  6
CONTINUOUS
 62
     5
 10
-36.01665899999999
 20
33.424571999999998
 30
0.0
 11
-36.093533000000001
 21
33.490881000000002
 31
0.0
  0
LINE
  5
1734
  8
DETAIL
  6
CONTINUOUS
 62
     5
 10
-36.093533000000001
 20
33.490881000000002
 30
0.0
 11
-36.176605000000002
 21
33.549025
 31
0.0
  0
LINE
  5
1735
  8
DETAIL
  6
CONTINUOUS
 62
     5
 10
-36.176605000000002
 20
33.549025
 30
0.0
 11
-36.266171999999997
 21
33.599130000000002
 31
0.0
  0
LINE
  5
1736
  8
DETAIL
  6
CONTINUOUS
 62
     5
 10
-35.751387999999992
 20
34.075603000000001
 30
0.0
 11
-35.745100999999991
 21
34.035571999999981
 31
0.0
  0
LINE
  5
1737
  8
DETAIL
  6
CONTINUOUS
 62
     5
 10
-35.751387999999992
 20
32.532572999999999
 30
0.0
 11
-35.745103
 21
32.493087000000003
 31
0.0
  0
LINE
  5
1738
  8
DETAIL
  6
CONTINUOUS
 62
     5
 10
-35.745103
 20
32.493087000000003
 30
0.0
 11
-35.726407999999999
 21
32.454594999999991
 31
0.0
  0
LINE
  5
1739
  8
DETAIL
  6
CONTINUOUS
 62
     5
 10
-35.751387999999992
 20
22.57154899999999
 30
0.0
 11
-35.745103
 21
22.53206299999999
 31
0.0
  0
LINE
  5
173A
  8
DETAIL
  6
CONTINUOUS
 62
     5
 10
-35.75138900000001
 20
22.545722000000001
 30
0.0
 11
-35.745103
 21
22.506817000000002
 31
0.0
  0
LINE
  5
173B
  8
DETAIL
  6
CONTINUOUS
 62
     5
 10
-35.774082
 20
32.42428499999999
 30
0.0
 11
-35.75714099999999
 21
32.328646999999989
 31
0.0
  0
LINE
  5
173C
  8
DETAIL
  6
CONTINUOUS
 62
     5
 10
-35.757120999999998
 20
31.881978
 30
0.0
 11
-35.77403799999999
 21
31.977353000000001
 31
0.0
  0
LINE
  5
173D
  8
DETAIL
  6
CONTINUOUS
 62
     5
 10
-35.77403799999999
 20
31.977353000000001
 30
0.0
 11
-35.802371000000001
 21
32.071356000000002
 31
0.0
  0
LINE
  5
173E
  8
DETAIL
  6
CONTINUOUS
 62
     5
 10
-35.802371000000001
 20
32.071356000000002
 30
0.0
 11
-35.84142099999999
 21
32.16205999999999
 31
0.0
  0
LINE
  5
173F
  8
DETAIL
  6
CONTINUOUS
 62
     5
 10
-35.84142099999999
 20
32.16205999999999
 30
0.0
 11
-35.890760999999991
 21
32.247934000000001
 31
0.0
  0
LINE
  5
1740
  8
DETAIL
  6
CONTINUOUS
 62
     5
 10
-29.045421000000001
 20
33.204745000000003
 30
0.0
 11
-29.04600499999999
 21
33.199956
 31
0.0
  0
LINE
  5
1741
  8
DETAIL
  6
CONTINUOUS
 62
     5
 10
-29.04600499999999
 20
33.199956
 30
0.0
 11
-29.046587999999989
 21
33.198528000000003
 31
0.0
  0
LINE
  5
1742
  8
DETAIL
  6
CONTINUOUS
 62
     5
 10
-35.242449000000001
 20
33.090176
 30
0.0
 11
-35.242843000000001
 21
33.084006000000002
 31
0.0
  0
LINE
  5
1743
  8
DETAIL
  6
CONTINUOUS
 62
     5
 10
-36.267040999999992
 20
33.59231299999999
 30
0.0
 11
-36.26545999999999
 21
33.598776999999998
 31
0.0
  0
LINE
  5
1744
  8
DETAIL
  6
CONTINUOUS
 62
     5
 10
-35.98070100000001
 20
21.162386999999981
 30
0.0
 11
-35.965502000000001
 21
21.16187
 31
0.0
  0
LINE
  5
1745
  8
DETAIL
  6
CONTINUOUS
 62
     5
 10
-35.965502000000001
 20
21.16187
 30
0.0
 11
-35.928556999999991
 21
21.157163000000001
 31
0.0
  0
LINE
  5
1746
  8
DETAIL
  6
CONTINUOUS
 62
     5
 10
-35.928556999999991
 20
21.157163000000001
 30
0.0
 11
-35.88508800000001
 21
21.147455999999998
 31
0.0
  0
LINE
  5
1747
  8
DETAIL
  6
CONTINUOUS
 62
     5
 10
-35.980678999999959
 20
21.162369000000002
 30
0.0
 11
-35.961544000000011
 21
21.163408999999991
 31
0.0
  0
LINE
  5
1748
  8
DETAIL
  6
CONTINUOUS
 62
     5
 10
-35.961544000000011
 20
21.163408999999991
 30
0.0
 11
-35.934579999999997
 21
21.168035
 31
0.0
  0
LINE
  5
1749
  8
DETAIL
  6
CONTINUOUS
 62
     5
 10
-35.934579999999997
 20
21.168035
 30
0.0
 11
-35.90313900000001
 21
21.177973999999999
 31
0.0
  0
LINE
  5
174A
  8
DETAIL
  6
CONTINUOUS
 62
     5
 10
-35.90313900000001
 20
21.177973999999999
 30
0.0
 11
-35.870426999999999
 21
21.193926999999999
 31
0.0
  0
LINE
  5
174B
  8
DETAIL
  6
CONTINUOUS
 62
     5
 10
-35.870426999999999
 20
21.193926999999999
 30
0.0
 11
-35.839120000000001
 21
21.215681
 31
0.0
  0
LINE
  5
174C
  8
DETAIL
  6
CONTINUOUS
 62
     5
 10
-35.839120000000001
 20
21.215681
 30
0.0
 11
-35.811394
 21
21.242168999999961
 31
0.0
  0
LINE
  5
174D
  8
DETAIL
  6
CONTINUOUS
 62
     5
 10
-35.811394
 20
21.242168999999961
 30
0.0
 11
-35.789023
 21
21.271239000000001
 31
0.0
  0
LINE
  5
174E
  8
DETAIL
  6
CONTINUOUS
 62
     5
 10
-35.789023
 20
21.271239000000001
 30
0.0
 11
-35.772148000000001
 21
21.301451999999991
 31
0.0
  0
LINE
  5
174F
  8
DETAIL
  6
CONTINUOUS
 62
     5
 10
-35.772148000000001
 20
21.301451999999991
 30
0.0
 11
-35.760736000000001
 21
21.330929999999999
 31
0.0
  0
LINE
  5
1750
  8
DETAIL
  6
CONTINUOUS
 62
     5
 10
-35.760736000000001
 20
21.330929999999999
 30
0.0
 11
-35.754197999999967
 21
21.358010999999991
 31
0.0
  0
LINE
  5
1751
  8
DETAIL
  6
CONTINUOUS
 62
     5
 10
-35.754197999999967
 20
21.358010999999991
 30
0.0
 11
-35.751604
 21
21.380877999999999
 31
0.0
  0
LINE
  5
1752
  8
DETAIL
  6
CONTINUOUS
 62
     5
 10
-35.751604
 20
21.380877999999999
 30
0.0
 11
-35.75137500000001
 21
21.389545999999989
 31
0.0
  0
LINE
  5
1753
  8
DETAIL
  6
CONTINUOUS
 62
     5
 10
-30.546047000000002
 20
34.185307999999999
 30
0.0
 11
-30.547364999999999
 21
34.185544
 31
0.0
  0
LINE
  5
1754
  8
DETAIL
  6
CONTINUOUS
 62
     5
 10
-28.093520999999988
 20
33.919384999999998
 30
0.0
 11
-30.546037999999999
 21
34.185307000000002
 31
0.0
  0
LINE
  5
1755
  8
DETAIL
  6
CONTINUOUS
 62
     5
 10
-30.546044999999989
 20
34.185324000000001
 30
0.0
 11
-31.27929099999999
 21
34.259701
 31
0.0
  0
LINE
  5
1756
  8
DETAIL
  6
CONTINUOUS
 62
     5
 10
-35.751387999999992
 20
31.797357000000002
 30
0.0
 11
-36.001049000000002
 21
31.797357000000002
 31
0.0
  0
LINE
  5
1757
  8
DETAIL
  6
CONTINUOUS
 62
     5
 10
-35.751387999999992
 20
21.55128599999998
 30
0.0
 11
-35.745103999999991
 21
21.591035000000002
 31
0.0
  0
LINE
  5
1758
  8
DETAIL
  6
CONTINUOUS
 62
     5
 10
-35.751387999999992
 20
21.389702999999962
 30
0.0
 11
-35.74928899999999
 21
21.404229000000001
 31
0.0
  0
LINE
  5
1759
  8
DETAIL
  6
CONTINUOUS
 62
     5
 10
-35.74928899999999
 20
21.404229000000001
 30
0.0
 11
-35.742947999999998
 21
21.412876999999991
 31
0.0
  0
LINE
  5
175A
  8
DETAIL
  6
CONTINUOUS
 62
     5
 10
-28.755834
 20
33.991434999999989
 30
0.0
 11
-28.756865999999992
 21
33.991174000000001
 31
0.0
  0
LINE
  5
175B
  8
DETAIL
  6
CONTINUOUS
 62
     5
 10
-28.100022999999972
 20
33.346145
 30
0.0
 11
-28.171955999999991
 21
33.322420000000001
 31
0.0
  0
LINE
  5
175C
  8
DETAIL
  6
CONTINUOUS
 62
     5
 10
-28.171955999999991
 20
33.322420000000001
 30
0.0
 11
-28.254809000000002
 21
33.298529999999992
 31
0.0
  0
LINE
  5
175D
  8
DETAIL
  6
CONTINUOUS
 62
     5
 10
-28.254809000000002
 20
33.298529999999992
 30
0.0
 11
-28.333822999999999
 21
33.278872
 31
0.0
  0
LINE
  5
175E
  8
DETAIL
  6
CONTINUOUS
 62
     5
 10
-28.333822999999999
 20
33.278872
 30
0.0
 11
-28.409175999999999
 21
33.262709000000001
 31
0.0
  0
LINE
  5
175F
  8
DETAIL
  6
CONTINUOUS
 62
     5
 10
-28.409175999999999
 20
33.262709000000001
 30
0.0
 11
-28.480460999999991
 21
33.249518999999999
 31
0.0
  0
LINE
  5
1760
  8
DETAIL
  6
CONTINUOUS
 62
     5
 10
-28.480460999999991
 20
33.249518999999999
 30
0.0
 11
-28.549837
 21
33.238446000000003
 31
0.0
  0
LINE
  5
1761
  8
DETAIL
  6
CONTINUOUS
 62
     5
 10
-28.549837
 20
33.238446000000003
 30
0.0
 11
-28.618455999999998
 21
33.229028999999983
 31
0.0
  0
LINE
  5
1762
  8
DETAIL
  6
CONTINUOUS
 62
     5
 10
-28.618455999999998
 20
33.229028999999983
 30
0.0
 11
-28.687263000000002
 21
33.220976999999998
 31
0.0
  0
LINE
  5
1763
  8
DETAIL
  6
CONTINUOUS
 62
     5
 10
-28.687263000000002
 20
33.220976999999998
 30
0.0
 11
-28.755848999999991
 21
33.214227000000001
 31
0.0
  0
LINE
  5
1764
  8
DETAIL
  6
CONTINUOUS
 62
     5
 10
-28.755848999999991
 20
33.214227000000001
 30
0.0
 11
-28.825271999999998
 21
33.208615000000002
 31
0.0
  0
LINE
  5
1765
  8
DETAIL
  6
CONTINUOUS
 62
     5
 10
-28.825271999999998
 20
33.208615000000002
 30
0.0
 11
-28.895782000000001
 21
33.204121999999991
 31
0.0
  0
LINE
  5
1766
  8
DETAIL
  6
CONTINUOUS
 62
     5
 10
-28.895782000000001
 20
33.204121999999991
 30
0.0
 11
-28.966204999999999
 21
33.20082399999999
 31
0.0
  0
LINE
  5
1767
  8
DETAIL
  6
CONTINUOUS
 62
     5
 10
-28.966204999999999
 20
33.20082399999999
 30
0.0
 11
-29.036133
 21
33.198737000000001
 31
0.0
  0
LINE
  5
1768
  8
DETAIL
  6
CONTINUOUS
 62
     5
 10
-29.036133
 20
33.198737000000001
 30
0.0
 11
-35.242756999999997
 21
33.08400799999999
 31
0.0
  0
LINE
  5
1769
  8
DETAIL
  6
CONTINUOUS
 62
     5
 10
-27.821967000000001
 20
33.467989000000003
 30
0.0
 11
-27.991589000000001
 21
33.387636000000001
 31
0.0
  0
LINE
  5
176A
  8
DETAIL
  6
CONTINUOUS
 62
     5
 10
-27.991589000000001
 20
33.387636000000001
 30
0.0
 11
-28.101774999999989
 21
33.345424000000001
 31
0.0
  0
LINE
  5
176B
  8
DETAIL
  6
CONTINUOUS
 62
     5
 10
-28.100386999999991
 20
33.345909999999989
 30
0.0
 11
-28.101774999999989
 21
33.345424000000001
 31
0.0
  0
ARC
  5
176C
  8
DETAIL
  6
CONTINUOUS
 62
     5
 10
-36.050981
 20
22.266563000000001
 30
0.0
 40
0.299593
 50
0.000001
 51
88.908608999999984
  0
ARC
  5
176D
  8
DETAIL
  6
CONTINUOUS
 62
     5
 10
-35.252066999999997
 20
33.583242999999989
 30
0.0
 40
0.4993210000000003
 50
180.0
 51
271.05891600000001
  0
ARC
  5
176E
  8
DETAIL
  6
CONTINUOUS
 62
     5
 10
-36.001049000000002
 20
29.782242
 30
0.0
 40
0.7489819999999999
 50
122.2902329999999
 51
135.03379200000001
  0
LINE
  5
176F
  8
DETAIL
  6
CONTINUOUS
 62
     5
 10
-37.948400999999997
 20
30.31125999999999
 30
0.0
 11
-37.948400999999997
 21
26.015619999999991
 31
0.0
  0
LINE
  5
1770
  8
DETAIL
  6
CONTINUOUS
 62
     5
 10
-37.349215000000001
 20
30.31125999999999
 30
0.0
 11
-37.349215000000001
 21
26.00489
 31
0.0
  0
ARC
  5
1771
  8
DETAIL
  6
CONTINUOUS
 62
     5
 10
-37.848535999999989
 20
22.76904
 30
0.0
 40
0.4993210000000003
 50
270.0
 51
339.120633
  0
ARC
  5
1772
  8
DETAIL
  6
CONTINUOUS
 62
     5
 10
-38.347858000000002
 20
23.268360999999992
 30
0.0
 40
0.998642
 50
270.0
 51
317.56159799999989
  0
LINE
  5
1773
  8
DETAIL
  6
CONTINUOUS
 62
     5
 10
-37.349215000000001
 20
22.590935000000002
 30
0.0
 11
-37.349215000000001
 21
21.159851999999962
 31
0.0
  0
LINE
  5
1774
  8
DETAIL
  6
CONTINUOUS
 62
     5
 10
-37.848535999999989
 20
21.158923999999988
 30
0.0
 11
-37.848535999999989
 21
22.269718999999998
 31
0.0
  0
LINE
  5
1775
  8
DETAIL
  6
CONTINUOUS
 62
     5
 10
-42.925776999999982
 20
21.770398
 30
0.0
 11
-42.925776999999982
 21
21.149242000000001
 31
0.0
  0
LINE
  5
1776
  8
DETAIL
  6
CONTINUOUS
 62
     5
 10
-44.582827000000002
 20
22.868904999999991
 30
0.0
 11
-45.837672999999981
 21
22.868904999999991
 31
0.0
  0
LINE
  5
1777
  8
DETAIL
  6
CONTINUOUS
 62
     5
 10
-37.848535999999989
 20
22.269718999999998
 30
0.0
 11
-45.837672999999981
 21
22.269718999999998
 31
0.0
  0
LINE
  5
1778
  8
DETAIL
  6
CONTINUOUS
 62
     5
 10
-42.925776999999982
 20
21.770398
 30
0.0
 11
-45.837672999999981
 21
21.770398
 31
0.0
  0
ARC
  5
1779
  8
DETAIL
  6
CONTINUOUS
 62
     5
 10
-41.044190999999998
 20
18.474879000000001
 30
0.0
 40
3.7948400000000002
 50
90.0
 51
119.724329
  0
LINE
  5
177A
  8
DETAIL
  6
CONTINUOUS
 62
     5
 10
-45.837672999999981
 20
17.994571000000001
 30
0.0
 11
-45.847268
 21
17.947646999999989
 31
0.0
  0
ARC
  5
177B
  8
DETAIL
  6
CONTINUOUS
 62
     5
 10
-46.336995000000002
 20
23.987891000000001
 30
0.0
 40
0.4993210000000003
 50
0.0
 51
90.0
  0
LINE
  5
177C
  8
DETAIL
  6
CONTINUOUS
 62
     5
 10
-45.837672999999981
 20
20.64096399999999
 30
0.0
 11
-45.847268
 21
20.689647999999991
 31
0.0
  0
LINE
  5
177D
  8
DETAIL
  6
CONTINUOUS
 62
     5
 10
-46.336995000000002
 20
24.487212
 30
0.0
 11
-48.83359999999999
 21
24.487212
 31
0.0
  0
LINE
  5
177E
  8
DETAIL
  6
CONTINUOUS
 62
     5
 10
-44.62337999999999
 20
20.083867999999981
 30
0.0
 11
-44.524223999999982
 21
20.187138000000001
 31
0.0
  0
LINE
  5
177F
  8
DETAIL
  6
CONTINUOUS
 62
     5
 10
-44.730870000000003
 20
19.983615
 30
0.0
 11
-44.62337999999999
 21
20.083867999999981
 31
0.0
  0
LINE
  5
1780
  8
DETAIL
  6
CONTINUOUS
 62
     5
 10
-44.847590999999973
 20
19.88663
 30
0.0
 11
-44.730870000000003
 21
19.983615
 31
0.0
  0
LINE
  5
1781
  8
DETAIL
  6
CONTINUOUS
 62
     5
 10
-44.975313
 20
19.793124999999961
 30
0.0
 11
-44.847590999999973
 21
19.88663
 31
0.0
  0
LINE
  5
1782
  8
DETAIL
  6
CONTINUOUS
 62
     5
 10
-43.508400999999999
 20
21.140699000000001
 30
0.0
 11
-43.418067000000001
 21
21.148129999999991
 31
0.0
  0
LINE
  5
1783
  8
DETAIL
  6
CONTINUOUS
 62
     5
 10
-43.508400999999999
 20
21.140699000000001
 30
0.0
 11
-43.418067000000001
 21
21.148129999999991
 31
0.0
  0
LINE
  5
1784
  8
DETAIL
  6
CONTINUOUS
 62
     5
 10
-43.593288000000001
 20
21.122160999999991
 30
0.0
 11
-43.508400999999999
 21
21.140699000000001
 31
0.0
  0
LINE
  5
1785
  8
DETAIL
  6
CONTINUOUS
 62
     5
 10
-43.613295999999998
 20
21.115881000000002
 30
0.0
 11
-43.593288000000001
 21
21.122160999999991
 31
0.0
  0
LINE
  5
1786
  8
DETAIL
  6
CONTINUOUS
 62
     5
 10
-44.273158000000002
 20
20.509074999999999
 30
0.0
 11
-44.207033000000003
 21
20.600263999999989
 31
0.0
  0
LINE
  5
1787
  8
DETAIL
  6
CONTINUOUS
 62
     5
 10
-44.345762999999977
 20
20.406886
 30
0.0
 11
-44.273158000000002
 21
20.509074999999999
 31
0.0
  0
LINE
  5
1788
  8
DETAIL
  6
CONTINUOUS
 62
     5
 10
-44.432209
 20
20.29411099999998
 30
0.0
 11
-44.345762999999977
 21
20.406886
 31
0.0
  0
LINE
  5
1789
  8
DETAIL
  6
CONTINUOUS
 62
     5
 10
-44.524223999999982
 20
20.187138000000001
 30
0.0
 11
-44.432209
 21
20.29411099999998
 31
0.0
  0
LINE
  5
178A
  8
DETAIL
  6
CONTINUOUS
 62
     5
 10
-44.323118999999998
 20
20.435455000000001
 30
0.0
 11
-44.329357999999999
 21
20.429924999999962
 31
0.0
  0
LINE
  5
178B
  8
DETAIL
  6
CONTINUOUS
 62
     5
 10
-43.929685999999982
 20
20.933267999999991
 30
0.0
 11
-43.847959000000003
 21
20.997159
 31
0.0
  0
LINE
  5
178C
  8
DETAIL
  6
CONTINUOUS
 62
     5
 10
-43.672257000000002
 20
21.093717000000002
 30
0.0
 11
-43.613401999999986
 21
21.115811999999991
 31
0.0
  0
LINE
  5
178D
  8
DETAIL
  6
CONTINUOUS
 62
     5
 10
-43.761732000000002
 20
21.050732
 30
0.0
 11
-43.672257000000002
 21
21.093717000000002
 31
0.0
  0
LINE
  5
178E
  8
DETAIL
  6
CONTINUOUS
 62
     5
 10
-43.847959000000003
 20
20.997159
 30
0.0
 11
-43.761732000000002
 21
21.050732
 31
0.0
  0
LINE
  5
178F
  8
DETAIL
  6
CONTINUOUS
 62
     5
 10
-44.139291999999998
 20
20.691617999999991
 30
0.0
 11
-44.06807899999999
 21
20.785515
 31
0.0
  0
LINE
  5
1790
  8
DETAIL
  6
CONTINUOUS
 62
     5
 10
-44.068047999999983
 20
20.785560999999991
 30
0.0
 11
-44.005678000000003
 21
20.859501000000002
 31
0.0
  0
LINE
  5
1791
  8
DETAIL
  6
CONTINUOUS
 62
     5
 10
-44.005678000000003
 20
20.859501000000002
 30
0.0
 11
-43.929685999999982
 21
20.933267999999991
 31
0.0
  0
LINE
  5
1792
  8
DETAIL
  6
CONTINUOUS
 62
     5
 10
-44.273158000000002
 20
20.509074999999999
 30
0.0
 11
-44.207033000000003
 21
20.600263999999989
 31
0.0
  0
LINE
  5
1793
  8
DETAIL
  6
CONTINUOUS
 62
     5
 10
-44.207033000000003
 20
20.600263999999989
 30
0.0
 11
-44.139291999999998
 21
20.691617999999991
 31
0.0
  0
LINE
  5
1794
  8
DETAIL
  6
CONTINUOUS
 62
     5
 10
-45.403064999999977
 20
23.162707000000001
 30
0.0
 11
-45.471047999999982
 21
23.194845000000001
 31
0.0
  0
LINE
  5
1795
  8
DETAIL
  6
CONTINUOUS
 62
     5
 10
-45.471047999999982
 20
23.194845000000001
 30
0.0
 11
-45.531156000000003
 21
23.230364000000002
 31
0.0
  0
LINE
  5
1796
  8
DETAIL
  6
CONTINUOUS
 62
     5
 10
-45.531156000000003
 20
23.230364000000002
 30
0.0
 11
-45.583875999999982
 21
23.269586
 31
0.0
  0
LINE
  5
1797
  8
DETAIL
  6
CONTINUOUS
 62
     5
 10
-45.583875999999982
 20
23.269586
 30
0.0
 11
-45.629178000000003
 21
23.312585999999989
 31
0.0
  0
LINE
  5
1798
  8
DETAIL
  6
CONTINUOUS
 62
     5
 10
-45.629178000000003
 20
23.312585999999989
 30
0.0
 11
-45.666747999999998
 21
23.358995
 31
0.0
  0
LINE
  5
1799
  8
DETAIL
  6
CONTINUOUS
 62
     5
 10
-45.666747999999998
 20
23.358995
 30
0.0
 11
-45.696604000000001
 21
23.408625000000001
 31
0.0
  0
LINE
  5
179A
  8
DETAIL
  6
CONTINUOUS
 62
     5
 10
-45.696604000000001
 20
23.408625000000001
 30
0.0
 11
-45.718378999999999
 21
23.460495000000002
 31
0.0
  0
LINE
  5
179B
  8
DETAIL
  6
CONTINUOUS
 62
     5
 10
-45.718378999999999
 20
23.460495000000002
 30
0.0
 11
-45.732075000000002
 21
23.514008999999991
 31
0.0
  0
LINE
  5
179C
  8
DETAIL
  6
CONTINUOUS
 62
     5
 10
-45.732075000000002
 20
23.514008999999991
 30
0.0
 11
-45.737645999999991
 21
23.568038000000001
 31
0.0
  0
LINE
  5
179D
  8
DETAIL
  6
CONTINUOUS
 62
     5
 10
-45.737645999999991
 20
23.568038000000001
 30
0.0
 11
-45.737797
 21
23.578544000000001
 31
0.0
  0
LINE
  5
179E
  8
DETAIL
  6
CONTINUOUS
 62
     5
 10
-45.330432000000002
 20
23.13505399999999
 30
0.0
 11
-45.346308000000001
 21
23.141638
 31
0.0
  0
LINE
  5
179F
  8
DETAIL
  6
CONTINUOUS
 62
     5
 10
-45.330176999999999
 20
23.134966999999989
 30
0.0
 11
-45.403064999999977
 21
23.162707000000001
 31
0.0
  0
LINE
  5
17A0
  8
DETAIL
  6
CONTINUOUS
 62
     5
 10
-44.275875999999982
 20
22.753778000000001
 30
0.0
 11
-44.398806999999977
 21
22.800326999999999
 31
0.0
  0
LINE
  5
17A1
  8
DETAIL
  6
CONTINUOUS
 62
     5
 10
-44.398806999999977
 20
22.800326999999999
 30
0.0
 11
-44.604027000000002
 21
22.876805000000001
 31
0.0
  0
LINE
  5
17A2
  8
DETAIL
  6
CONTINUOUS
 62
     5
 10
-44.604027000000002
 20
22.876805000000001
 30
0.0
 11
-44.808785999999991
 21
22.951571999999992
 31
0.0
  0
LINE
  5
17A3
  8
DETAIL
  6
CONTINUOUS
 62
     5
 10
-44.808785999999991
 20
22.951571999999992
 30
0.0
 11
-45.013080000000002
 21
23.024629000000001
 31
0.0
  0
LINE
  5
17A4
  8
DETAIL
  6
CONTINUOUS
 62
     5
 10
-45.013080000000002
 20
23.024629000000001
 30
0.0
 11
-45.216900000000003
 21
23.095978999999989
 31
0.0
  0
LINE
  5
17A5
  8
DETAIL
  6
CONTINUOUS
 62
     5
 10
-45.216900000000003
 20
23.095978999999989
 30
0.0
 11
-45.330432000000002
 21
23.13505399999999
 31
0.0
  0
LINE
  5
17A6
  8
DETAIL
  6
CONTINUOUS
 62
     5
 10
-45.358255
 20
19.542475
 30
0.0
 11
-45.368152000000002
 21
19.536518999999991
 31
0.0
  0
LINE
  5
17A7
  8
DETAIL
  6
CONTINUOUS
 62
     5
 10
-45.018990000000002
 20
19.763619999999989
 30
0.0
 11
-45.026710999999992
 21
19.758973999999998
 31
0.0
  0
LINE
  5
17A8
  8
DETAIL
  6
CONTINUOUS
 62
     5
 10
-45.298445999999991
 20
24.569389999999999
 30
0.0
 11
-45.336309
 21
24.577828
 31
0.0
  0
LINE
  5
17A9
  8
DETAIL
  6
CONTINUOUS
 62
     5
 10
-45.336309
 20
24.577828
 30
0.0
 11
-45.373409000000002
 21
24.583431999999991
 31
0.0
  0
LINE
  5
17AA
  8
DETAIL
  6
CONTINUOUS
 62
     5
 10
-45.373409000000002
 20
24.583431999999991
 30
0.0
 11
-45.409742999999999
 21
24.586203999999999
 31
0.0
  0
LINE
  5
17AB
  8
DETAIL
  6
CONTINUOUS
 62
     5
 10
-45.409742999999999
 20
24.586203999999999
 30
0.0
 11
-45.445314000000003
 21
24.586141999999992
 31
0.0
  0
LINE
  5
17AC
  8
DETAIL
  6
CONTINUOUS
 62
     5
 10
-44.171627999999977
 20
22.725471999999989
 30
0.0
 11
-44.226239
 21
22.737452999999991
 31
0.0
  0
LINE
  5
17AD
  8
DETAIL
  6
CONTINUOUS
 62
     5
 10
-44.226239
 20
22.737452999999991
 30
0.0
 11
-44.275884999999967
 21
22.753781
 31
0.0
  0
LINE
  5
17AE
  8
DETAIL
  6
CONTINUOUS
 62
     5
 10
-44.10498599999999
 20
22.719377999999988
 30
0.0
 11
-44.11719699999999
 21
22.719777000000001
 31
0.0
  0
LINE
  5
17AF
  8
DETAIL
  6
CONTINUOUS
 62
     5
 10
-44.11719699999999
 20
22.719777000000001
 30
0.0
 11
-44.171627999999977
 21
22.725471999999989
 31
0.0
  0
LINE
  5
17B0
  8
DETAIL
  6
CONTINUOUS
 62
     5
 10
-45.239934999999981
 20
24.571745
 30
0.0
 11
-44.676077999999983
 21
24.561494
 31
0.0
  0
LINE
  5
17B1
  8
DETAIL
  6
CONTINUOUS
 62
     5
 10
-45.737802000000002
 20
25.560428999999999
 30
0.0
 11
-45.737660999999989
 21
25.572451000000001
 31
0.0
  0
LINE
  5
17B2
  8
DETAIL
  6
CONTINUOUS
 62
     5
 10
-45.737660999999989
 20
25.572451000000001
 30
0.0
 11
-45.730907999999999
 21
25.643713999999999
 31
0.0
  0
LINE
  5
17B3
  8
DETAIL
  6
CONTINUOUS
 62
     5
 10
-45.730907999999999
 20
25.643713999999999
 30
0.0
 11
-45.714469000000001
 21
25.712357000000001
 31
0.0
  0
LINE
  5
17B4
  8
DETAIL
  6
CONTINUOUS
 62
     5
 10
-45.714469000000001
 20
25.712357000000001
 30
0.0
 11
-45.689095000000002
 21
25.777135000000001
 31
0.0
  0
LINE
  5
17B5
  8
DETAIL
  6
CONTINUOUS
 62
     5
 10
-45.689095000000002
 20
25.777135000000001
 30
0.0
 11
-45.655757999999999
 21
25.836887999999998
 31
0.0
  0
LINE
  5
17B6
  8
DETAIL
  6
CONTINUOUS
 62
     5
 10
-45.655757999999999
 20
25.836887999999998
 30
0.0
 11
-45.615355000000001
 21
25.890996999999999
 31
0.0
  0
LINE
  5
17B7
  8
DETAIL
  6
CONTINUOUS
 62
     5
 10
-45.615355000000001
 20
25.890996999999999
 30
0.0
 11
-45.569633999999994
 21
25.938188
 31
0.0
  0
LINE
  5
17B8
  8
DETAIL
  6
CONTINUOUS
 62
     5
 10
-45.569633999999994
 20
25.938188
 30
0.0
 11
-45.520068999999999
 21
25.978207999999999
 31
0.0
  0
LINE
  5
17B9
  8
DETAIL
  6
CONTINUOUS
 62
     5
 10
-45.520068999999999
 20
25.978207999999999
 30
0.0
 11
-45.469090999999992
 21
26.010605999999999
 31
0.0
  0
LINE
  5
17BA
  8
DETAIL
  6
CONTINUOUS
 62
     5
 10
-45.469090999999992
 20
26.010605999999999
 30
0.0
 11
-45.419311
 21
26.035629999999991
 31
0.0
  0
LINE
  5
17BB
  8
DETAIL
  6
CONTINUOUS
 62
     5
 10
-45.419311
 20
26.035629999999991
 30
0.0
 11
-45.370967999999991
 21
26.054939999999998
 31
0.0
  0
LINE
  5
17BC
  8
DETAIL
  6
CONTINUOUS
 62
     5
 10
-45.370967999999991
 20
26.054939999999998
 30
0.0
 11
-45.324888999999992
 21
26.069645999999992
 31
0.0
  0
LINE
  5
17BD
  8
DETAIL
  6
CONTINUOUS
 62
     5
 10
-45.324888999999992
 20
26.069645999999992
 30
0.0
 11
-45.279671999999991
 21
26.081258999999999
 31
0.0
  0
LINE
  5
17BE
  8
DETAIL
  6
CONTINUOUS
 62
     5
 10
-45.279671999999991
 20
26.081258999999999
 30
0.0
 11
-45.234214999999999
 21
26.090699999999998
 31
0.0
  0
LINE
  5
17BF
  8
DETAIL
  6
CONTINUOUS
 62
     5
 10
-45.234214999999999
 20
26.090699999999998
 30
0.0
 11
-45.187485000000002
 21
26.098580999999999
 31
0.0
  0
LINE
  5
17C0
  8
DETAIL
  6
CONTINUOUS
 62
     5
 10
-45.737799000000003
 20
18.884822
 30
0.0
 11
-45.737710999999997
 21
18.896605999999998
 31
0.0
  0
LINE
  5
17C1
  8
DETAIL
  6
CONTINUOUS
 62
     5
 10
-45.737710999999997
 20
18.896605999999998
 30
0.0
 11
-45.731113999999998
 21
18.983798
 31
0.0
  0
LINE
  5
17C2
  8
DETAIL
  6
CONTINUOUS
 62
     5
 10
-45.731113999999998
 20
18.983798
 30
0.0
 11
-45.714216999999998
 21
19.069222
 31
0.0
  0
LINE
  5
17C3
  8
DETAIL
  6
CONTINUOUS
 62
     5
 10
-45.714216999999998
 20
19.069222
 30
0.0
 11
-45.687204999999999
 21
19.152410999999962
 31
0.0
  0
LINE
  5
17C4
  8
DETAIL
  6
CONTINUOUS
 62
     5
 10
-45.687204999999999
 20
19.152410999999962
 30
0.0
 11
-45.650205
 21
19.23273
 31
0.0
  0
LINE
  5
17C5
  8
DETAIL
  6
CONTINUOUS
 62
     5
 10
-45.650205
 20
19.23273
 30
0.0
 11
-45.603330999999997
 21
19.309498999999992
 31
0.0
  0
LINE
  5
17C6
  8
DETAIL
  6
CONTINUOUS
 62
     5
 10
-45.603330999999997
 20
19.309498999999992
 30
0.0
 11
-45.546599999999998
 21
19.382131000000001
 31
0.0
  0
LINE
  5
17C7
  8
DETAIL
  6
CONTINUOUS
 62
     5
 10
-45.546599999999998
 20
19.382131000000001
 30
0.0
 11
-45.480098999999989
 21
19.449815999999998
 31
0.0
  0
LINE
  5
17C8
  8
DETAIL
  6
CONTINUOUS
 62
     5
 10
-45.480098999999989
 20
19.449815999999998
 30
0.0
 11
-45.403640000000003
 21
19.511993
 31
0.0
  0
LINE
  5
17C9
  8
DETAIL
  6
CONTINUOUS
 62
     5
 10
-45.403640000000003
 20
19.511993
 30
0.0
 11
-45.368301000000002
 21
19.536414999999991
 31
0.0
  0
LINE
  5
17CA
  8
DETAIL
  6
CONTINUOUS
 62
     5
 10
-45.737808999999999
 20
25.560497000000002
 30
0.0
 11
-45.737808999999999
 21
23.578592
 31
0.0
  0
LINE
  5
17CB
  8
DETAIL
  6
CONTINUOUS
 62
     5
 10
-44.591110999999998
 20
26.133772
 30
0.0
 11
-44.575589000000001
 21
26.133331999999999
 31
0.0
  0
LINE
  5
17CC
  8
DETAIL
  6
CONTINUOUS
 62
     5
 10
-44.575589000000001
 20
26.133331999999999
 30
0.0
 11
-44.548233000000003
 21
26.133692
 31
0.0
  0
LINE
  5
17CD
  8
DETAIL
  6
CONTINUOUS
 62
     5
 10
-44.59113
 20
26.133775
 30
0.0
 11
-44.548279000000001
 21
26.133693000000001
 31
0.0
  0
LINE
  5
17CE
  8
DETAIL
  6
CONTINUOUS
 62
     5
 10
-44.548192
 20
26.133690999999988
 30
0.0
 11
-44.575589000000001
 21
26.133331999999999
 31
0.0
  0
LINE
  5
17CF
  8
DETAIL
  6
CONTINUOUS
 62
     5
 10
-44.678804999999983
 20
26.132208999999989
 30
0.0
 11
-44.591110999999998
 21
26.133772
 31
0.0
  0
LINE
  5
17D0
  8
DETAIL
  6
CONTINUOUS
 62
     5
 10
-44.575589000000001
 20
26.133331999999999
 30
0.0
 11
-44.591115000000002
 21
26.133023000000001
 31
0.0
  0
LINE
  5
17D1
  8
DETAIL
  6
CONTINUOUS
 62
     5
 10
-44.678804999999983
 20
26.132208999999989
 30
0.0
 11
-44.691220000000001
 21
26.131028000000001
 31
0.0
  0
LINE
  5
17D2
  8
DETAIL
  6
CONTINUOUS
 62
     5
 10
-44.691220000000001
 20
26.131028000000001
 30
0.0
 11
-44.759402999999999
 21
26.130143
 31
0.0
  0
LINE
  5
17D3
  8
DETAIL
  6
CONTINUOUS
 62
     5
 10
-44.502989999999997
 20
24.594581999999999
 30
0.0
 11
-44.538544999999999
 21
24.593353
 31
0.0
  0
LINE
  5
17D4
  8
DETAIL
  6
CONTINUOUS
 62
     5
 10
-44.538544999999999
 20
24.593353
 30
0.0
 11
-44.587434999999992
 21
24.585412999999999
 31
0.0
  0
LINE
  5
17D5
  8
DETAIL
  6
CONTINUOUS
 62
     5
 10
-44.105031999999987
 20
22.719394000000001
 30
0.0
 11
-44.097774000000001
 21
22.719695999999988
 31
0.0
  0
LINE
  5
17D6
  8
DETAIL
  6
CONTINUOUS
 62
     5
 10
-44.797801
 20
26.127597000000002
 30
0.0
 11
-44.834722999999983
 21
26.127531000000001
 31
0.0
  0
LINE
  5
17D7
  8
DETAIL
  6
CONTINUOUS
 62
     5
 10
-45.445314000000003
 20
24.586141999999992
 30
0.0
 11
-45.493974000000001
 21
24.582177999999988
 31
0.0
  0
LINE
  5
17D8
  8
DETAIL
  6
CONTINUOUS
 62
     5
 10
-45.493974000000001
 20
24.582177999999988
 30
0.0
 11
-45.539489000000003
 21
24.575253
 31
0.0
  0
LINE
  5
17D9
  8
DETAIL
  6
CONTINUOUS
 62
     5
 10
-45.539489000000003
 20
24.575253
 30
0.0
 11
-45.581387999999997
 21
24.565159000000001
 31
0.0
  0
LINE
  5
17DA
  8
DETAIL
  6
CONTINUOUS
 62
     5
 10
-45.581387999999997
 20
24.565159000000001
 30
0.0
 11
-45.619309999999999
 21
24.552223999999999
 31
0.0
  0
LINE
  5
17DB
  8
DETAIL
  6
CONTINUOUS
 62
     5
 10
-45.619309999999999
 20
24.552223999999999
 30
0.0
 11
-45.652796000000002
 21
24.536617
 31
0.0
  0
LINE
  5
17DC
  8
DETAIL
  6
CONTINUOUS
 62
     5
 10
-45.652796000000002
 20
24.536617
 30
0.0
 11
-45.681499000000002
 21
24.518498999999998
 31
0.0
  0
LINE
  5
17DD
  8
DETAIL
  6
CONTINUOUS
 62
     5
 10
-45.681499000000002
 20
24.518498999999998
 30
0.0
 11
-45.704917999999999
 21
24.498006
 31
0.0
  0
LINE
  5
17DE
  8
DETAIL
  6
CONTINUOUS
 62
     5
 10
-45.704917999999999
 20
24.498006
 30
0.0
 11
-45.722590999999987
 21
24.475291999999989
 31
0.0
  0
LINE
  5
17DF
  8
DETAIL
  6
CONTINUOUS
 62
     5
 10
-45.722590999999987
 20
24.475291999999989
 30
0.0
 11
-45.733862999999999
 21
24.450631000000001
 31
0.0
  0
LINE
  5
17E0
  8
DETAIL
  6
CONTINUOUS
 62
     5
 10
-45.733862999999999
 20
24.450631000000001
 30
0.0
 11
-45.737808999999999
 21
24.423604999999991
 31
0.0
  0
LINE
  5
17E1
  8
DETAIL
  6
CONTINUOUS
 62
     5
 10
-45.298540000000003
 20
24.569403999999999
 30
0.0
 11
-45.283923000000001
 21
24.570608
 31
0.0
  0
LINE
  5
17E2
  8
DETAIL
  6
CONTINUOUS
 62
     5
 10
-45.283923000000001
 20
24.570608
 30
0.0
 11
-45.269275
 21
24.571400000000001
 31
0.0
  0
LINE
  5
17E3
  8
DETAIL
  6
CONTINUOUS
 62
     5
 10
-45.269275
 20
24.571400000000001
 30
0.0
 11
-45.254607
 21
24.571778999999999
 31
0.0
  0
LINE
  5
17E4
  8
DETAIL
  6
CONTINUOUS
 62
     5
 10
-45.254607
 20
24.571778999999999
 30
0.0
 11
-45.239934999999981
 21
24.571745
 31
0.0
  0
LINE
  5
17E5
  8
DETAIL
  6
CONTINUOUS
 62
     5
 10
-45.086145000000002
 20
26.111146999999988
 30
0.0
 11
-45.03013399999999
 21
26.116206999999999
 31
0.0
  0
LINE
  5
17E6
  8
DETAIL
  6
CONTINUOUS
 62
     5
 10
-45.03013399999999
 20
26.116206999999999
 30
0.0
 11
-44.969856999999983
 21
26.120588999999999
 31
0.0
  0
LINE
  5
17E7
  8
DETAIL
  6
CONTINUOUS
 62
     5
 10
-44.969856999999983
 20
26.120588999999999
 30
0.0
 11
-44.904794000000003
 21
26.124355000000001
 31
0.0
  0
LINE
  5
17E8
  8
DETAIL
  6
CONTINUOUS
 62
     5
 10
-44.904794000000003
 20
26.124355000000001
 30
0.0
 11
-44.834722999999983
 21
26.127531000000001
 31
0.0
  0
LINE
  5
17E9
  8
DETAIL
  6
CONTINUOUS
 62
     5
 10
-44.834722999999983
 20
26.127531000000001
 30
0.0
 11
-44.759402999999999
 21
26.130143
 31
0.0
  0
LINE
  5
17EA
  8
DETAIL
  6
CONTINUOUS
 62
     5
 10
-44.759402999999999
 20
26.130143
 30
0.0
 11
-44.678804999999983
 21
26.132208999999989
 31
0.0
  0
LINE
  5
17EB
  8
DETAIL
  6
CONTINUOUS
 62
     5
 10
-45.731650000000002
 20
25.637535
 30
0.0
 11
-45.730907999999999
 21
25.643713999999999
 31
0.0
  0
LINE
  5
17EC
  8
DETAIL
  6
CONTINUOUS
 62
     5
 10
-45.737808999999999
 20
18.885273000000002
 30
0.0
 11
-45.737710999999997
 21
18.896605999999998
 31
0.0
  0
LINE
  5
17ED
  8
DETAIL
  6
CONTINUOUS
 62
     5
 10
-45.187485000000002
 20
26.098580999999999
 30
0.0
 11
-45.138345999999999
 21
26.105324
 31
0.0
  0
LINE
  5
17EE
  8
DETAIL
  6
CONTINUOUS
 62
     5
 10
-45.138345999999999
 20
26.105324
 30
0.0
 11
-45.086145000000002
 21
26.111146999999988
 31
0.0
  0
LINE
  5
17EF
  8
DETAIL
  6
CONTINUOUS
 62
     5
 10
-43.418067000000001
 20
21.148129999999991
 30
0.0
 11
-43.400520999999998
 21
21.148343000000001
 31
0.0
  0
LINE
  5
17F0
  8
DETAIL
  6
CONTINUOUS
 62
     5
 10
-44.679845999999998
 20
24.560444
 30
0.0
 11
-44.633957000000002
 21
24.573232999999998
 31
0.0
  0
LINE
  5
17F1
  8
DETAIL
  6
CONTINUOUS
 62
     5
 10
-44.633957000000002
 20
24.573232999999998
 30
0.0
 11
-44.587434999999992
 21
24.585412999999999
 31
0.0
  0
LINE
  5
17F2
  8
DETAIL
  6
CONTINUOUS
 62
     5
 10
-45.368152000000002
 20
19.536518999999991
 30
0.0
 11
-45.026829999999997
 21
19.758897000000001
 31
0.0
  0
LINE
  5
17F3
  8
DETAIL
  6
CONTINUOUS
 62
     5
 10
-45.368152000000002
 20
19.536518999999991
 30
0.0
 11
-45.368303999999981
 21
19.536418999999999
 31
0.0
  0
LINE
  5
17F4
  8
DETAIL
  6
CONTINUOUS
 62
     5
 10
-45.026710999999992
 20
19.758973999999998
 30
0.0
 11
-44.975313
 21
19.793124999999961
 31
0.0
  0
LINE
  5
17F5
  8
DETAIL
  6
CONTINUOUS
 62
     5
 10
-64.0
 20
20.403531000000001
 30
0.0
 11
-64.0
 21
-20.40353
 31
0.0
  0
ARC
  5
17F6
  8
DETAIL
  6
CONTINUOUS
 62
     5
 10
-61.403530000000011
 20
-20.40353
 30
0.0
 40
2.5964700000000001
 50
180.0
 51
270.0
  0
LINE
  5
17F7
  8
DETAIL
  6
CONTINUOUS
 62
     5
 10
-64.0
 20
14.51008299999998
 30
0.0
 11
-63.983674000000001
 21
14.718160999999981
 31
0.0
  0
LINE
  5
17F8
  8
DETAIL
  6
CONTINUOUS
 62
     5
 10
-64.0
 20
19.293392000000001
 30
0.0
 11
-63.983781999999991
 21
19.153818999999991
 31
0.0
  0
LINE
  5
17F9
  8
DETAIL
  6
CONTINUOUS
 62
     5
 10
-64.0
 20
19.293392000000001
 30
0.0
 11
-63.983674000000001
 21
19.438683999999991
 31
0.0
  0
ARC
  5
17FA
  8
DETAIL
  6
CONTINUOUS
 62
     5
 10
-61.403530000000011
 20
20.403531000000001
 30
0.0
 40
2.5964700000000001
 50
90.0
 51
180.0
  0
ARC
  5
17FB
  8
DETAIL
  6
DASHED
 62
     5
 10
3.2647870000000001
 20
24.774429999999999
 30
0.0
 40
17.545199
 50
52.855381000000008
 51
87.818744999999979
  0
LINE
  5
17FC
  8
DETAIL
  6
CONTINUOUS
 62
     5
 10
0.302207
 20
79.99996299999998
 30
0.0
 11
34.231175
 21
79.704523999999978
 31
0.0
  0
LINE
  5
17FD
  8
DETAIL
  6
DIVIDE
 62
     5
 10
94.032071000000016
 20
71.457553000000004
 30
0.0
 11
86.530462
 21
74.295468
 31
0.0
  0
ARC
  5
17FE
  8
DETAIL
  6
DIVIDE
 62
     5
 10
93.502041000000006
 20
70.056495999999996
 30
0.0
 40
1.497962999999999
 50
347.14237700000001
 51
69.278000000000006
  0
LINE
  5
17FF
  8
DETAIL
  6
CONTINUOUS
 62
     5
 10
35.554582000000011
 20
68.295721999999998
 30
0.0
 11
36.47912199999999
 21
59.738748999999999
 31
0.0
  0
LINE
  5
1800
  8
DETAIL
  6
CONTINUOUS
 62
     5
 10
40.080554999999997
 20
60.885800000000003
 30
0.0
 11
39.115960000000001
 21
69.625163999999998
 31
0.0
  0
LINE
  5
1801
  8
DETAIL
  6
CONTINUOUS
 62
     5
 10
37.297471000000002
 20
51.162252999999993
 30
0.0
 11
38.008003000000002
 21
42.583295999999983
 31
0.0
  0
LINE
  5
1802
  8
DETAIL
  6
CONTINUOUS
 62
     5
 10
41.673344
 20
43.373688999999999
 30
0.0
 11
40.933062999999997
 21
52.134827000000001
 31
0.0
  0
LINE
  5
1803
  8
DETAIL
  6
CONTINUOUS
 62
     5
 10
42.301271999999997
 20
34.603825000000001
 30
0.0
 11
41.673344
 21
43.373688999999999
 31
0.0
  0
LINE
  5
1804
  8
DETAIL
  6
CONTINUOUS
 62
     5
 10
36.479494000000003
 20
59.735098000000001
 30
0.0
 11
37.297145
 21
51.16590699999999
 31
0.0
  0
LINE
  5
1805
  8
DETAIL
  6
CONTINUOUS
 62
     5
 10
40.933062999999997
 20
52.134827000000001
 30
0.0
 11
40.080554999999997
 21
60.885800000000003
 31
0.0
  0
ARC
  5
1806
  8
DETAIL
  6
CONTINUOUS
 62
     5
 10
42.830335999999981
 20
78.131398000000004
 30
0.0
 40
1.497962999999999
 50
7.3643770000000002
 51
89.500000000000014
  0
LINE
  5
1807
  8
DETAIL
  6
CONTINUOUS
 62
     5
 10
34.522659999999981
 20
76.84493999999998
 30
0.0
 11
35.55416499999999
 21
68.299368000000001
 31
0.0
  0
LINE
  5
1808
  8
DETAIL
  6
CONTINUOUS
 62
     5
 10
39.115960000000001
 20
69.625163999999998
 30
0.0
 11
37.95082
 21
79.069843999999975
 31
0.0
  0
LINE
  5
1809
  8
DETAIL
  6
CONTINUOUS
 62
     5
 10
34.525002000000001
 20
79.448281999999978
 30
0.0
 11
34.524313999999997
 21
76.828457
 31
0.0
  0
LINE
  5
180A
  8
DETAIL
  6
CONTINUOUS
 62
     5
 10
34.823484999999998
 20
79.692084999999963
 30
0.0
 11
34.823245999999997
 21
79.699294999999978
 31
0.0
  0
LINE
  5
180B
  8
DETAIL
  6
CONTINUOUS
 62
     5
 10
42.843407999999982
 20
79.629304000000005
 30
0.0
 11
34.823245999999997
 21
79.699294999999978
 31
0.0
  0
ARC
  5
180C
  8
DETAIL
  6
CONTINUOUS
 62
     5
 10
34.820630999999992
 20
79.399714000000003
 30
0.0
 40
0.299593
 50
89.500000000000014
 51
170.88459
  0
ARC
  5
180D
  8
DETAIL
  6
CONTINUOUS
 62
     5
 10
34.228560999999999
 20
79.404943000000003
 30
0.0
 40
0.299593
 50
8.1087369999999979
 51
89.500000000000014
  0
LINE
  5
180E
  8
DETAIL
  6
CONTINUOUS
 62
     5
 10
-29.455321999999999
 20
40.186809999999987
 30
0.0
 11
0.0
 21
40.562379
 31
0.0
  0
LINE
  5
180F
  8
DETAIL
  6
CONTINUOUS
 62
     5
 10
-25.310654
 20
41.007424999999991
 30
0.0
 11
-18.574743999999999
 21
41.029874999999997
 31
0.0
  0
LINE
  5
1810
  8
DETAIL
  6
CONTINUOUS
 62
     5
 10
0.0
 20
44.798358999999998
 30
0.0
 11
-29.453303999999989
 21
44.679850000000002
 31
0.0
  0
LINE
  5
1811
  8
DETAIL
  6
CONTINUOUS
 62
     5
 10
-29.454443000000001
 20
45.827053999999997
 30
0.0
 11
0.0
 21
46.151027999999982
 31
0.0
  0
LINE
  5
1812
  8
DETAIL
  6
CONTINUOUS
 62
     5
 10
-31.547768000000001
 20
47.243051999999977
 30
0.0
 11
-18.585339000000001
 21
47.326369
 31
0.0
  0
LINE
  5
1813
  8
DETAIL
  6
CONTINUOUS
 62
     5
 10
-20.536380999999999
 20
46.977010999999983
 30
0.0
 11
-20.336659000000001
 21
47.002450000000003
 31
0.0
  0
LINE
  5
1814
  8
DETAIL
  6
CONTINUOUS
 62
     5
 10
-34.342461
 20
42.665246999999987
 30
0.0
 11
-17.295325999999982
 21
42.702261999999983
 31
0.0
  0
LINE
  5
1815
  8
DETAIL
  6
CONTINUOUS
 62
     5
 10
-33.421793000000001
 20
37.203789999999991
 30
0.0
 11
0.0
 21
37.276358999999999
 31
0.0
  0
LINE
  5
1816
  8
DETAIL
  6
CONTINUOUS
 62
     5
 10
-29.453302000000001
 20
38.835698999999991
 30
0.0
 11
0.0
 21
38.902625999999991
 31
0.0
  0
ARC
  5
1817
  8
DETAIL
  6
CONTINUOUS
 62
     5
 10
-20.782590999999989
 20
63.06227299999999
 30
0.0
 40
1.9972840000000001
 50
69.130102000000008
 51
148.138138
  0
ARC
  5
1818
  8
DETAIL
  6
CONTINUOUS
 62
     5
 10
-20.782590999999989
 20
63.06227299999999
 30
0.0
 40
1.497962999999999
 50
69.130102000000008
 51
148.138138
  0
ARC
  5
1819
  8
DETAIL
  6
CONTINUOUS
 62
     5
 10
-20.782590999999989
 20
61.064988999999997
 30
0.0
 40
1.497962999999999
 50
69.130102000000008
 51
148.138138
  0
LINE
  5
181A
  8
DETAIL
  6
CONTINUOUS
 62
     5
 10
-18.479176999999989
 20
47.338735
 30
0.0
 11
0.0
 21
47.5
 31
0.0
  0
LINE
  5
181B
  8
DETAIL
  6
CONTINUOUS
 62
     5
 10
-16.590530999999991
 20
42.782933
 30
0.0
 11
0.0
 21
42.848480000000002
 31
0.0
  0
ARC
  5
181C
  8
DETAIL
  6
DASHED
 62
     5
 10
2.7842289999999981
 20
16.206398
 30
0.0
 40
26.125766999999989
 50
86.098802000000006
 51
105.99449199999979
  0
ARC
  5
181D
  8
DETAIL
  6
CONTINUOUS
 62
     5
 10
-18.474820999999991
 20
46.839433
 30
0.0
 40
0.4993210000000003
 50
90.499832999999995
 51
180.0
  0
LINE
  5
181E
  8
DETAIL
  6
CONTINUOUS
 62
     5
 10
-18.966702999999999
 20
46.024659
 30
0.0
 11
-18.961248000000001
 21
46.031273999999989
 31
0.0
  0
LINE
  5
181F
  8
DETAIL
  6
CONTINUOUS
 62
     5
 10
-18.998470999999991
 20
45.99203399999999
 30
0.0
 11
-18.966702999999999
 21
46.024659
 31
0.0
  0
LINE
  5
1820
  8
DETAIL
  6
CONTINUOUS
 62
     5
 10
-19.054393999999991
 20
45.944974000000002
 30
0.0
 11
-18.998470999999991
 21
45.99203399999999
 31
0.0
  0
LINE
  5
1821
  8
DETAIL
  6
CONTINUOUS
 62
     5
 10
-19.059304000000001
 20
45.94149199999999
 30
0.0
 11
-19.054393999999991
 21
45.944974000000002
 31
0.0
  0
LINE
  5
1822
  8
DETAIL
  6
CONTINUOUS
 62
     5
 10
-18.855532
 20
47.267698999999993
 30
0.0
 11
-18.849039000000001
 21
47.269517999999998
 31
0.0
  0
LINE
  5
1823
  8
DETAIL
  6
CONTINUOUS
 62
     5
 10
-18.883890000000001
 20
47.260064
 30
0.0
 11
-18.855532
 21
47.267698999999993
 31
0.0
  0
LINE
  5
1824
  8
DETAIL
  6
CONTINUOUS
 62
     5
 10
-18.915125
 20
47.251967999999991
 30
0.0
 11
-18.883890000000001
 21
47.260064
 31
0.0
  0
LINE
  5
1825
  8
DETAIL
  6
CONTINUOUS
 62
     5
 10
-18.949259000000001
 20
47.243436000000003
 30
0.0
 11
-18.915125
 21
47.251967999999991
 31
0.0
  0
LINE
  5
1826
  8
DETAIL
  6
CONTINUOUS
 62
     5
 10
-18.986281999999999
 20
47.234496999999983
 30
0.0
 11
-18.949259000000001
 21
47.243436000000003
 31
0.0
  0
LINE
  5
1827
  8
DETAIL
  6
CONTINUOUS
 62
     5
 10
-19.026208999999991
 20
47.225172999999977
 30
0.0
 11
-18.986281999999999
 21
47.234496999999983
 31
0.0
  0
LINE
  5
1828
  8
DETAIL
  6
CONTINUOUS
 62
     5
 10
-19.069039
 20
47.215487999999993
 30
0.0
 11
-19.026208999999991
 21
47.225172999999977
 31
0.0
  0
LINE
  5
1829
  8
DETAIL
  6
CONTINUOUS
 62
     5
 10
-19.114775999999981
 20
47.205460999999993
 30
0.0
 11
-19.069039
 21
47.215487999999993
 31
0.0
  0
LINE
  5
182A
  8
DETAIL
  6
CONTINUOUS
 62
     5
 10
-19.163412999999998
 20
47.195115000000001
 30
0.0
 11
-19.114775999999981
 21
47.205460999999993
 31
0.0
  0
LINE
  5
182B
  8
DETAIL
  6
CONTINUOUS
 62
     5
 10
-19.214943999999999
 20
47.184471999999992
 30
0.0
 11
-19.163412999999998
 21
47.195115000000001
 31
0.0
  0
LINE
  5
182C
  8
DETAIL
  6
CONTINUOUS
 62
     5
 10
-19.269337
 20
47.173558999999997
 30
0.0
 11
-19.214943999999999
 21
47.184471999999992
 31
0.0
  0
LINE
  5
182D
  8
DETAIL
  6
CONTINUOUS
 62
     5
 10
-19.326603999999961
 20
47.162393000000002
 30
0.0
 11
-19.269337
 21
47.173558999999997
 31
0.0
  0
LINE
  5
182E
  8
DETAIL
  6
CONTINUOUS
 62
     5
 10
-19.386731000000001
 20
47.150996999999983
 30
0.0
 11
-19.326603999999961
 21
47.162393000000002
 31
0.0
  0
LINE
  5
182F
  8
DETAIL
  6
CONTINUOUS
 62
     5
 10
-19.449743999999981
 20
47.139383000000002
 30
0.0
 11
-19.386731000000001
 21
47.150996999999983
 31
0.0
  0
LINE
  5
1830
  8
DETAIL
  6
CONTINUOUS
 62
     5
 10
-19.51566
 20
47.127567999999997
 30
0.0
 11
-19.449743999999981
 21
47.139383000000002
 31
0.0
  0
LINE
  5
1831
  8
DETAIL
  6
CONTINUOUS
 62
     5
 10
-19.584495
 20
47.115566999999999
 30
0.0
 11
-19.51566
 21
47.127567999999997
 31
0.0
  0
LINE
  5
1832
  8
DETAIL
  6
CONTINUOUS
 62
     5
 10
-19.656254999999991
 20
47.103400000000001
 30
0.0
 11
-19.584495
 21
47.115566999999999
 31
0.0
  0
LINE
  5
1833
  8
DETAIL
  6
CONTINUOUS
 62
     5
 10
-19.730952999999982
 20
47.091085
 30
0.0
 11
-19.656254999999991
 21
47.103400000000001
 31
0.0
  0
LINE
  5
1834
  8
DETAIL
  6
CONTINUOUS
 62
     5
 10
-19.808592999999991
 20
47.078641999999981
 30
0.0
 11
-19.730952999999982
 21
47.091085
 31
0.0
  0
LINE
  5
1835
  8
DETAIL
  6
CONTINUOUS
 62
     5
 10
-19.889185999999992
 20
47.06609199999999
 30
0.0
 11
-19.808592999999991
 21
47.078641999999981
 31
0.0
  0
LINE
  5
1836
  8
DETAIL
  6
CONTINUOUS
 62
     5
 10
-19.972740999999999
 20
47.053452999999998
 30
0.0
 11
-19.889185999999992
 21
47.06609199999999
 31
0.0
  0
LINE
  5
1837
  8
DETAIL
  6
CONTINUOUS
 62
     5
 10
-20.148759999999999
 20
47.027996999999992
 30
0.0
 11
-19.972740999999999
 21
47.053452999999998
 31
0.0
  0
LINE
  5
1838
  8
DETAIL
  6
CONTINUOUS
 62
     5
 10
-20.336659000000001
 20
47.002450000000003
 30
0.0
 11
-20.148759999999999
 21
47.027996999999992
 31
0.0
  0
LINE
  5
1839
  8
DETAIL
  6
CONTINUOUS
 62
     5
 10
-18.974142000000001
 20
46.017017999999993
 30
0.0
 11
-18.974142000000001
 21
46.839433
 31
0.0
  0
LINE
  5
183A
  8
DETAIL
  6
CONTINUOUS
 62
     5
 10
-18.974385999999999
 20
46.893087999999999
 30
0.0
 11
-18.974142999999991
 21
46.890920999999977
 31
0.0
  0
LINE
  5
183B
  8
DETAIL
  6
CONTINUOUS
 62
     5
 10
-18.287998000000002
 20
42.007002999999997
 30
0.0
 11
-18.152099
 21
42.159336999999987
 31
0.0
  0
LINE
  5
183C
  8
DETAIL
  6
CONTINUOUS
 62
     5
 10
-18.404693999999989
 20
41.842888000000002
 30
0.0
 11
-18.287998000000002
 21
42.007002999999997
 31
0.0
  0
LINE
  5
183D
  8
DETAIL
  6
CONTINUOUS
 62
     5
 10
-18.500036999999999
 20
41.669597999999993
 30
0.0
 11
-18.404693999999989
 21
41.842888000000002
 31
0.0
  0
LINE
  5
183E
  8
DETAIL
  6
CONTINUOUS
 62
     5
 10
-18.574743999999999
 20
41.486263999999998
 30
0.0
 11
-18.500036999999999
 21
41.669597999999993
 31
0.0
  0
LINE
  5
183F
  8
DETAIL
  6
CONTINUOUS
 62
     5
 10
-16.812560000000001
 20
42.771664000000001
 30
0.0
 11
-16.590530999999991
 21
42.782933
 31
0.0
  0
LINE
  5
1840
  8
DETAIL
  6
CONTINUOUS
 62
     5
 10
-17.029578000000001
 20
42.740465999999998
 30
0.0
 11
-16.812560000000001
 21
42.771664000000001
 31
0.0
  0
LINE
  5
1841
  8
DETAIL
  6
CONTINUOUS
 62
     5
 10
-17.242781000000001
 20
42.689003999999983
 30
0.0
 11
-17.029578000000001
 21
42.740465999999998
 31
0.0
  0
LINE
  5
1842
  8
DETAIL
  6
CONTINUOUS
 62
     5
 10
-17.448585000000001
 20
42.618279000000001
 30
0.0
 11
-17.242781000000001
 21
42.689003999999983
 31
0.0
  0
LINE
  5
1843
  8
DETAIL
  6
CONTINUOUS
 62
     5
 10
-17.644472
 20
42.528758000000003
 30
0.0
 11
-17.448585000000001
 21
42.618279000000001
 31
0.0
  0
LINE
  5
1844
  8
DETAIL
  6
CONTINUOUS
 62
     5
 10
-17.828441000000002
 20
42.421712999999983
 30
0.0
 11
-17.644472
 21
42.528758000000003
 31
0.0
  0
LINE
  5
1845
  8
DETAIL
  6
CONTINUOUS
 62
     5
 10
-17.998224
 20
42.298017999999992
 30
0.0
 11
-17.828441000000002
 21
42.421712999999983
 31
0.0
  0
LINE
  5
1846
  8
DETAIL
  6
CONTINUOUS
 62
     5
 10
-18.152099
 20
42.159336999999987
 30
0.0
 11
-17.998224
 21
42.298017999999992
 31
0.0
  0
LINE
  5
1847
  8
DETAIL
  6
CONTINUOUS
 62
     5
 10
-18.574743999999999
 20
40.325703999999988
 30
0.0
 11
-18.574743999999999
 21
41.486263999999998
 31
0.0
  0
ARC
  5
1848
  8
DETAIL
  6
DASHED
 62
     5
 10
-13.47777
 20
36.557684000000002
 30
0.0
 40
0.998642
 50
156.55567999999991
 51
178.5973469999999
  0
ARC
  5
1849
  8
DETAIL
  6
DASHED
 62
     5
 10
-12.951245
 20
36.32935299999999
 30
0.0
 40
1.5725439999999991
 50
135.629931
 51
156.55567999999991
  0
ARC
  5
184A
  8
DETAIL
  6
DASHED
 62
     5
 10
-10.073788999999991
 20
32.63227899999999
 30
0.0
 40
6.3047629999999986
 50
108.8865389999996
 51
124.973294
  0
ARC
  5
184B
  8
DETAIL
  6
DASHED
 62
     5
 10
-11.46901699999999
 20
35.082396000000003
 30
0.0
 40
3.5070860000000001
 50
129.24314899999999
 51
141.85236799999981
  0
ARC
  5
184C
  8
DETAIL
  6
DASHED
 62
     5
 10
9.7090230000000002
 20
-10.86256499999998
 30
0.0
 40
54.060882999999997
 50
105.14447800000001
 51
113.808824
  0
LINE
  5
184D
  8
DETAIL
  6
CONTINUOUS
 62
     5
 10
-20.071065000000001
 20
64.928518999999994
 30
0.0
 11
-18.639638999999988
 21
64.382772000000003
 31
0.0
  0
LINE
  5
184E
  8
DETAIL
  6
CONTINUOUS
 62
     5
 10
-20.248946
 20
64.461956999999998
 30
0.0
 11
-18.817520999999989
 21
63.916210999999997
 31
0.0
  0
LINE
  5
184F
  8
DETAIL
  6
CONTINUOUS
 62
     5
 10
-19.482364999999991
 20
62.172406000000002
 30
0.0
 11
-18.639638999999988
 21
64.382772000000003
 31
0.0
  0
LINE
  5
1850
  8
DETAIL
  6
CONTINUOUS
 62
     5
 10
-20.248946
 20
62.464672999999991
 30
0.0
 11
-19.482364999999991
 21
62.172406000000002
 31
0.0
  0
LINE
  5
1851
  8
DETAIL
  6
CONTINUOUS
 62
     5
 10
-22.478930999999999
 20
64.116585999999984
 30
0.0
 11
-32.901286999999989
 21
47.347499999999997
 31
0.0
  0
LINE
  5
1852
  8
DETAIL
  6
CONTINUOUS
 62
     5
 10
-22.054845999999991
 20
63.853006999999998
 30
0.0
 11
-32.465626
 21
47.102547999999999
 31
0.0
  0
LINE
  5
1853
  8
DETAIL
  6
CONTINUOUS
 62
     5
 10
-22.054845999999991
 20
61.855722999999998
 30
0.0
 11
-31.134360000000001
 21
47.247208999999998
 31
0.0
  0
LINE
  5
1854
  8
DETAIL
  6
CONTINUOUS
 62
     5
 10
-44.619298999999998
 20
46.43230299999999
 30
0.0
 11
-35.749158000000001
 21
46.591287000000001
 31
0.0
  0
LINE
  5
1855
  8
DETAIL
  6
CONTINUOUS
 62
     5
 10
-33.325371999999987
 20
47.111758000000002
 30
0.0
 11
-44.225482
 21
47.111758000000002
 31
0.0
  0
LINE
  5
1856
  8
DETAIL
  6
CONTINUOUS
 62
     5
 10
-33.313796000000004
 20
46.63106299999999
 30
0.0
 11
-44.332997999999989
 21
46.63106299999999
 31
0.0
  0
LINE
  5
1857
  8
DETAIL
  6
CONTINUOUS
 62
     5
 10
-29.642439
 20
40.147835000000001
 30
0.0
 11
-29.644470999999999
 21
40.146863000000003
 31
0.0
  0
LINE
  5
1858
  8
DETAIL
  6
CONTINUOUS
 62
     5
 10
-34.443007000000001
 20
38.127858000000003
 30
0.0
 11
-29.642500999999999
 21
40.147809000000002
 31
0.0
  0
LINE
  5
1859
  8
DETAIL
  6
CONTINUOUS
 62
     5
 10
-29.601866999999991
 20
40.162857000000002
 30
0.0
 11
-29.642434999999999
 21
40.147837000000003
 31
0.0
  0
LINE
  5
185A
  8
DETAIL
  6
CONTINUOUS
 62
     5
 10
-29.553913000000001
 20
40.175693000000003
 30
0.0
 11
-29.601866999999991
 21
40.162857000000002
 31
0.0
  0
LINE
  5
185B
  8
DETAIL
  6
CONTINUOUS
 62
     5
 10
-29.50492199999999
 20
40.183702999999987
 30
0.0
 11
-29.553913000000001
 21
40.175693000000003
 31
0.0
  0
LINE
  5
185C
  8
DETAIL
  6
CONTINUOUS
 62
     5
 10
-29.455321999999999
 20
40.186809999999987
 30
0.0
 11
-29.50492199999999
 21
40.183702999999987
 31
0.0
  0
LINE
  5
185D
  8
DETAIL
  6
CONTINUOUS
 62
     5
 10
-29.45520999999999
 20
40.185544
 30
0.0
 11
-29.455321999999999
 21
40.186809999999987
 31
0.0
  0
LINE
  5
185E
  8
DETAIL
  6
CONTINUOUS
 62
     5
 10
-26.371044999999992
 20
40.394859999999987
 30
0.0
 11
-26.373646000000001
 21
40.365796000000003
 31
0.0
  0
LINE
  5
185F
  8
DETAIL
  6
CONTINUOUS
 62
     5
 10
-26.363053999999991
 20
40.429051000000001
 30
0.0
 11
-26.371044999999992
 21
40.394859999999987
 31
0.0
  0
LINE
  5
1860
  8
DETAIL
  6
CONTINUOUS
 62
     5
 10
-26.348963000000001
 20
40.468986999999977
 30
0.0
 11
-26.363053999999991
 21
40.429051000000001
 31
0.0
  0
LINE
  5
1861
  8
DETAIL
  6
CONTINUOUS
 62
     5
 10
-26.329025999999988
 20
40.512765000000002
 30
0.0
 11
-26.348963000000001
 21
40.468986999999977
 31
0.0
  0
LINE
  5
1862
  8
DETAIL
  6
CONTINUOUS
 62
     5
 10
-26.303222000000002
 20
40.558487
 30
0.0
 11
-26.329025999999988
 21
40.512765000000002
 31
0.0
  0
LINE
  5
1863
  8
DETAIL
  6
CONTINUOUS
 62
     5
 10
-26.270833
 20
40.606050000000003
 30
0.0
 11
-26.303222000000002
 21
40.558487
 31
0.0
  0
LINE
  5
1864
  8
DETAIL
  6
CONTINUOUS
 62
     5
 10
-26.231152000000002
 20
40.654874
 30
0.0
 11
-26.270833
 21
40.606050000000003
 31
0.0
  0
LINE
  5
1865
  8
DETAIL
  6
CONTINUOUS
 62
     5
 10
-26.184165
 20
40.703740000000003
 30
0.0
 11
-26.231152000000002
 21
40.654874
 31
0.0
  0
LINE
  5
1866
  8
DETAIL
  6
CONTINUOUS
 62
     5
 10
-26.129911
 20
40.751243000000002
 30
0.0
 11
-26.184165
 21
40.703740000000003
 31
0.0
  0
LINE
  5
1867
  8
DETAIL
  6
CONTINUOUS
 62
     5
 10
-26.068101999999989
 20
40.796903
 30
0.0
 11
-26.129911
 21
40.751243000000002
 31
0.0
  0
LINE
  5
1868
  8
DETAIL
  6
CONTINUOUS
 62
     5
 10
-25.998598999999999
 20
40.839888999999999
 30
0.0
 11
-26.068101999999989
 21
40.796903
 31
0.0
  0
LINE
  5
1869
  8
DETAIL
  6
CONTINUOUS
 62
     5
 10
-25.921703000000001
 20
40.879435000000001
 30
0.0
 11
-25.998598999999999
 21
40.839888999999999
 31
0.0
  0
LINE
  5
186A
  8
DETAIL
  6
CONTINUOUS
 62
     5
 10
-25.838124000000001
 20
40.914611000000001
 30
0.0
 11
-25.921703000000001
 21
40.879435000000001
 31
0.0
  0
LINE
  5
186B
  8
DETAIL
  6
CONTINUOUS
 62
     5
 10
-25.747375999999999
 20
40.945135999999991
 30
0.0
 11
-25.838124000000001
 21
40.914611000000001
 31
0.0
  0
LINE
  5
186C
  8
DETAIL
  6
CONTINUOUS
 62
     5
 10
-25.649505999999992
 20
40.970458000000001
 30
0.0
 11
-25.747375999999999
 21
40.945135999999991
 31
0.0
  0
LINE
  5
186D
  8
DETAIL
  6
CONTINUOUS
 62
     5
 10
-25.544172
 20
40.989879999999999
 30
0.0
 11
-25.649505999999992
 21
40.970458000000001
 31
0.0
  0
LINE
  5
186E
  8
DETAIL
  6
CONTINUOUS
 62
     5
 10
-25.431086000000001
 20
41.002768999999986
 30
0.0
 11
-25.544172
 21
40.989879999999999
 31
0.0
  0
LINE
  5
186F
  8
DETAIL
  6
CONTINUOUS
 62
     5
 10
-25.310884999999999
 20
41.007424
 30
0.0
 11
-25.431086000000001
 21
41.002768999999986
 31
0.0
  0
LINE
  5
1870
  8
DETAIL
  6
CONTINUOUS
 62
     5
 10
-26.373608000000001
 20
40.360002999999999
 30
0.0
 11
-26.373646000000001
 21
40.365796000000003
 31
0.0
  0
LINE
  5
1871
  8
DETAIL
  6
CONTINUOUS
 62
     5
 10
-26.373608000000001
 20
40.360002999999999
 30
0.0
 11
-26.373608000000001
 21
40.226157999999991
 31
0.0
  0
LINE
  5
1872
  8
DETAIL
  6
CONTINUOUS
 62
     5
 10
-24.766324999999998
 20
40.246679999999998
 30
0.0
 11
-24.766324999999998
 21
41.009337999999993
 31
0.0
  0
LINE
  5
1873
  8
DETAIL
  6
CONTINUOUS
 62
     5
 10
-34.342461
 20
42.665246999999987
 30
0.0
 11
-29.453303999999989
 21
44.679850000000002
 31
0.0
  0
LINE
  5
1874
  8
DETAIL
  6
CONTINUOUS
 62
     5
 10
-29.648837
 20
45.783900000000003
 30
0.0
 11
-29.659227999999992
 21
45.768033000000003
 31
0.0
  0
LINE
  5
1875
  8
DETAIL
  6
CONTINUOUS
 62
     5
 10
-29.64203599999999
 20
45.788237000000002
 30
0.0
 11
-29.648837
 21
45.783900000000003
 31
0.0
  0
LINE
  5
1876
  8
DETAIL
  6
CONTINUOUS
 62
     5
 10
-32.988788999999997
 20
46.63106299999999
 30
0.0
 11
-31.746748999999991
 21
47.199499999999993
 31
0.0
  0
LINE
  5
1877
  8
DETAIL
  6
CONTINUOUS
 62
     5
 10
-34.378354999999999
 20
43.799155999999989
 30
0.0
 11
-29.642236
 21
45.788153999999977
 31
0.0
  0
LINE
  5
1878
  8
DETAIL
  6
CONTINUOUS
 62
     5
 10
-29.627221999999989
 20
45.794173000000001
 30
0.0
 11
-29.64203599999999
 21
45.788237000000002
 31
0.0
  0
LINE
  5
1879
  8
DETAIL
  6
CONTINUOUS
 62
     5
 10
-29.585325000000001
 20
45.808097999999987
 30
0.0
 11
-29.627221999999989
 21
45.794173000000001
 31
0.0
  0
LINE
  5
187A
  8
DETAIL
  6
CONTINUOUS
 62
     5
 10
-29.542346999999982
 20
45.818269999999991
 30
0.0
 11
-29.585325000000001
 21
45.808097999999987
 31
0.0
  0
LINE
  5
187B
  8
DETAIL
  6
CONTINUOUS
 62
     5
 10
-29.498640000000002
 20
45.824604999999977
 30
0.0
 11
-29.542346999999982
 21
45.818269999999991
 31
0.0
  0
LINE
  5
187C
  8
DETAIL
  6
CONTINUOUS
 62
     5
 10
-35.288094000000001
 20
44.106831999999997
 30
0.0
 11
-33.307566999999999
 21
44.24894699999998
 31
0.0
  0
LINE
  5
187D
  8
DETAIL
  6
CONTINUOUS
 62
     5
 10
-29.454443000000001
 20
45.827053999999997
 30
0.0
 11
-29.498640000000002
 21
45.824604999999977
 31
0.0
  0
LINE
  5
187E
  8
DETAIL
  6
CONTINUOUS
 62
     5
 10
-31.708794000000001
 20
47.214657000000003
 30
0.0
 11
-31.746748999999991
 21
47.199499999999993
 31
0.0
  0
LINE
  5
187F
  8
DETAIL
  6
CONTINUOUS
 62
     5
 10
-31.669633000000001
 20
47.226683999999977
 30
0.0
 11
-31.708794000000001
 21
47.214657000000003
 31
0.0
  0
LINE
  5
1880
  8
DETAIL
  6
CONTINUOUS
 62
     5
 10
-31.629584999999999
 20
47.235466999999993
 30
0.0
 11
-31.669633000000001
 21
47.226683999999977
 31
0.0
  0
LINE
  5
1881
  8
DETAIL
  6
CONTINUOUS
 62
     5
 10
-31.588951000000002
 20
47.240934000000003
 30
0.0
 11
-31.629584999999999
 21
47.235466999999993
 31
0.0
  0
LINE
  5
1882
  8
DETAIL
  6
CONTINUOUS
 62
     5
 10
-31.547768000000001
 20
47.243051999999977
 30
0.0
 11
-31.588951000000002
 21
47.240934000000003
 31
0.0
  0
LINE
  5
1883
  8
DETAIL
  6
CONTINUOUS
 62
     5
 10
-35.751387999999992
 20
44.256283000000003
 30
0.0
 11
-33.206862000000001
 21
44.291246000000001
 31
0.0
  0
LINE
  5
1884
  8
DETAIL
  6
CONTINUOUS
 62
     5
 10
-33.25670199999999
 20
44.270311999999997
 30
0.0
 11
-35.751387999999992
 21
44.256283000000003
 31
0.0
  0
LINE
  5
1885
  8
DETAIL
  6
CONTINUOUS
 62
     5
 10
-29.454212999999989
 20
45.824171999999997
 30
0.0
 11
-29.454443000000001
 21
45.827053999999997
 31
0.0
  0
LINE
  5
1886
  8
DETAIL
  6
CONTINUOUS
 62
     5
 10
-29.453807000000001
 20
45.811306000000002
 30
0.0
 11
-29.454212999999989
 21
45.824171999999997
 31
0.0
  0
LINE
  5
1887
  8
DETAIL
  6
CONTINUOUS
 62
     5
 10
-20.747845999999999
 20
46.951886000000002
 30
0.0
 11
-20.536380999999999
 21
46.977010999999983
 31
0.0
  0
LINE
  5
1888
  8
DETAIL
  6
CONTINUOUS
 62
     5
 10
-20.970925999999992
 20
46.927287999999997
 30
0.0
 11
-20.747845999999999
 21
46.951886000000002
 31
0.0
  0
LINE
  5
1889
  8
DETAIL
  6
CONTINUOUS
 62
     5
 10
-21.205401999999999
 20
46.903446999999993
 30
0.0
 11
-20.970925999999992
 21
46.927287999999997
 31
0.0
  0
LINE
  5
188A
  8
DETAIL
  6
CONTINUOUS
 62
     5
 10
-21.450997999999998
 20
46.880602000000003
 30
0.0
 11
-21.205401999999999
 21
46.903446999999993
 31
0.0
  0
LINE
  5
188B
  8
DETAIL
  6
CONTINUOUS
 62
     5
 10
-21.707360999999999
 20
46.858996999999988
 30
0.0
 11
-21.450997999999998
 21
46.880602000000003
 31
0.0
  0
LINE
  5
188C
  8
DETAIL
  6
CONTINUOUS
 62
     5
 10
-21.839445999999992
 20
46.848735999999981
 30
0.0
 11
-21.707360999999999
 21
46.858996999999988
 31
0.0
  0
LINE
  5
188D
  8
DETAIL
  6
CONTINUOUS
 62
     5
 10
-21.974053999999999
 20
46.838876999999982
 30
0.0
 11
-21.839445999999992
 21
46.848735999999981
 31
0.0
  0
LINE
  5
188E
  8
DETAIL
  6
CONTINUOUS
 62
     5
 10
-22.111122000000002
 20
46.829453000000001
 30
0.0
 11
-21.974053999999999
 21
46.838876999999982
 31
0.0
  0
LINE
  5
188F
  8
DETAIL
  6
CONTINUOUS
 62
     5
 10
-22.250578999999991
 20
46.820492999999999
 30
0.0
 11
-22.111122000000002
 21
46.829453000000001
 31
0.0
  0
LINE
  5
1890
  8
DETAIL
  6
CONTINUOUS
 62
     5
 10
-22.392348999999999
 20
46.812028999999967
 30
0.0
 11
-22.250578999999991
 21
46.820492999999999
 31
0.0
  0
LINE
  5
1891
  8
DETAIL
  6
CONTINUOUS
 62
     5
 10
-22.536346999999999
 20
46.804088999999983
 30
0.0
 11
-22.392348999999999
 21
46.812028999999967
 31
0.0
  0
LINE
  5
1892
  8
DETAIL
  6
CONTINUOUS
 62
     5
 10
-22.682487999999989
 20
46.796703000000001
 30
0.0
 11
-22.536346999999999
 21
46.804088999999983
 31
0.0
  0
LINE
  5
1893
  8
DETAIL
  6
CONTINUOUS
 62
     5
 10
-35.749156999999997
 20
46.591287000000001
 30
0.0
 11
-23.598825999999999
 21
46.765590000000003
 31
0.0
  0
LINE
  5
1894
  8
DETAIL
  6
CONTINUOUS
 62
     5
 10
-22.830679
 20
46.789901
 30
0.0
 11
-22.682487999999989
 21
46.796703000000001
 31
0.0
  0
LINE
  5
1895
  8
DETAIL
  6
CONTINUOUS
 62
     5
 10
-22.980823999999991
 20
46.783711999999987
 30
0.0
 11
-22.830679
 21
46.789901
 31
0.0
  0
LINE
  5
1896
  8
DETAIL
  6
CONTINUOUS
 62
     5
 10
-23.132822000000001
 20
46.778159999999993
 30
0.0
 11
-22.980823999999991
 21
46.783711999999987
 31
0.0
  0
LINE
  5
1897
  8
DETAIL
  6
CONTINUOUS
 62
     5
 10
-23.286563999999991
 20
46.773271999999992
 30
0.0
 11
-23.132822000000001
 21
46.778159999999993
 31
0.0
  0
LINE
  5
1898
  8
DETAIL
  6
CONTINUOUS
 62
     5
 10
-23.441941
 20
46.769074000000003
 30
0.0
 11
-23.286563999999991
 21
46.773271999999992
 31
0.0
  0
LINE
  5
1899
  8
DETAIL
  6
CONTINUOUS
 62
     5
 10
-23.598825999999999
 20
46.765590000000003
 30
0.0
 11
-23.441941
 21
46.769074000000003
 31
0.0
  0
LINE
  5
189A
  8
DETAIL
  6
CONTINUOUS
 62
     5
 10
-34.449458
 20
43.748148999999991
 30
0.0
 11
-34.453153
 21
43.733136999999992
 31
0.0
  0
LINE
  5
189B
  8
DETAIL
  6
CONTINUOUS
 62
     5
 10
-34.438628000000001
 20
43.762861000000001
 30
0.0
 11
-34.449458
 21
43.748148999999991
 31
0.0
  0
LINE
  5
189C
  8
DETAIL
  6
CONTINUOUS
 62
     5
 10
-34.420390999999981
 20
43.777378000000013
 30
0.0
 11
-34.438628000000001
 21
43.762861000000001
 31
0.0
  0
LINE
  5
189D
  8
DETAIL
  6
CONTINUOUS
 62
     5
 10
-34.395565999999988
 20
43.791390999999983
 30
0.0
 11
-34.420390999999981
 21
43.777378000000013
 31
0.0
  0
LINE
  5
189E
  8
DETAIL
  6
CONTINUOUS
 62
     5
 10
-34.378390000000003
 20
43.799168000000002
 30
0.0
 11
-34.395565999999988
 21
43.791390999999983
 31
0.0
  0
LINE
  5
189F
  8
DETAIL
  6
CONTINUOUS
 62
     5
 10
-34.45302299999998
 20
43.372281999999998
 30
0.0
 11
-34.453153
 21
43.733136999999992
 31
0.0
  0
LINE
  5
18A0
  8
DETAIL
  6
CONTINUOUS
 62
     5
 10
-34.454326999999999
 20
43.342511999999992
 30
0.0
 11
-34.453237000000001
 21
43.372280999999987
 31
0.0
  0
LINE
  5
18A1
  8
DETAIL
  6
CONTINUOUS
 62
     5
 10
-34.453670000000002
 20
43.306314
 30
0.0
 11
-34.454326999999999
 21
43.342511999999992
 31
0.0
  0
LINE
  5
18A2
  8
DETAIL
  6
CONTINUOUS
 62
     5
 10
-34.451228
 20
43.264868
 30
0.0
 11
-34.453670000000002
 21
43.306314
 31
0.0
  0
LINE
  5
18A3
  8
DETAIL
  6
CONTINUOUS
 62
     5
 10
-34.447103999999989
 20
43.218656000000003
 30
0.0
 11
-34.451228
 21
43.264868
 31
0.0
  0
LINE
  5
18A4
  8
DETAIL
  6
CONTINUOUS
 62
     5
 10
-34.44131999999999
 20
43.167840000000012
 30
0.0
 11
-34.447103999999989
 21
43.218656000000003
 31
0.0
  0
LINE
  5
18A5
  8
DETAIL
  6
CONTINUOUS
 62
     5
 10
-34.434072999999998
 20
43.11368499999999
 30
0.0
 11
-34.44131999999999
 21
43.167840000000012
 31
0.0
  0
LINE
  5
18A6
  8
DETAIL
  6
CONTINUOUS
 62
     5
 10
-34.425519000000001
 20
43.057397999999999
 30
0.0
 11
-34.434072999999998
 21
43.11368499999999
 31
0.0
  0
LINE
  5
18A7
  8
DETAIL
  6
CONTINUOUS
 62
     5
 10
-34.415821000000001
 20
42.999707000000001
 30
0.0
 11
-34.425519000000001
 21
43.057397999999999
 31
0.0
  0
LINE
  5
18A8
  8
DETAIL
  6
CONTINUOUS
 62
     5
 10
-34.405147999999983
 20
42.941456000000002
 30
0.0
 11
-34.415821000000001
 21
42.999707000000001
 31
0.0
  0
LINE
  5
18A9
  8
DETAIL
  6
CONTINUOUS
 62
     5
 10
-34.393644000000002
 20
42.883309999999959
 30
0.0
 11
-34.405147999999983
 21
42.941456000000002
 31
0.0
  0
LINE
  5
18AA
  8
DETAIL
  6
CONTINUOUS
 62
     5
 10
-34.381452000000003
 20
42.825890000000001
 30
0.0
 11
-34.393644000000002
 21
42.883309999999959
 31
0.0
  0
LINE
  5
18AB
  8
DETAIL
  6
CONTINUOUS
 62
     5
 10
-34.368746000000002
 20
42.769956999999991
 30
0.0
 11
-34.381452000000003
 21
42.825890000000001
 31
0.0
  0
LINE
  5
18AC
  8
DETAIL
  6
CONTINUOUS
 62
     5
 10
-34.355772999999999
 20
42.716177000000002
 30
0.0
 11
-34.368746000000002
 21
42.769956999999991
 31
0.0
  0
LINE
  5
18AD
  8
DETAIL
  6
CONTINUOUS
 62
     5
 10
-34.342461
 20
42.665246999999987
 30
0.0
 11
-34.355772999999999
 21
42.716177000000002
 31
0.0
  0
LINE
  5
18AE
  8
DETAIL
  6
CONTINUOUS
 62
     5
 10
-35.749287000000002
 20
46.591284999999999
 30
0.0
 11
-35.74901899999999
 21
46.588245999999991
 31
0.0
  0
LINE
  5
18AF
  8
DETAIL
  6
CONTINUOUS
 62
     5
 10
-35.74901899999999
 20
46.588245999999991
 30
0.0
 11
-35.750371000000001
 21
46.575414999999992
 31
0.0
  0
LINE
  5
18B0
  8
DETAIL
  6
CONTINUOUS
 62
     5
 10
-35.750371000000001
 20
46.575414999999992
 30
0.0
 11
-35.751984
 21
46.55278599999999
 31
0.0
  0
LINE
  5
18B1
  8
DETAIL
  6
CONTINUOUS
 62
     5
 10
-35.751984
 20
46.55278599999999
 30
0.0
 11
-35.752071999999991
 21
46.520836000000003
 31
0.0
  0
LINE
  5
18B2
  8
DETAIL
  6
CONTINUOUS
 62
     5
 10
-35.752071999999991
 20
46.520836000000003
 30
0.0
 11
-35.751733999999999
 21
46.480213999999997
 31
0.0
  0
LINE
  5
18B3
  8
DETAIL
  6
CONTINUOUS
 62
     5
 10
-35.751733999999999
 20
46.480213999999997
 30
0.0
 11
-35.75133799999999
 21
46.376550000000002
 31
0.0
  0
LINE
  5
18B4
  8
DETAIL
  6
CONTINUOUS
 62
     5
 10
-34.453153
 20
37.472871999999981
 30
0.0
 11
-34.449441999999998
 21
37.448813000000001
 31
0.0
  0
LINE
  5
18B5
  8
DETAIL
  6
CONTINUOUS
 62
     5
 10
-34.449441999999998
 20
37.448813000000001
 30
0.0
 11
-34.438567999999982
 21
37.425308999999999
 31
0.0
  0
LINE
  5
18B6
  8
DETAIL
  6
CONTINUOUS
 62
     5
 10
-34.438567999999982
 20
37.425308999999999
 30
0.0
 11
-34.420239999999993
 21
37.402190999999988
 31
0.0
  0
LINE
  5
18B7
  8
DETAIL
  6
CONTINUOUS
 62
     5
 10
-34.420239999999993
 20
37.402190999999988
 30
0.0
 11
-34.395327000000002
 21
37.379967999999991
 31
0.0
  0
LINE
  5
18B8
  8
DETAIL
  6
CONTINUOUS
 62
     5
 10
-34.395327000000002
 20
37.379967999999991
 30
0.0
 11
-34.364485999999999
 21
37.35915399999999
 31
0.0
  0
LINE
  5
18B9
  8
DETAIL
  6
CONTINUOUS
 62
     5
 10
-34.364485999999999
 20
37.35915399999999
 30
0.0
 11
-34.328060000000001
 21
37.339578000000003
 31
0.0
  0
LINE
  5
18BA
  8
DETAIL
  6
CONTINUOUS
 62
     5
 10
-34.328060000000001
 20
37.339578000000003
 30
0.0
 11
-34.286363999999999
 21
37.321197999999988
 31
0.0
  0
LINE
  5
18BB
  8
DETAIL
  6
CONTINUOUS
 62
     5
 10
-34.286363999999999
 20
37.321197999999988
 30
0.0
 11
-34.240134999999988
 21
37.304138999999999
 31
0.0
  0
LINE
  5
18BC
  8
DETAIL
  6
CONTINUOUS
 62
     5
 10
-34.240134999999988
 20
37.304138999999999
 30
0.0
 11
-34.190059999999988
 21
37.28852899999999
 31
0.0
  0
LINE
  5
18BD
  8
DETAIL
  6
CONTINUOUS
 62
     5
 10
-34.190059999999988
 20
37.28852899999999
 30
0.0
 11
-34.136595
 21
37.274326000000002
 31
0.0
  0
LINE
  5
18BE
  8
DETAIL
  6
CONTINUOUS
 62
     5
 10
-34.136595
 20
37.274326000000002
 30
0.0
 11
-34.08058599999999
 21
37.261575999999998
 31
0.0
  0
LINE
  5
18BF
  8
DETAIL
  6
CONTINUOUS
 62
     5
 10
-34.08058599999999
 20
37.261575999999998
 30
0.0
 11
-34.021537000000002
 21
37.250131000000003
 31
0.0
  0
LINE
  5
18C0
  8
DETAIL
  6
CONTINUOUS
 62
     5
 10
-34.021537000000002
 20
37.250131000000003
 30
0.0
 11
-33.95928499999998
 21
37.239840000000001
 31
0.0
  0
LINE
  5
18C1
  8
DETAIL
  6
CONTINUOUS
 62
     5
 10
-33.95928499999998
 20
37.239840000000001
 30
0.0
 11
-33.893667999999991
 21
37.230750999999991
 31
0.0
  0
LINE
  5
18C2
  8
DETAIL
  6
CONTINUOUS
 62
     5
 10
-33.893667999999991
 20
37.230750999999991
 30
0.0
 11
-33.824508999999999
 21
37.22282899999999
 31
0.0
  0
LINE
  5
18C3
  8
DETAIL
  6
CONTINUOUS
 62
     5
 10
-33.824508999999999
 20
37.22282899999999
 30
0.0
 11
-33.751685999999999
 21
37.216169000000001
 31
0.0
  0
LINE
  5
18C4
  8
DETAIL
  6
CONTINUOUS
 62
     5
 10
-33.751685999999999
 20
37.216169000000001
 30
0.0
 11
-33.675012000000002
 21
37.210807000000003
 31
0.0
  0
LINE
  5
18C5
  8
DETAIL
  6
CONTINUOUS
 62
     5
 10
-33.675012000000002
 20
37.210807000000003
 30
0.0
 11
-33.594498000000002
 21
37.206879999999991
 31
0.0
  0
LINE
  5
18C6
  8
DETAIL
  6
CONTINUOUS
 62
     5
 10
-33.594498000000002
 20
37.206879999999991
 30
0.0
 11
-33.510086000000001
 21
37.204560000000001
 31
0.0
  0
LINE
  5
18C7
  8
DETAIL
  6
CONTINUOUS
 62
     5
 10
-33.510086000000001
 20
37.204560000000001
 30
0.0
 11
-33.421793000000001
 21
37.203789999999991
 31
0.0
  0
LINE
  5
18C8
  8
DETAIL
  6
CONTINUOUS
 62
     5
 10
-35.712687000000003
 20
34.813544
 30
0.0
 11
-35.683109999999999
 21
34.754249000000002
 31
0.0
  0
LINE
  5
18C9
  8
DETAIL
  6
CONTINUOUS
 62
     5
 10
-35.683109999999999
 20
34.754249000000002
 30
0.0
 11
-35.645735999999999
 21
34.699129999999997
 31
0.0
  0
LINE
  5
18CA
  8
DETAIL
  6
CONTINUOUS
 62
     5
 10
-35.645735999999999
 20
34.699129999999997
 30
0.0
 11
-35.601126000000001
 21
34.649245000000001
 31
0.0
  0
LINE
  5
18CB
  8
DETAIL
  6
CONTINUOUS
 62
     5
 10
-35.601126000000001
 20
34.649245000000001
 30
0.0
 11
-35.549939999999999
 21
34.605545999999997
 31
0.0
  0
LINE
  5
18CC
  8
DETAIL
  6
CONTINUOUS
 62
     5
 10
-35.549939999999999
 20
34.605545999999997
 30
0.0
 11
-35.493037000000001
 21
34.56895999999999
 31
0.0
  0
LINE
  5
18CD
  8
DETAIL
  6
CONTINUOUS
 62
     5
 10
-35.493037000000001
 20
34.56895999999999
 30
0.0
 11
-35.431382999999983
 21
34.540273999999989
 31
0.0
  0
LINE
  5
18CE
  8
DETAIL
  6
CONTINUOUS
 62
     5
 10
-35.431382999999983
 20
34.540273999999989
 30
0.0
 11
-35.36614500000001
 21
34.520170999999991
 31
0.0
  0
LINE
  5
18CF
  8
DETAIL
  6
CONTINUOUS
 62
     5
 10
-35.36614500000001
 20
34.520170999999991
 30
0.0
 11
-35.298608000000002
 21
34.509138
 31
0.0
  0
LINE
  5
18D0
  8
DETAIL
  6
CONTINUOUS
 62
     5
 10
-35.298608000000002
 20
34.509138
 30
0.0
 11
-35.265909999999991
 21
34.507156000000002
 31
0.0
  0
LINE
  5
18D1
  8
DETAIL
  6
CONTINUOUS
 62
     5
 10
-35.25839400000001
 20
38.117815
 30
0.0
 11
-35.258417999999999
 21
38.116233000000001
 31
0.0
  0
LINE
  5
18D2
  8
DETAIL
  6
CONTINUOUS
 62
     5
 10
-34.453153
 20
37.472871999999981
 30
0.0
 11
-34.453153
 21
38.03028599999999
 31
0.0
  0
LINE
  5
18D3
  8
DETAIL
  6
CONTINUOUS
 62
     5
 10
-35.75133799999999
 20
46.376550000000002
 30
0.0
 11
-35.751387999999992
 21
46.250473999999983
 31
0.0
  0
LINE
  5
18D4
  8
DETAIL
  6
CONTINUOUS
 62
     5
 10
-34.453237000000001
 20
38.030284999999992
 30
0.0
 11
-34.454326999999999
 21
38.06544199999999
 31
0.0
  0
LINE
  5
18D5
  8
DETAIL
  6
CONTINUOUS
 62
     5
 10
-34.454326999999999
 20
38.06544199999999
 30
0.0
 11
-34.453670000000002
 21
38.092734
 31
0.0
  0
LINE
  5
18D6
  8
DETAIL
  6
CONTINUOUS
 62
     5
 10
-34.453670000000002
 20
38.092734
 30
0.0
 11
-34.451228
 21
38.11210599999999
 31
0.0
  0
LINE
  5
18D7
  8
DETAIL
  6
CONTINUOUS
 62
     5
 10
-34.451228
 20
38.11210599999999
 30
0.0
 11
-34.447103999999989
 21
38.123913000000002
 31
0.0
  0
LINE
  5
18D8
  8
DETAIL
  6
CONTINUOUS
 62
     5
 10
-34.447103999999989
 20
38.123913000000002
 30
0.0
 11
-34.443005999999997
 21
38.127858000000003
 31
0.0
  0
LINE
  5
18D9
  8
DETAIL
  6
CONTINUOUS
 62
     5
 10
-35.266556999999999
 20
34.507173999999999
 30
0.0
 11
-35.273561000000001
 21
34.509157999999999
 31
0.0
  0
LINE
  5
18DA
  8
DETAIL
  6
CONTINUOUS
 62
     5
 10
-35.273561000000001
 20
34.509157999999999
 30
0.0
 11
-35.287787000000002
 21
34.52269099999998
 31
0.0
  0
LINE
  5
18DB
  8
DETAIL
  6
CONTINUOUS
 62
     5
 10
-35.751387999999992
 20
43.608812
 30
0.0
 11
-35.747059999999991
 21
43.674408999999997
 31
0.0
  0
LINE
  5
18DC
  8
DETAIL
  6
CONTINUOUS
 62
     5
 10
-35.747059999999991
 20
43.674408999999997
 30
0.0
 11
-35.734037999999991
 21
43.739294999999998
 31
0.0
  0
LINE
  5
18DD
  8
DETAIL
  6
CONTINUOUS
 62
     5
 10
-35.734037999999991
 20
43.739294999999998
 30
0.0
 11
-35.712516999999991
 21
43.801963000000001
 31
0.0
  0
LINE
  5
18DE
  8
DETAIL
  6
CONTINUOUS
 62
     5
 10
-35.712516999999991
 20
43.801963000000001
 30
0.0
 11
-35.682735000000001
 21
43.861490999999987
 31
0.0
  0
LINE
  5
18DF
  8
DETAIL
  6
CONTINUOUS
 62
     5
 10
-35.682735000000001
 20
43.861490999999987
 30
0.0
 11
-35.64499
 21
43.916924999999999
 31
0.0
  0
LINE
  5
18E0
  8
DETAIL
  6
CONTINUOUS
 62
     5
 10
-35.64499
 20
43.916924999999999
 30
0.0
 11
-35.599812999999997
 21
43.967132999999997
 31
0.0
  0
LINE
  5
18E1
  8
DETAIL
  6
CONTINUOUS
 62
     5
 10
-35.599812999999997
 20
43.967132999999997
 30
0.0
 11
-35.547834999999999
 21
44.01110899999999
 31
0.0
  0
LINE
  5
18E2
  8
DETAIL
  6
CONTINUOUS
 62
     5
 10
-35.547834999999999
 20
44.01110899999999
 30
0.0
 11
-35.489899000000001
 21
44.047853000000003
 31
0.0
  0
LINE
  5
18E3
  8
DETAIL
  6
CONTINUOUS
 62
     5
 10
-35.489899000000001
 20
44.047853000000003
 30
0.0
 11
-35.426983
 21
44.076492999999999
 31
0.0
  0
LINE
  5
18E4
  8
DETAIL
  6
CONTINUOUS
 62
     5
 10
-35.426983
 20
44.076492999999999
 30
0.0
 11
-35.360292999999999
 21
44.096263
 31
0.0
  0
LINE
  5
18E5
  8
DETAIL
  6
CONTINUOUS
 62
     5
 10
-35.751387999999992
 20
37.61853399999999
 30
0.0
 11
-35.747751999999991
 21
37.678677
 31
0.0
  0
LINE
  5
18E6
  8
DETAIL
  6
CONTINUOUS
 62
     5
 10
-35.747751999999991
 20
37.678677
 30
0.0
 11
-35.736789999999999
 21
37.738387000000003
 31
0.0
  0
LINE
  5
18E7
  8
DETAIL
  6
CONTINUOUS
 62
     5
 10
-35.736789999999999
 20
37.738387000000003
 30
0.0
 11
-35.71873200000001
 21
37.796143999999991
 31
0.0
  0
LINE
  5
18E8
  8
DETAIL
  6
CONTINUOUS
 62
     5
 10
-35.71873200000001
 20
37.796143999999991
 30
0.0
 11
-35.693691999999999
 21
37.851533000000003
 31
0.0
  0
LINE
  5
18E9
  8
DETAIL
  6
CONTINUOUS
 62
     5
 10
-35.693691999999999
 20
37.851533000000003
 30
0.0
 11
-35.661718999999998
 21
37.904026999999999
 31
0.0
  0
LINE
  5
18EA
  8
DETAIL
  6
CONTINUOUS
 62
     5
 10
-35.661718999999998
 20
37.904026999999999
 30
0.0
 11
-35.623119000000003
 21
37.952661999999989
 31
0.0
  0
LINE
  5
18EB
  8
DETAIL
  6
CONTINUOUS
 62
     5
 10
-35.623119000000003
 20
37.952661999999989
 30
0.0
 11
-35.578212000000001
 21
37.996621999999981
 31
0.0
  0
LINE
  5
18EC
  8
DETAIL
  6
CONTINUOUS
 62
     5
 10
-35.578212000000001
 20
37.996621999999981
 30
0.0
 11
-35.527515000000001
 21
38.035007
 31
0.0
  0
LINE
  5
18ED
  8
DETAIL
  6
CONTINUOUS
 62
     5
 10
-35.527515000000001
 20
38.035007
 30
0.0
 11
-35.47168700000001
 21
38.066963000000001
 31
0.0
  0
LINE
  5
18EE
  8
DETAIL
  6
CONTINUOUS
 62
     5
 10
-35.47168700000001
 20
38.066963000000001
 30
0.0
 11
-35.411436999999999
 21
38.091737999999992
 31
0.0
  0
LINE
  5
18EF
  8
DETAIL
  6
CONTINUOUS
 62
     5
 10
-35.411436999999999
 20
38.091737999999992
 30
0.0
 11
-35.347535999999998
 21
38.108643000000001
 31
0.0
  0
LINE
  5
18F0
  8
DETAIL
  6
CONTINUOUS
 62
     5
 10
-35.347535999999998
 20
38.108643000000001
 30
0.0
 11
-35.281441999999991
 21
38.116990000000001
 31
0.0
  0
LINE
  5
18F1
  8
DETAIL
  6
CONTINUOUS
 62
     5
 10
-35.281441999999991
 20
38.116990000000001
 30
0.0
 11
-35.258396999999967
 21
38.117814000000003
 31
0.0
  0
LINE
  5
18F2
  8
DETAIL
  6
CONTINUOUS
 62
     5
 10
-32.119849000000002
 20
34.333917
 30
0.0
 11
-32.951546
 21
34.395924999999991
 31
0.0
  0
LINE
  5
18F3
  8
DETAIL
  6
CONTINUOUS
 62
     5
 10
-32.951546
 20
34.395924999999991
 30
0.0
 11
-33.774231
 21
34.445985999999991
 31
0.0
  0
LINE
  5
18F4
  8
DETAIL
  6
CONTINUOUS
 62
     5
 10
-33.774231
 20
34.445985999999991
 30
0.0
 11
-34.587749000000002
 21
34.484239000000002
 31
0.0
  0
LINE
  5
18F5
  8
DETAIL
  6
CONTINUOUS
 62
     5
 10
-34.587749000000002
 20
34.484239000000002
 30
0.0
 11
-35.265816999999991
 21
34.507165999999991
 31
0.0
  0
LINE
  5
18F6
  8
DETAIL
  6
CONTINUOUS
 62
     5
 10
-35.258524999999999
 20
38.117812999999991
 30
0.0
 11
-34.440871000000001
 21
38.128303000000002
 31
0.0
  0
LINE
  5
18F7
  8
DETAIL
  6
CONTINUOUS
 62
     5
 10
-35.360292999999999
 20
44.096263
 30
0.0
 11
-35.288224
 21
44.106821999999987
 31
0.0
  0
LINE
  5
18F8
  8
DETAIL
  6
CONTINUOUS
 62
     5
 10
-33.421793000000001
 20
37.203789999999991
 30
0.0
 11
-29.453302000000001
 21
38.835698999999991
 31
0.0
  0
ARC
  5
18F9
  8
DETAIL
  6
CONTINUOUS
 62
     5
 10
-33.313796000000004
 20
47.629705000000001
 30
0.0
 40
0.998642
 50
270.0
 51
328.13813799999991
  0
ARC
  5
18FA
  8
DETAIL
  6
CONTINUOUS
 62
     5
 10
-33.325371999999987
 20
47.611078999999982
 30
0.0
 40
0.4993210000000003
 50
270.0
 51
328.13813799999991
  0
LINE
  5
18FB
  8
DETAIL
  6
CONTINUOUS
 62
     5
 10
-44.982621999999999
 20
37.573021999999959
 30
0.0
 11
-45.073322999999981
 21
37.625017
 31
0.0
  0
LINE
  5
18FC
  8
DETAIL
  6
CONTINUOUS
 62
     5
 10
-45.073322999999981
 20
37.625017
 30
0.0
 11
-45.156672999999991
 21
37.684792000000002
 31
0.0
  0
LINE
  5
18FD
  8
DETAIL
  6
CONTINUOUS
 62
     5
 10
-45.156672999999991
 20
37.684792000000002
 30
0.0
 11
-45.233088000000002
 21
37.752743000000002
 31
0.0
  0
LINE
  5
18FE
  8
DETAIL
  6
CONTINUOUS
 62
     5
 10
-45.233088000000002
 20
37.752743000000002
 30
0.0
 11
-45.301315000000002
 21
37.827683999999998
 31
0.0
  0
LINE
  5
18FF
  8
DETAIL
  6
CONTINUOUS
 62
     5
 10
-45.301315000000002
 20
37.827683999999998
 30
0.0
 11
-45.360421999999993
 21
37.908901999999991
 31
0.0
  0
LINE
  5
1900
  8
DETAIL
  6
CONTINUOUS
 62
     5
 10
-45.360421999999993
 20
37.908901999999991
 30
0.0
 11
-45.409863000000001
 21
37.995378000000002
 31
0.0
  0
LINE
  5
1901
  8
DETAIL
  6
CONTINUOUS
 62
     5
 10
-44.982621999999999
 20
38.093812999999997
 30
0.0
 11
-44.760505999999992
 21
37.968952000000002
 31
0.0
  0
LINE
  5
1902
  8
DETAIL
  6
CONTINUOUS
 62
     5
 10
-44.760505999999992
 20
37.968952000000002
 30
0.0
 11
-44.527571000000002
 21
37.84093
 31
0.0
  0
LINE
  5
1903
  8
DETAIL
  6
CONTINUOUS
 62
     5
 10
-44.527571000000002
 20
37.84093
 30
0.0
 11
-44.284059999999982
 21
37.709707999999999
 31
0.0
  0
LINE
  5
1904
  8
DETAIL
  6
CONTINUOUS
 62
     5
 10
-44.284059999999982
 20
37.709707999999999
 30
0.0
 11
-44.029242000000004
 21
37.575406000000001
 31
0.0
  0
LINE
  5
1905
  8
DETAIL
  6
CONTINUOUS
 62
     5
 10
-44.029242000000004
 20
37.575406000000001
 30
0.0
 11
-43.762386999999997
 21
37.438147000000001
 31
0.0
  0
LINE
  5
1906
  8
DETAIL
  6
CONTINUOUS
 62
     5
 10
-43.762386999999997
 20
37.438147000000001
 30
0.0
 11
-43.483736999999977
 21
37.297888999999991
 31
0.0
  0
LINE
  5
1907
  8
DETAIL
  6
CONTINUOUS
 62
     5
 10
-44.982621999999999
 20
37.020959999999988
 30
0.0
 11
-45.073366999999983
 21
37.07197
 31
0.0
  0
LINE
  5
1908
  8
DETAIL
  6
CONTINUOUS
 62
     5
 10
-45.073366999999983
 20
37.07197
 30
0.0
 11
-45.156756000000001
 21
37.130854999999997
 31
0.0
  0
LINE
  5
1909
  8
DETAIL
  6
CONTINUOUS
 62
     5
 10
-45.156756000000001
 20
37.130854999999997
 30
0.0
 11
-45.23321
 21
37.198011000000001
 31
0.0
  0
LINE
  5
190A
  8
DETAIL
  6
CONTINUOUS
 62
     5
 10
-45.23321
 20
37.198011000000001
 30
0.0
 11
-45.301464000000003
 21
37.27225
 31
0.0
  0
LINE
  5
190B
  8
DETAIL
  6
CONTINUOUS
 62
     5
 10
-45.301464000000003
 20
37.27225
 30
0.0
 11
-45.360572999999981
 21
37.35286399999999
 31
0.0
  0
LINE
  5
190C
  8
DETAIL
  6
CONTINUOUS
 62
     5
 10
-45.360572999999981
 20
37.35286399999999
 30
0.0
 11
-45.409998000000002
 21
37.438822999999999
 31
0.0
  0
LINE
  5
190D
  8
DETAIL
  6
CONTINUOUS
 62
     5
 10
-45.409998000000002
 20
37.438822999999999
 30
0.0
 11
-45.448977999999997
 21
37.52923599999999
 31
0.0
  0
LINE
  5
190E
  8
DETAIL
  6
CONTINUOUS
 62
     5
 10
-45.448977999999997
 20
37.52923599999999
 30
0.0
 11
-45.477235999999998
 21
37.62298599999999
 31
0.0
  0
LINE
  5
190F
  8
DETAIL
  6
CONTINUOUS
 62
     5
 10
-45.477235999999998
 20
37.62298599999999
 30
0.0
 11
-45.494177000000001
 21
37.71848
 31
0.0
  0
LINE
  5
1910
  8
DETAIL
  6
CONTINUOUS
 62
     5
 10
-45.494177000000001
 20
37.71848
 30
0.0
 11
-45.499999999999993
 21
37.816248999999999
 31
0.0
  0
LINE
  5
1911
  8
DETAIL
  6
CONTINUOUS
 62
     5
 10
-44.982621999999999
 20
36.532474999999991
 30
0.0
 11
-45.078766999999992
 21
36.582588999999992
 31
0.0
  0
LINE
  5
1912
  8
DETAIL
  6
CONTINUOUS
 62
     5
 10
-45.078766999999992
 20
36.582588999999992
 30
0.0
 11
-45.165838999999991
 21
36.63926
 31
0.0
  0
LINE
  5
1913
  8
DETAIL
  6
CONTINUOUS
 62
     5
 10
-45.165838999999991
 20
36.63926
 30
0.0
 11
-45.244270999999991
 21
36.70190199999999
 31
0.0
  0
LINE
  5
1914
  8
DETAIL
  6
CONTINUOUS
 62
     5
 10
-45.244270999999991
 20
36.70190199999999
 30
0.0
 11
-45.312876000000003
 21
36.768433999999999
 31
0.0
  0
LINE
  5
1915
  8
DETAIL
  6
CONTINUOUS
 62
     5
 10
-45.312876000000003
 20
36.768433999999999
 30
0.0
 11
-45.370468000000002
 21
36.836688000000002
 31
0.0
  0
LINE
  5
1916
  8
DETAIL
  6
CONTINUOUS
 62
     5
 10
-45.370468000000002
 20
36.836688000000002
 30
0.0
 11
-45.417477000000012
 21
36.90591899999999
 31
0.0
  0
LINE
  5
1917
  8
DETAIL
  6
CONTINUOUS
 62
     5
 10
-45.417477000000012
 20
36.90591899999999
 30
0.0
 11
-45.453958
 21
36.974750999999998
 31
0.0
  0
LINE
  5
1918
  8
DETAIL
  6
CONTINUOUS
 62
     5
 10
-45.453958
 20
36.974750999999998
 30
0.0
 11
-45.479877000000002
 21
37.041474000000001
 31
0.0
  0
LINE
  5
1919
  8
DETAIL
  6
CONTINUOUS
 62
     5
 10
-45.479877000000002
 20
37.041474000000001
 30
0.0
 11
-45.495201000000002
 21
37.104174999999998
 31
0.0
  0
LINE
  5
191A
  8
DETAIL
  6
CONTINUOUS
 62
     5
 10
-45.495201000000002
 20
37.104174999999998
 30
0.0
 11
-45.499999999999993
 21
37.160517999999982
 31
0.0
  0
LINE
  5
191B
  8
DETAIL
  6
CONTINUOUS
 62
     5
 10
-44.076423999999989
 20
36.092779
 30
0.0
 11
-44.320003999999983
 21
36.21481
 31
0.0
  0
LINE
  5
191C
  8
DETAIL
  6
CONTINUOUS
 62
     5
 10
-44.320003999999983
 20
36.21481
 30
0.0
 11
-44.552230000000002
 21
36.328769000000001
 31
0.0
  0
LINE
  5
191D
  8
DETAIL
  6
CONTINUOUS
 62
     5
 10
-44.552230000000002
 20
36.328769000000001
 30
0.0
 11
-44.773102999999999
 21
36.434657999999992
 31
0.0
  0
LINE
  5
191E
  8
DETAIL
  6
CONTINUOUS
 62
     5
 10
-44.773102999999999
 20
36.434657999999992
 30
0.0
 11
-44.982621999999999
 21
36.532474999999991
 31
0.0
  0
LINE
  5
191F
  8
DETAIL
  6
CONTINUOUS
 62
     5
 10
-45.409863000000001
 20
37.995378000000002
 30
0.0
 11
-45.448878999999991
 21
38.086224000000001
 31
0.0
  0
LINE
  5
1920
  8
DETAIL
  6
CONTINUOUS
 62
     5
 10
-45.448878999999991
 20
38.086224000000001
 30
0.0
 11
-45.477179999999983
 21
38.180328000000003
 31
0.0
  0
LINE
  5
1921
  8
DETAIL
  6
CONTINUOUS
 62
     5
 10
-45.477179999999983
 20
38.180328000000003
 30
0.0
 11
-45.494152
 21
38.276103999999989
 31
0.0
  0
LINE
  5
1922
  8
DETAIL
  6
CONTINUOUS
 62
     5
 10
-45.492113000000003
 20
38.935214000000002
 30
0.0
 11
-45.474693000000002
 21
38.81471899999999
 31
0.0
  0
LINE
  5
1923
  8
DETAIL
  6
CONTINUOUS
 62
     5
 10
-45.474693000000002
 20
38.81471899999999
 30
0.0
 11
-45.447240000000001
 21
38.700502
 31
0.0
  0
LINE
  5
1924
  8
DETAIL
  6
CONTINUOUS
 62
     5
 10
-45.447240000000001
 20
38.700502
 30
0.0
 11
-45.409959000000001
 21
38.592469999999992
 31
0.0
  0
LINE
  5
1925
  8
DETAIL
  6
CONTINUOUS
 62
     5
 10
-45.409959000000001
 20
38.592469999999992
 30
0.0
 11
-45.363151000000002
 21
38.490741
 31
0.0
  0
LINE
  5
1926
  8
DETAIL
  6
CONTINUOUS
 62
     5
 10
-45.363151000000002
 20
38.490741
 30
0.0
 11
-45.306339000000001
 21
38.395608000000003
 31
0.0
  0
LINE
  5
1927
  8
DETAIL
  6
CONTINUOUS
 62
     5
 10
-45.306339000000001
 20
38.395608000000003
 30
0.0
 11
-45.238678
 21
38.306342999999991
 31
0.0
  0
LINE
  5
1928
  8
DETAIL
  6
CONTINUOUS
 62
     5
 10
-45.238678
 20
38.306342999999991
 30
0.0
 11
-45.161599000000002
 21
38.225309000000003
 31
0.0
  0
LINE
  5
1929
  8
DETAIL
  6
CONTINUOUS
 62
     5
 10
-45.161599000000002
 20
38.225309000000003
 30
0.0
 11
-45.076403000000013
 21
38.154645000000002
 31
0.0
  0
LINE
  5
192A
  8
DETAIL
  6
CONTINUOUS
 62
     5
 10
-45.076403000000013
 20
38.154645000000002
 30
0.0
 11
-44.982621999999999
 21
38.093812999999997
 31
0.0
  0
LINE
  5
192B
  8
DETAIL
  6
CONTINUOUS
 62
     5
 10
-45.499999999999993
 20
37.083535999999981
 30
0.0
 11
-45.499999999999993
 21
37.079264999999999
 31
0.0
  0
LINE
  5
192C
  8
DETAIL
  6
CONTINUOUS
 62
     5
 10
-45.499999999999993
 20
37.160517999999982
 30
0.0
 11
-45.499999999999993
 21
38.837164000000001
 31
0.0
  0
LINE
  5
192D
  8
DETAIL
  6
CONTINUOUS
 62
     5
 10
-45.499999999999993
 20
39.091594000000001
 30
0.0
 11
-45.499999999999993
 21
45.517066
 31
0.0
  0
LINE
  5
192E
  8
DETAIL
  6
CONTINUOUS
 62
     5
 10
-45.500042999999998
 20
39.091245999999998
 30
0.0
 11
-45.49971
 21
39.05975999999999
 31
0.0
  0
LINE
  5
192F
  8
DETAIL
  6
CONTINUOUS
 62
     5
 10
-45.49971
 20
39.05975999999999
 30
0.0
 11
-45.492113000000003
 21
38.935214000000002
 31
0.0
  0
LINE
  5
1930
  8
DETAIL
  6
CONTINUOUS
 62
     5
 10
-45.494152
 20
38.276103999999989
 30
0.0
 11
-45.499999999999993
 21
38.374079999999992
 31
0.0
  0
LINE
  5
1931
  8
DETAIL
  6
CONTINUOUS
 62
     5
 10
-45.499999999999993
 20
45.517100999999997
 30
0.0
 11
-45.494278000000001
 21
45.617646000000001
 31
0.0
  0
LINE
  5
1932
  8
DETAIL
  6
CONTINUOUS
 62
     5
 10
-45.494278000000001
 20
45.617646000000001
 30
0.0
 11
-45.47851099999999
 21
45.715060000000001
 31
0.0
  0
LINE
  5
1933
  8
DETAIL
  6
CONTINUOUS
 62
     5
 10
-45.47851099999999
 20
45.715060000000001
 30
0.0
 11
-45.452213
 21
45.809991999999987
 31
0.0
  0
LINE
  5
1934
  8
DETAIL
  6
CONTINUOUS
 62
     5
 10
-45.452213
 20
45.809991999999987
 30
0.0
 11
-45.416845000000002
 21
45.900492
 31
0.0
  0
LINE
  5
1935
  8
DETAIL
  6
CONTINUOUS
 62
     5
 10
-45.416845000000002
 20
45.900492
 30
0.0
 11
-45.373221999999998
 21
45.984969999999997
 31
0.0
  0
LINE
  5
1936
  8
DETAIL
  6
CONTINUOUS
 62
     5
 10
-45.373221999999998
 20
45.984969999999997
 30
0.0
 11
-45.322800000000001
 21
46.062992000000001
 31
0.0
  0
LINE
  5
1937
  8
DETAIL
  6
CONTINUOUS
 62
     5
 10
-45.322800000000001
 20
46.062992000000001
 30
0.0
 11
-45.267524999999992
 21
46.133477999999982
 31
0.0
  0
LINE
  5
1938
  8
DETAIL
  6
CONTINUOUS
 62
     5
 10
-45.267524999999992
 20
46.133477999999982
 30
0.0
 11
-45.206747999999997
 21
46.196787
 31
0.0
  0
LINE
  5
1939
  8
DETAIL
  6
CONTINUOUS
 62
     5
 10
-45.499999999999993
 20
37.856977999999991
 30
0.0
 11
-45.321288000000003
 21
37.855128999999998
 31
0.0
  0
LINE
  5
193A
  8
DETAIL
  6
CONTINUOUS
 62
     5
 10
-45.497126000000002
 20
39.186177000000001
 30
0.0
 11
-45.500042999999998
 21
39.091245999999998
 31
0.0
  0
LINE
  5
193B
  8
DETAIL
  6
CONTINUOUS
 62
     5
 10
-45.206747999999997
 20
46.196787
 30
0.0
 11
-45.170065999999998
 21
46.229984999999999
 31
0.0
  0
LINE
  5
193C
  8
DETAIL
  6
CONTINUOUS
 62
     5
 10
-45.170065999999998
 20
46.229984999999999
 30
0.0
 11
-45.129944999999999
 21
46.262056999999977
 31
0.0
  0
LINE
  5
193D
  8
DETAIL
  6
CONTINUOUS
 62
     5
 10
-45.129944999999999
 20
46.262056999999977
 30
0.0
 11
-45.086265999999981
 21
46.292642000000001
 31
0.0
  0
LINE
  5
193E
  8
DETAIL
  6
CONTINUOUS
 62
     5
 10
-45.086265999999981
 20
46.292642000000001
 30
0.0
 11
-45.038949000000002
 21
46.321345000000001
 31
0.0
  0
LINE
  5
193F
  8
DETAIL
  6
CONTINUOUS
 62
     5
 10
-45.038949000000002
 20
46.321345000000001
 30
0.0
 11
-44.987991000000001
 21
46.347714000000003
 31
0.0
  0
LINE
  5
1940
  8
DETAIL
  6
CONTINUOUS
 62
     5
 10
-44.987991000000001
 20
46.347714000000003
 30
0.0
 11
-44.933227000000002
 21
46.371392
 31
0.0
  0
LINE
  5
1941
  8
DETAIL
  6
CONTINUOUS
 62
     5
 10
-44.933227000000002
 20
46.371392
 30
0.0
 11
-44.874615000000013
 21
46.391915999999988
 31
0.0
  0
LINE
  5
1942
  8
DETAIL
  6
CONTINUOUS
 62
     5
 10
-44.874615000000013
 20
46.391915999999988
 30
0.0
 11
-44.81197499999999
 21
46.408854999999981
 31
0.0
  0
LINE
  5
1943
  8
DETAIL
  6
CONTINUOUS
 62
     5
 10
-44.81197499999999
 20
46.408854999999981
 30
0.0
 11
-44.745291999999999
 21
46.42165
 31
0.0
  0
LINE
  5
1944
  8
DETAIL
  6
CONTINUOUS
 62
     5
 10
-44.745291999999999
 20
46.42165
 30
0.0
 11
-44.674276999999996
 21
46.429759999999987
 31
0.0
  0
LINE
  5
1945
  8
DETAIL
  6
CONTINUOUS
 62
     5
 10
-44.674276999999996
 20
46.429759999999987
 30
0.0
 11
-44.619185999999992
 21
46.432349999999992
 31
0.0
  0
ARC
  5
1946
  8
DETAIL
  6
CONTINUOUS
 62
     5
 10
-44.332997999999989
 20
46.231605999999999
 30
0.0
 40
0.399457
 50
90.0
 51
150.30482900000001
  0
ARC
  5
1947
  8
DETAIL
  6
CONTINUOUS
 62
     5
 10
-44.225482
 20
46.113115000000001
 30
0.0
 40
0.998642
 50
90.0
 51
176.09640300000001
  0
ARC
  5
1948
  8
DETAIL
  6
CONTINUOUS
 62
     5
 10
0.299593
 20
79.700370999999976
 30
0.0
 40
0.299593
 50
89.500017999999983
 51
179.99798100000001
  0
LINE
  5
1949
  8
DETAIL
  6
CONTINUOUS
 62
     5
 10
0.302207
 20
79.99996299999998
 30
0.0
 11
0.302446
 21
79.992778000000001
 31
0.0
  0
LINE
  5
194A
  8
SIZE
  6
CONTINUOUS
 62
    30
 10
-19.697793000000001
 20
79.99996299999998
 30
0.0
 11
-671.47135100000003
 21
79.99996299999998
 31
0.0
  0
LINE
  5
194B
  8
SIZE
  6
CONTINUOUS
 62
    30
 10
-19.700412
 20
-100.0000039999999
 30
0.0
 11
-671.47135100000003
 21
-100.0000039999999
 31
0.0
  0
LINE
  5
194C
  8
SIZE
  6
CONTINUOUS
 62
    30
 10
-651.4713509999998
 20
91.999962999999994
 30
0.0
 11
-651.4713509999998
 21
103.99996299999999
 31
0.0
  0
LINE
  5
194D
  8
SIZE
  6
CONTINUOUS
 62
    30
 10
-651.4713509999998
 20
-112.000004
 30
0.0
 11
-651.4713509999998
 21
-124.0000039999999
 31
0.0
  0
LINE
  5
194E
  8
SIZE
  6
CONTINUOUS
 62
    30
 10
-651.4713509999998
 20
79.99996299999998
 30
0.0
 11
-651.4713509999998
 21
-100.0000039999999
 31
0.0
  0
CIRCLE
  5
194F
  8
SIZE
  6
CONTINUOUS
 62
    30
 10
-651.4713509999998
 20
79.99996299999998
 30
0.0
 40
6.0
  0
LINE
  5
1950
  8
SIZE
  6
CONTINUOUS
 62
    30
 10
-651.4713509999998
 20
79.99996299999998
 30
0.0
 11
-651.4713509999998
 21
91.999962999999994
 31
0.0
  0
CIRCLE
  5
1951
  8
SIZE
  6
CONTINUOUS
 62
    30
 10
-651.4713509999998
 20
-100.0000039999999
 30
0.0
 40
6.0
  0
LINE
  5
1952
  8
SIZE
  6
CONTINUOUS
 62
    30
 10
-651.4713509999998
 20
-100.0000039999999
 30
0.0
 11
-651.4713509999998
 21
-112.000004
 31
0.0
  0
TEXT
  5
1953
  8
SIZE
  6
CONTINUOUS
 62
    30
 10
-676.4713509999998
 20
-78.571448571428562
 30
0.0
 40
64.0
  1
180
 50
90.0
 41
0.9
 72
     1
 11
-676.4713509999998
 21
-10.000019999999999
 31
0.0
  0
LINE
  5
1954
  8
OUTLINE
  6
CONTINUOUS
 62
     3
 10
-35.751387999999992
 20
46.250473999999983
 30
0.0
 11
-35.751387999999992
 21
21.389702999999962
 31
0.0
  0
ARC
  5
1955
  8
OUTLINE
  6
CONTINUOUS
 62
     3
 10
-639.06307400000003
 20
-10.000021
 30
0.0
 40
689.06306600000016
 50
355.18767400000002
 51
7.3643770000000002
  0
LINE
  5
1956
  8
OUTLINE
  6
CONTINUOUS
 62
     3
 10
0.0
 20
79.700381999999976
 30
0.0
 11
0.0
 21
-99.700423999999998
 31
0.0
  0
LINE
  5
1957
  8
OUTLINE
  6
CONTINUOUS
 62
     3
 10
43.719954000000001
 20
-96.608067000000005
 30
0.0
 11
37.711452000000001
 21
-99.529089999999997
 31
0.0
  0
LINE
  5
1958
  8
OUTLINE
  6
CONTINUOUS
 62
     3
 10
34.856479999999991
 20
-99.699109000000021
 30
0.0
 11
0.302207
 21
-100.000005
 31
0.0
  0
LINE
  5
1959
  8
OUTLINE
  6
CONTINUOUS
 62
     3
 10
37.069584999999982
 20
-99.679795999999996
 30
0.0
 11
34.856479999999991
 21
-99.699109000000021
 31
0.0
  0
ARC
  5
195A
  8
OUTLINE
  6
CONTINUOUS
 62
     3
 10
37.056513000000002
 20
-98.181889999999996
 30
0.0
 40
1.497962999999999
 50
270.5
 51
295.92662300000001
  0
ARC
  5
195B
  8
OUTLINE
  6
CONTINUOUS
 62
     3
 10
0.299593
 20
-99.700411000000017
 30
0.0
 40
0.299593
 50
180.00246999999999
 51
270.499978
  0
LINE
  5
195C
  8
OUTLINE
  6
CONTINUOUS
 62
     3
 10
0.303219
 20
-99.747906999999984
 30
0.0
 11
0.302666
 21
-99.971330000000023
 31
0.0
  0
LINE
  5
195D
  8
OUTLINE
  6
CONTINUOUS
 62
     3
 10
0.302446
 20
-99.992821000000021
 30
0.0
 11
0.302207
 21
-100.000005
 31
0.0
  0
LINE
  5
195E
  8
OUTLINE
  6
CONTINUOUS
 62
     3
 10
0.302666
 20
-99.971330000000023
 30
0.0
 11
0.302446
 21
-99.992821000000021
 31
0.0
  0
LINE
  5
195F
  8
OUTLINE
  6
CONTINUOUS
 62
     3
 10
45.471935999999992
 20
-67.828518000000003
 30
0.0
 11
47.410184000000001
 21
-69.767426999999984
 31
0.0
  0
ARC
  5
1960
  8
OUTLINE
  6
CONTINUOUS
 62
     3
 10
42.934027
 20
-94.991427000000002
 30
0.0
 40
1.797555999999999
 50
295.92662300000001
 51
352.89627199999973
  0
ARC
  5
1961
  8
OUTLINE
  6
CONTINUOUS
 62
     3
 10
-639.05595900000003
 20
-10.000021
 30
0.0
 40
689.06306600000016
 50
352.89627199999973
 51
354.51114200000001
  0
ARC
  5
1962
  8
OUTLINE
  6
CONTINUOUS
 62
     3
 10
45.564020999999983
 20
-68.420585000000003
 30
0.0
 40
0.5991850000000003
 50
96.40801500000002
 51
98.840469999999996
  0
LINE
  5
1963
  8
OUTLINE
  6
CONTINUOUS
 62
     3
 10
45.497146999999998
 20
-67.825143999999995
 30
0.0
 11
47.570931000000002
 21
-67.807045999999985
 31
0.0
  0
ARC
  5
1964
  8
OUTLINE
  6
CONTINUOUS
 62
     3
 10
-639.05595900000003
 20
-10.000021
 30
0.0
 40
689.06306600000016
 50
354.51213899999999
 51
355.02407099999999
  0
LINE
  5
1965
  8
OUTLINE
  6
CONTINUOUS
 62
     3
 10
-35.751387999999992
 20
-35.868417000000001
 30
0.0
 11
-35.751387999999992
 21
-6.757058999999999
 31
0.0
  0
LINE
  5
1966
  8
OUTLINE
  6
CONTINUOUS
 62
     3
 10
-18.974142000000001
 20
-46.839433
 30
0.0
 11
-18.974142000000001
 21
-40.403328999999999
 31
0.0
  0
LINE
  5
1967
  8
OUTLINE
  6
CONTINUOUS
 62
     3
 10
-20.400881999999999
 20
-38.626302000000003
 30
0.0
 11
-20.656828999999998
 21
-38.488347999999981
 31
0.0
  0
LINE
  5
1968
  8
OUTLINE
  6
CONTINUOUS
 62
     3
 10
-18.479178999999991
 20
-47.338735
 30
0.0
 11
0.0
 21
-47.5
 31
0.0
  0
LINE
  5
1969
  8
OUTLINE
  6
CONTINUOUS
 62
     3
 10
-18.992570000000001
 20
-40.187992999999999
 30
0.0
 11
-18.989436999999999
 21
-40.228615999999981
 31
0.0
  0
LINE
  5
196A
  8
OUTLINE
  6
CONTINUOUS
 62
     3
 10
-18.974428
 20
-40.382309999999983
 30
0.0
 11
-18.974142000000001
 21
-40.403328999999999
 31
0.0
  0
LINE
  5
196B
  8
OUTLINE
  6
CONTINUOUS
 62
     3
 10
-18.97438
 20
-40.388143999999983
 30
0.0
 11
-18.989436999999999
 21
-40.228615999999981
 31
0.0
  0
LINE
  5
196C
  8
OUTLINE
  6
CONTINUOUS
 62
     3
 10
-18.989436999999999
 20
-40.228615999999981
 30
0.0
 11
-19.030913999999999
 21
-40.059041999999977
 31
0.0
  0
LINE
  5
196D
  8
OUTLINE
  6
CONTINUOUS
 62
     3
 10
-19.030913999999999
 20
-40.059041999999977
 30
0.0
 11
-19.095852000000001
 21
-39.892556999999989
 31
0.0
  0
LINE
  5
196E
  8
OUTLINE
  6
CONTINUOUS
 62
     3
 10
-19.095852000000001
 20
-39.892556999999989
 30
0.0
 11
-19.182891000000001
 21
-39.727879999999992
 31
0.0
  0
LINE
  5
196F
  8
OUTLINE
  6
CONTINUOUS
 62
     3
 10
-19.182891000000001
 20
-39.727879999999992
 30
0.0
 11
-19.291471999999999
 21
-39.564473999999997
 31
0.0
  0
LINE
  5
1970
  8
OUTLINE
  6
CONTINUOUS
 62
     3
 10
-19.291471999999999
 20
-39.564473999999997
 30
0.0
 11
-19.42139899999998
 21
-39.402335999999998
 31
0.0
  0
LINE
  5
1971
  8
OUTLINE
  6
CONTINUOUS
 62
     3
 10
-19.42139899999998
 20
-39.402335999999998
 30
0.0
 11
-19.574193999999999
 21
-39.240366999999999
 31
0.0
  0
LINE
  5
1972
  8
OUTLINE
  6
CONTINUOUS
 62
     3
 10
-19.574193999999999
 20
-39.240366999999999
 30
0.0
 11
-19.748974
 21
-39.080550000000002
 31
0.0
  0
LINE
  5
1973
  8
OUTLINE
  6
CONTINUOUS
 62
     3
 10
-19.748974
 20
-39.080550000000002
 30
0.0
 11
-19.945792999999991
 21
-38.923794000000001
 31
0.0
  0
LINE
  5
1974
  8
OUTLINE
  6
CONTINUOUS
 62
     3
 10
-19.945792999999991
 20
-38.923794000000001
 30
0.0
 11
-20.163478999999992
 21
-38.771886999999992
 31
0.0
  0
LINE
  5
1975
  8
OUTLINE
  6
CONTINUOUS
 62
     3
 10
-20.163478999999992
 20
-38.771886999999992
 30
0.0
 11
-20.400881999999999
 21
-38.626302000000003
 31
0.0
  0
ARC
  5
1976
  8
OUTLINE
  6
CONTINUOUS
 62
     3
 10
-18.474820999999991
 20
-46.839433
 30
0.0
 40
0.4993210000000003
 50
180.0
 51
269.5
  0
LINE
  5
1977
  8
OUTLINE
  6
CONTINUOUS
 62
     3
 10
-20.656828999999998
 20
-38.488347999999981
 30
0.0
 11
-20.929936999999999
 21
-38.359246999999989
 31
0.0
  0
LINE
  5
1978
  8
OUTLINE
  6
CONTINUOUS
 62
     3
 10
-20.929936999999999
 20
-38.359246999999989
 30
0.0
 11
-21.218838999999981
 21
-38.240107000000002
 31
0.0
  0
LINE
  5
1979
  8
OUTLINE
  6
CONTINUOUS
 62
     3
 10
-21.218838999999981
 20
-38.240107000000002
 30
0.0
 11
-21.521993999999999
 21
-38.131920999999998
 31
0.0
  0
LINE
  5
197A
  8
OUTLINE
  6
CONTINUOUS
 62
     3
 10
-21.521993999999999
 20
-38.131920999999998
 30
0.0
 11
-21.837883999999999
 21
-38.035579999999982
 31
0.0
  0
LINE
  5
197B
  8
OUTLINE
  6
CONTINUOUS
 62
     3
 10
-21.837883999999999
 20
-38.035579999999982
 30
0.0
 11
-22.164940999999988
 21
-37.95186799999999
 31
0.0
  0
LINE
  5
197C
  8
OUTLINE
  6
CONTINUOUS
 62
     3
 10
-22.164940999999988
 20
-37.95186799999999
 30
0.0
 11
-22.501605999999999
 21
-37.881450999999991
 31
0.0
  0
LINE
  5
197D
  8
OUTLINE
  6
CONTINUOUS
 62
     3
 10
-22.501605999999999
 20
-37.881450999999991
 30
0.0
 11
-22.84628
 21
-37.824923999999982
 31
0.0
  0
LINE
  5
197E
  8
OUTLINE
  6
CONTINUOUS
 62
     3
 10
-22.84628
 20
-37.824923999999982
 30
0.0
 11
-23.070242999999991
 21
-37.796255000000002
 31
0.0
  0
LINE
  5
197F
  8
OUTLINE
  6
CONTINUOUS
 62
     3
 10
-23.070242999999991
 20
-37.796255000000002
 30
0.0
 11
-23.074134000000001
 21
-37.794893000000002
 31
0.0
  0
LINE
  5
1980
  8
OUTLINE
  6
CONTINUOUS
 62
     3
 10
-23.074134000000001
 20
-37.794893000000002
 30
0.0
 11
-23.082467999999999
 21
-37.784421000000002
 31
0.0
  0
LINE
  5
1981
  8
OUTLINE
  6
CONTINUOUS
 62
     3
 10
-23.082467999999999
 20
-37.784421000000002
 30
0.0
 11
-23.08938299999998
 21
-37.763961999999999
 31
0.0
  0
LINE
  5
1982
  8
OUTLINE
  6
CONTINUOUS
 62
     3
 10
-35.74801200000001
 20
-34.791871999999998
 30
0.0
 11
-35.751387999999992
 21
-34.750883000000002
 31
0.0
  0
LINE
  5
1983
  8
OUTLINE
  6
CONTINUOUS
 62
     3
 10
-31.270882
 20
-36.844715000000001
 30
0.0
 11
-35.311498
 21
-36.364187999999992
 31
0.0
  0
LINE
  5
1984
  8
OUTLINE
  6
CONTINUOUS
 62
     3
 10
-27.10941
 20
-37.331555999999992
 30
0.0
 11
-31.270882
 21
-36.844715000000001
 31
0.0
  0
LINE
  5
1985
  8
OUTLINE
  6
CONTINUOUS
 62
     3
 10
-23.070242
 20
-37.796247999999999
 30
0.0
 11
-27.10941
 21
-37.331555999999992
 31
0.0
  0
LINE
  5
1986
  8
OUTLINE
  6
CONTINUOUS
 62
     3
 10
-35.462606000000001
 20
-36.321179999999998
 30
0.0
 11
-35.39977600000001
 21
-36.345390000000002
 31
0.0
  0
LINE
  5
1987
  8
OUTLINE
  6
CONTINUOUS
 62
     3
 10
-35.39977600000001
 20
-36.345390000000002
 30
0.0
 11
-35.333880000000001
 21
-36.360990000000001
 31
0.0
  0
LINE
  5
1988
  8
OUTLINE
  6
CONTINUOUS
 62
     3
 10
-35.333880000000001
 20
-36.360990000000001
 30
0.0
 11
-35.311534000000002
 21
-36.364184000000002
 31
0.0
  0
LINE
  5
1989
  8
OUTLINE
  6
CONTINUOUS
 62
     3
 10
-35.322111
 20
-36.354339000000003
 30
0.0
 11
-35.313786999999991
 21
-36.363572999999981
 31
0.0
  0
LINE
  5
198A
  8
OUTLINE
  6
CONTINUOUS
 62
     3
 10
-35.313786999999991
 20
-36.363572999999981
 30
0.0
 11
-35.31163200000001
 21
-36.364171999999989
 31
0.0
  0
LINE
  5
198B
  8
OUTLINE
  6
CONTINUOUS
 62
     3
 10
-35.751387999999992
 20
-35.86842
 30
0.0
 11
-35.747574999999998
 21
-35.93000700000001
 31
0.0
  0
LINE
  5
198C
  8
OUTLINE
  6
CONTINUOUS
 62
     3
 10
-35.747574999999998
 20
-35.93000700000001
 30
0.0
 11
-35.73617500000001
 21
-35.990732000000001
 31
0.0
  0
LINE
  5
198D
  8
OUTLINE
  6
CONTINUOUS
 62
     3
 10
-35.73617500000001
 20
-35.990732000000001
 30
0.0
 11
-35.717624000000001
 21
-36.04891099999999
 31
0.0
  0
LINE
  5
198E
  8
OUTLINE
  6
CONTINUOUS
 62
     3
 10
-35.717624000000001
 20
-36.04891099999999
 30
0.0
 11
-35.692017999999997
 21
-36.104562000000001
 31
0.0
  0
LINE
  5
198F
  8
OUTLINE
  6
CONTINUOUS
 62
     3
 10
-35.692017999999997
 20
-36.104562000000001
 30
0.0
 11
-35.659216000000001
 21
-36.157470000000004
 31
0.0
  0
LINE
  5
1990
  8
OUTLINE
  6
CONTINUOUS
 62
     3
 10
-35.659216000000001
 20
-36.157470000000004
 30
0.0
 11
-35.619517999999999
 21
-36.206502
 31
0.0
  0
LINE
  5
1991
  8
OUTLINE
  6
CONTINUOUS
 62
     3
 10
-35.619517999999999
 20
-36.206502
 30
0.0
 11
-35.573267000000001
 21
-36.250715
 31
0.0
  0
LINE
  5
1992
  8
OUTLINE
  6
CONTINUOUS
 62
     3
 10
-35.573267000000001
 20
-36.250715
 30
0.0
 11
-35.52084
 21
-36.289228000000001
 31
0.0
  0
LINE
  5
1993
  8
OUTLINE
  6
CONTINUOUS
 62
     3
 10
-35.52084
 20
-36.289228000000001
 30
0.0
 11
-35.462606000000001
 21
-36.321179999999998
 31
0.0
  0
LINE
  5
1994
  8
OUTLINE
  6
CONTINUOUS
 62
     3
 10
-61.403530000000011
 20
23.0
 30
0.0
 11
-48.83359999999999
 21
23.0
 31
0.0
  0
LINE
  5
1995
  8
OUTLINE
  6
CONTINUOUS
 62
     3
 10
-38.447721999999992
 20
-23.0
 30
0.0
 11
-61.403530000000011
 21
-23.0
 31
0.0
  0
LINE
  5
1996
  8
OUTLINE
  6
CONTINUOUS
 62
     3
 10
-35.751387999999992
 20
-6.757058999999999
 30
0.0
 11
-35.751387999999992
 21
11.942985999999991
 31
0.0
  0
LINE
  5
1997
  8
OUTLINE
  6
CONTINUOUS
 62
     3
 10
-36.550302000000002
 20
-23.967410999999991
 30
0.0
 11
-37.948400999999997
 21
-23.967410999999991
 31
0.0
  0
LINE
  5
1998
  8
OUTLINE
  6
CONTINUOUS
 62
     3
 10
-36.550302000000002
 20
-24.580501999999999
 30
0.0
 11
-35.751387999999992
 21
-24.580501999999999
 31
0.0
  0
ARC
  5
1999
  8
OUTLINE
  6
CONTINUOUS
 62
     3
 10
-38.447721999999992
 20
-23.499320999999991
 30
0.0
 40
0.4993210000000003
 50
0.0
 51
90.0
  0
LINE
  5
199A
  8
OUTLINE
  6
CONTINUOUS
 62
     3
 10
-35.745103
 20
-3.7414610000000001
 30
0.0
 11
-35.750692999999998
 21
-3.809307
 31
0.0
  0
LINE
  5
199B
  8
OUTLINE
  6
CONTINUOUS
 62
     3
 10
-35.745103
 20
-3.509536999999999
 30
0.0
 11
-35.751387999999992
 21
-3.5858189999999981
 31
0.0
  0
LINE
  5
199C
  8
OUTLINE
  6
CONTINUOUS
 62
     3
 10
-45.837672999999981
 20
23.568038000000001
 30
0.0
 11
-45.837672999999981
 21
23.987891000000001
 31
0.0
  0
LINE
  5
199D
  8
OUTLINE
  6
CONTINUOUS
 62
     3
 10
-48.83359999999999
 20
24.487207999999999
 30
0.0
 11
-48.83359999999999
 21
23.0
 31
0.0
  0
LINE
  5
199E
  8
OUTLINE
  6
CONTINUOUS
 62
     3
 10
-45.737808999999999
 20
18.885255999999991
 30
0.0
 11
-45.737808999999999
 21
13.992945000000001
 31
0.0
  0
LINE
  5
199F
  8
OUTLINE
  6
CONTINUOUS
 62
     3
 10
-36.046492999999998
 20
12.23726799999999
 30
0.0
 11
-44.286371000000003
 21
12.238519
 31
0.0
  0
LINE
  5
19A0
  8
OUTLINE
  6
CONTINUOUS
 62
     3
 10
-35.751387000000001
 20
11.942985999999991
 30
0.0
 11
-35.752434999999998
 21
11.967413000000001
 31
0.0
  0
LINE
  5
19A1
  8
OUTLINE
  6
CONTINUOUS
 62
     3
 10
-35.752434999999998
 20
11.967413000000001
 30
0.0
 11
-35.758262000000002
 21
12.005589000000001
 31
0.0
  0
LINE
  5
19A2
  8
OUTLINE
  6
CONTINUOUS
 62
     3
 10
-35.758262000000002
 20
12.005589000000001
 30
0.0
 11
-35.768990000000002
 21
12.042477
 31
0.0
  0
LINE
  5
19A3
  8
OUTLINE
  6
CONTINUOUS
 62
     3
 10
-35.768990000000002
 20
12.042477
 30
0.0
 11
-35.784185000000001
 21
12.077184000000001
 31
0.0
  0
LINE
  5
19A4
  8
OUTLINE
  6
CONTINUOUS
 62
     3
 10
-35.784185000000001
 20
12.077184000000001
 30
0.0
 11
-35.803246999999999
 21
12.10901
 31
0.0
  0
LINE
  5
19A5
  8
OUTLINE
  6
CONTINUOUS
 62
     3
 10
-35.803246999999999
 20
12.10901
 30
0.0
 11
-35.825602000000011
 21
12.13759299999999
 31
0.0
  0
LINE
  5
19A6
  8
OUTLINE
  6
CONTINUOUS
 62
     3
 10
-35.825602000000011
 20
12.13759299999999
 30
0.0
 11
-35.850588999999992
 21
12.162613
 31
0.0
  0
LINE
  5
19A7
  8
OUTLINE
  6
CONTINUOUS
 62
     3
 10
-35.850588999999992
 20
12.162613
 30
0.0
 11
-35.877670999999999
 21
12.183985
 31
0.0
  0
LINE
  5
19A8
  8
OUTLINE
  6
CONTINUOUS
 62
     3
 10
-35.877670999999999
 20
12.183985
 30
0.0
 11
-35.906323
 21
12.20167
 31
0.0
  0
LINE
  5
19A9
  8
OUTLINE
  6
CONTINUOUS
 62
     3
 10
-35.906323
 20
12.20167
 30
0.0
 11
-35.936023999999989
 21
12.215674
 31
0.0
  0
LINE
  5
19AA
  8
OUTLINE
  6
CONTINUOUS
 62
     3
 10
-35.936023999999989
 20
12.215674
 30
0.0
 11
-35.966273000000001
 21
12.226067
 31
0.0
  0
LINE
  5
19AB
  8
OUTLINE
  6
CONTINUOUS
 62
     3
 10
-35.966273000000001
 20
12.226067
 30
0.0
 11
-35.996681000000002
 21
12.232991
 31
0.0
  0
LINE
  5
19AC
  8
OUTLINE
  6
CONTINUOUS
 62
     3
 10
-35.996681000000002
 20
12.232991
 30
0.0
 11
-36.027023999999997
 21
12.236616
 31
0.0
  0
LINE
  5
19AD
  8
OUTLINE
  6
CONTINUOUS
 62
     3
 10
-36.027023999999997
 20
12.236616
 30
0.0
 11
-36.046509999999998
 21
12.237268999999991
 31
0.0
  0
LINE
  5
19AE
  8
OUTLINE
  6
CONTINUOUS
 62
     3
 10
-35.750870999999989
 20
11.934725999999991
 30
0.0
 11
-35.751387000000001
 21
11.942866
 31
0.0
  0
LINE
  5
19AF
  8
OUTLINE
  6
CONTINUOUS
 62
     3
 10
-44.84198
 20
12.386553999999981
 30
0.0
 11
-44.842034000000012
 21
12.38659
 31
0.0
  0
LINE
  5
19B0
  8
OUTLINE
  6
CONTINUOUS
 62
     3
 10
-44.895254000000001
 20
12.423323999999999
 30
0.0
 11
-45.038418
 21
12.535135
 31
0.0
  0
LINE
  5
19B1
  8
OUTLINE
  6
CONTINUOUS
 62
     3
 10
-45.038418
 20
12.535135
 30
0.0
 11
-45.170788999999999
 21
12.658495
 31
0.0
  0
LINE
  5
19B2
  8
OUTLINE
  6
CONTINUOUS
 62
     3
 10
-45.170788999999999
 20
12.658495
 30
0.0
 11
-45.29140799999999
 21
12.79231199999999
 31
0.0
  0
LINE
  5
19B3
  8
OUTLINE
  6
CONTINUOUS
 62
     3
 10
-45.29140799999999
 20
12.79231199999999
 30
0.0
 11
-45.399403999999983
 21
12.935537
 31
0.0
  0
LINE
  5
19B4
  8
OUTLINE
  6
CONTINUOUS
 62
     3
 10
-45.399403999999983
 20
12.935537
 30
0.0
 11
-45.493918000000001
 21
13.087069
 31
0.0
  0
LINE
  5
19B5
  8
OUTLINE
  6
CONTINUOUS
 62
     3
 10
-45.493918000000001
 20
13.087069
 30
0.0
 11
-45.574131000000001
 21
13.245789999999991
 31
0.0
  0
LINE
  5
19B6
  8
OUTLINE
  6
CONTINUOUS
 62
     3
 10
-45.574131000000001
 20
13.245789999999991
 30
0.0
 11
-45.639284000000004
 21
13.410629
 31
0.0
  0
LINE
  5
19B7
  8
OUTLINE
  6
CONTINUOUS
 62
     3
 10
-45.639284000000004
 20
13.410629
 30
0.0
 11
-45.688602999999993
 21
13.580453
 31
0.0
  0
LINE
  5
19B8
  8
OUTLINE
  6
CONTINUOUS
 62
     3
 10
-45.688602999999993
 20
13.580453
 30
0.0
 11
-45.721319999999977
 21
13.754175
 31
0.0
  0
LINE
  5
19B9
  8
OUTLINE
  6
CONTINUOUS
 62
     3
 10
-45.721319999999977
 20
13.754175
 30
0.0
 11
-45.736668000000002
 21
13.930535000000001
 31
0.0
  0
LINE
  5
19BA
  8
OUTLINE
  6
CONTINUOUS
 62
     3
 10
-44.842034000000012
 20
12.38659
 30
0.0
 11
-44.84449
 21
12.388441
 31
0.0
  0
LINE
  5
19BB
  8
OUTLINE
  6
CONTINUOUS
 62
     3
 10
-44.842026999999987
 20
12.38660099999999
 30
0.0
 11
-44.895254000000001
 21
12.423323999999999
 31
0.0
  0
LINE
  5
19BC
  8
OUTLINE
  6
CONTINUOUS
 62
     3
 10
-44.286447999999993
 20
12.238515
 30
0.0
 11
-44.35307199999999
 21
12.240085000000001
 31
0.0
  0
LINE
  5
19BD
  8
OUTLINE
  6
CONTINUOUS
 62
     3
 10
-44.35307199999999
 20
12.240085000000001
 30
0.0
 11
-44.457132999999999
 21
12.249314
 31
0.0
  0
LINE
  5
19BE
  8
OUTLINE
  6
CONTINUOUS
 62
     3
 10
-44.457132999999999
 20
12.249314
 30
0.0
 11
-44.556899000000001
 21
12.267163
 31
0.0
  0
LINE
  5
19BF
  8
OUTLINE
  6
CONTINUOUS
 62
     3
 10
-44.556899000000001
 20
12.267163
 30
0.0
 11
-44.651701000000003
 21
12.293889999999999
 31
0.0
  0
LINE
  5
19C0
  8
OUTLINE
  6
CONTINUOUS
 62
     3
 10
-44.651701000000003
 20
12.293889999999999
 30
0.0
 11
-44.740751000000003
 21
12.329641000000001
 31
0.0
  0
LINE
  5
19C1
  8
OUTLINE
  6
CONTINUOUS
 62
     3
 10
-44.740751000000003
 20
12.329641000000001
 30
0.0
 11
-44.822845000000001
 21
12.374203
 31
0.0
  0
LINE
  5
19C2
  8
OUTLINE
  6
CONTINUOUS
 62
     3
 10
-44.822845000000001
 20
12.374203
 30
0.0
 11
-44.84198
 21
12.386553999999981
 31
0.0
  0
LINE
  5
19C3
  8
OUTLINE
  6
CONTINUOUS
 62
     3
 10
-44.286330999999983
 20
12.238519
 30
0.0
 11
-44.254647999999989
 21
12.239528
 31
0.0
  0
LINE
  5
19C4
  8
OUTLINE
  6
CONTINUOUS
 62
     3
 10
-44.502997000000001
 20
24.594605000000001
 30
0.0
 11
-35.751387999999992
 21
24.458461
 31
0.0
  0
LINE
  5
19C5
  8
OUTLINE
  6
CONTINUOUS
 62
     3
 10
-43.400564000000003
 20
21.148344000000002
 30
0.0
 11
-35.980755000000002
 21
21.162386999999981
 31
0.0
  0
LINE
  5
19C6
  8
OUTLINE
  6
CONTINUOUS
 62
     3
 10
-35.751387999999992
 20
22.57154899999999
 30
0.0
 11
-35.745103
 21
22.53206299999999
 31
0.0
  0
LINE
  5
19C7
  8
OUTLINE
  6
CONTINUOUS
 62
     3
 10
-35.75138900000001
 20
22.545722000000001
 30
0.0
 11
-35.745103
 21
22.506817000000002
 31
0.0
  0
LINE
  5
19C8
  8
OUTLINE
  6
CONTINUOUS
 62
     3
 10
-35.98070100000001
 20
21.162386999999981
 30
0.0
 11
-35.965502000000001
 21
21.16187
 31
0.0
  0
LINE
  5
19C9
  8
OUTLINE
  6
CONTINUOUS
 62
     3
 10
-35.965502000000001
 20
21.16187
 30
0.0
 11
-35.928556999999991
 21
21.157163000000001
 31
0.0
  0
LINE
  5
19CA
  8
OUTLINE
  6
CONTINUOUS
 62
     3
 10
-35.928556999999991
 20
21.157163000000001
 30
0.0
 11
-35.88508800000001
 21
21.147455999999998
 31
0.0
  0
LINE
  5
19CB
  8
OUTLINE
  6
CONTINUOUS
 62
     3
 10
-35.980678999999959
 20
21.162369000000002
 30
0.0
 11
-35.961544000000011
 21
21.163408999999991
 31
0.0
  0
LINE
  5
19CC
  8
OUTLINE
  6
CONTINUOUS
 62
     3
 10
-35.961544000000011
 20
21.163408999999991
 30
0.0
 11
-35.934579999999997
 21
21.168035
 31
0.0
  0
LINE
  5
19CD
  8
OUTLINE
  6
CONTINUOUS
 62
     3
 10
-35.934579999999997
 20
21.168035
 30
0.0
 11
-35.90313900000001
 21
21.177973999999999
 31
0.0
  0
LINE
  5
19CE
  8
OUTLINE
  6
CONTINUOUS
 62
     3
 10
-35.90313900000001
 20
21.177973999999999
 30
0.0
 11
-35.870426999999999
 21
21.193926999999999
 31
0.0
  0
LINE
  5
19CF
  8
OUTLINE
  6
CONTINUOUS
 62
     3
 10
-35.870426999999999
 20
21.193926999999999
 30
0.0
 11
-35.839120000000001
 21
21.215681
 31
0.0
  0
LINE
  5
19D0
  8
OUTLINE
  6
CONTINUOUS
 62
     3
 10
-35.839120000000001
 20
21.215681
 30
0.0
 11
-35.811394
 21
21.242168999999961
 31
0.0
  0
LINE
  5
19D1
  8
OUTLINE
  6
CONTINUOUS
 62
     3
 10
-35.811394
 20
21.242168999999961
 30
0.0
 11
-35.789023
 21
21.271239000000001
 31
0.0
  0
LINE
  5
19D2
  8
OUTLINE
  6
CONTINUOUS
 62
     3
 10
-35.789023
 20
21.271239000000001
 30
0.0
 11
-35.772148000000001
 21
21.301451999999991
 31
0.0
  0
LINE
  5
19D3
  8
OUTLINE
  6
CONTINUOUS
 62
     3
 10
-35.772148000000001
 20
21.301451999999991
 30
0.0
 11
-35.760736000000001
 21
21.330929999999999
 31
0.0
  0
LINE
  5
19D4
  8
OUTLINE
  6
CONTINUOUS
 62
     3
 10
-35.760736000000001
 20
21.330929999999999
 30
0.0
 11
-35.754197999999967
 21
21.358010999999991
 31
0.0
  0
LINE
  5
19D5
  8
OUTLINE
  6
CONTINUOUS
 62
     3
 10
-35.754197999999967
 20
21.358010999999991
 30
0.0
 11
-35.751604
 21
21.380877999999999
 31
0.0
  0
LINE
  5
19D6
  8
OUTLINE
  6
CONTINUOUS
 62
     3
 10
-35.751604
 20
21.380877999999999
 30
0.0
 11
-35.75137500000001
 21
21.389545999999989
 31
0.0
  0
LINE
  5
19D7
  8
OUTLINE
  6
CONTINUOUS
 62
     3
 10
-35.751387999999992
 20
21.55128599999998
 30
0.0
 11
-35.745103999999991
 21
21.591035000000002
 31
0.0
  0
LINE
  5
19D8
  8
OUTLINE
  6
CONTINUOUS
 62
     3
 10
-35.751387999999992
 20
21.389702999999962
 30
0.0
 11
-35.74928899999999
 21
21.404229000000001
 31
0.0
  0
LINE
  5
19D9
  8
OUTLINE
  6
CONTINUOUS
 62
     3
 10
-35.74928899999999
 20
21.404229000000001
 30
0.0
 11
-35.742947999999998
 21
21.412876999999991
 31
0.0
  0
LINE
  5
19DA
  8
OUTLINE
  6
CONTINUOUS
 62
     3
 10
-45.837672999999981
 20
17.994571000000001
 30
0.0
 11
-45.847268
 21
17.947646999999989
 31
0.0
  0
ARC
  5
19DB
  8
OUTLINE
  6
CONTINUOUS
 62
     3
 10
-46.336995000000002
 20
23.987891000000001
 30
0.0
 40
0.4993210000000003
 50
0.0
 51
90.0
  0
LINE
  5
19DC
  8
OUTLINE
  6
CONTINUOUS
 62
     3
 10
-46.336995000000002
 20
24.487212
 30
0.0
 11
-48.83359999999999
 21
24.487212
 31
0.0
  0
LINE
  5
19DD
  8
OUTLINE
  6
CONTINUOUS
 62
     3
 10
-44.62337999999999
 20
20.083867999999981
 30
0.0
 11
-44.524223999999982
 21
20.187138000000001
 31
0.0
  0
LINE
  5
19DE
  8
OUTLINE
  6
CONTINUOUS
 62
     3
 10
-44.730870000000003
 20
19.983615
 30
0.0
 11
-44.62337999999999
 21
20.083867999999981
 31
0.0
  0
LINE
  5
19DF
  8
OUTLINE
  6
CONTINUOUS
 62
     3
 10
-44.847590999999973
 20
19.88663
 30
0.0
 11
-44.730870000000003
 21
19.983615
 31
0.0
  0
LINE
  5
19E0
  8
OUTLINE
  6
CONTINUOUS
 62
     3
 10
-44.975313
 20
19.793124999999961
 30
0.0
 11
-44.847590999999973
 21
19.88663
 31
0.0
  0
LINE
  5
19E1
  8
OUTLINE
  6
CONTINUOUS
 62
     3
 10
-43.508400999999999
 20
21.140699000000001
 30
0.0
 11
-43.418067000000001
 21
21.148129999999991
 31
0.0
  0
LINE
  5
19E2
  8
OUTLINE
  6
CONTINUOUS
 62
     3
 10
-43.508400999999999
 20
21.140699000000001
 30
0.0
 11
-43.418067000000001
 21
21.148129999999991
 31
0.0
  0
LINE
  5
19E3
  8
OUTLINE
  6
CONTINUOUS
 62
     3
 10
-43.593288000000001
 20
21.122160999999991
 30
0.0
 11
-43.508400999999999
 21
21.140699000000001
 31
0.0
  0
LINE
  5
19E4
  8
OUTLINE
  6
CONTINUOUS
 62
     3
 10
-43.613295999999998
 20
21.115881000000002
 30
0.0
 11
-43.593288000000001
 21
21.122160999999991
 31
0.0
  0
LINE
  5
19E5
  8
OUTLINE
  6
CONTINUOUS
 62
     3
 10
-44.273158000000002
 20
20.509074999999999
 30
0.0
 11
-44.207033000000003
 21
20.600263999999989
 31
0.0
  0
LINE
  5
19E6
  8
OUTLINE
  6
CONTINUOUS
 62
     3
 10
-44.345762999999977
 20
20.406886
 30
0.0
 11
-44.273158000000002
 21
20.509074999999999
 31
0.0
  0
LINE
  5
19E7
  8
OUTLINE
  6
CONTINUOUS
 62
     3
 10
-44.432209
 20
20.29411099999998
 30
0.0
 11
-44.345762999999977
 21
20.406886
 31
0.0
  0
LINE
  5
19E8
  8
OUTLINE
  6
CONTINUOUS
 62
     3
 10
-44.524223999999982
 20
20.187138000000001
 30
0.0
 11
-44.432209
 21
20.29411099999998
 31
0.0
  0
LINE
  5
19E9
  8
OUTLINE
  6
CONTINUOUS
 62
     3
 10
-44.323118999999998
 20
20.435455000000001
 30
0.0
 11
-44.329357999999999
 21
20.429924999999962
 31
0.0
  0
LINE
  5
19EA
  8
OUTLINE
  6
CONTINUOUS
 62
     3
 10
-43.929685999999982
 20
20.933267999999991
 30
0.0
 11
-43.847959000000003
 21
20.997159
 31
0.0
  0
LINE
  5
19EB
  8
OUTLINE
  6
CONTINUOUS
 62
     3
 10
-43.672257000000002
 20
21.093717000000002
 30
0.0
 11
-43.613401999999986
 21
21.115811999999991
 31
0.0
  0
LINE
  5
19EC
  8
OUTLINE
  6
CONTINUOUS
 62
     3
 10
-43.761732000000002
 20
21.050732
 30
0.0
 11
-43.672257000000002
 21
21.093717000000002
 31
0.0
  0
LINE
  5
19ED
  8
OUTLINE
  6
CONTINUOUS
 62
     3
 10
-43.847959000000003
 20
20.997159
 30
0.0
 11
-43.761732000000002
 21
21.050732
 31
0.0
  0
LINE
  5
19EE
  8
OUTLINE
  6
CONTINUOUS
 62
     3
 10
-44.139291999999998
 20
20.691617999999991
 30
0.0
 11
-44.06807899999999
 21
20.785515
 31
0.0
  0
LINE
  5
19EF
  8
OUTLINE
  6
CONTINUOUS
 62
     3
 10
-44.068047999999983
 20
20.785560999999991
 30
0.0
 11
-44.005678000000003
 21
20.859501000000002
 31
0.0
  0
LINE
  5
19F0
  8
OUTLINE
  6
CONTINUOUS
 62
     3
 10
-44.005678000000003
 20
20.859501000000002
 30
0.0
 11
-43.929685999999982
 21
20.933267999999991
 31
0.0
  0
LINE
  5
19F1
  8
OUTLINE
  6
CONTINUOUS
 62
     3
 10
-44.273158000000002
 20
20.509074999999999
 30
0.0
 11
-44.207033000000003
 21
20.600263999999989
 31
0.0
  0
LINE
  5
19F2
  8
OUTLINE
  6
CONTINUOUS
 62
     3
 10
-44.207033000000003
 20
20.600263999999989
 30
0.0
 11
-44.139291999999998
 21
20.691617999999991
 31
0.0
  0
LINE
  5
19F3
  8
OUTLINE
  6
CONTINUOUS
 62
     3
 10
-45.737645999999991
 20
23.568038000000001
 30
0.0
 11
-45.737797
 21
23.578544000000001
 31
0.0
  0
LINE
  5
19F4
  8
OUTLINE
  6
CONTINUOUS
 62
     3
 10
-45.358255
 20
19.542475
 30
0.0
 11
-45.368152000000002
 21
19.536518999999991
 31
0.0
  0
LINE
  5
19F5
  8
OUTLINE
  6
CONTINUOUS
 62
     3
 10
-45.018990000000002
 20
19.763619999999989
 30
0.0
 11
-45.026710999999992
 21
19.758973999999998
 31
0.0
  0
LINE
  5
19F6
  8
OUTLINE
  6
CONTINUOUS
 62
     3
 10
-45.298445999999991
 20
24.569389999999999
 30
0.0
 11
-45.336309
 21
24.577828
 31
0.0
  0
LINE
  5
19F7
  8
OUTLINE
  6
CONTINUOUS
 62
     3
 10
-45.336309
 20
24.577828
 30
0.0
 11
-45.373409000000002
 21
24.583431999999991
 31
0.0
  0
LINE
  5
19F8
  8
OUTLINE
  6
CONTINUOUS
 62
     3
 10
-45.373409000000002
 20
24.583431999999991
 30
0.0
 11
-45.409742999999999
 21
24.586203999999999
 31
0.0
  0
LINE
  5
19F9
  8
OUTLINE
  6
CONTINUOUS
 62
     3
 10
-45.409742999999999
 20
24.586203999999999
 30
0.0
 11
-45.445314000000003
 21
24.586141999999992
 31
0.0
  0
LINE
  5
19FA
  8
OUTLINE
  6
CONTINUOUS
 62
     3
 10
-45.239934999999981
 20
24.571745
 30
0.0
 11
-44.676077999999983
 21
24.561494
 31
0.0
  0
LINE
  5
19FB
  8
OUTLINE
  6
CONTINUOUS
 62
     3
 10
-45.737799000000003
 20
18.884822
 30
0.0
 11
-45.737710999999997
 21
18.896605999999998
 31
0.0
  0
LINE
  5
19FC
  8
OUTLINE
  6
CONTINUOUS
 62
     3
 10
-45.737710999999997
 20
18.896605999999998
 30
0.0
 11
-45.731113999999998
 21
18.983798
 31
0.0
  0
LINE
  5
19FD
  8
OUTLINE
  6
CONTINUOUS
 62
     3
 10
-45.731113999999998
 20
18.983798
 30
0.0
 11
-45.714216999999998
 21
19.069222
 31
0.0
  0
LINE
  5
19FE
  8
OUTLINE
  6
CONTINUOUS
 62
     3
 10
-45.714216999999998
 20
19.069222
 30
0.0
 11
-45.687204999999999
 21
19.152410999999962
 31
0.0
  0
LINE
  5
19FF
  8
OUTLINE
  6
CONTINUOUS
 62
     3
 10
-45.687204999999999
 20
19.152410999999962
 30
0.0
 11
-45.650205
 21
19.23273
 31
0.0
  0
LINE
  5
1A00
  8
OUTLINE
  6
CONTINUOUS
 62
     3
 10
-45.650205
 20
19.23273
 30
0.0
 11
-45.603330999999997
 21
19.309498999999992
 31
0.0
  0
LINE
  5
1A01
  8
OUTLINE
  6
CONTINUOUS
 62
     3
 10
-45.603330999999997
 20
19.309498999999992
 30
0.0
 11
-45.546599999999998
 21
19.382131000000001
 31
0.0
  0
LINE
  5
1A02
  8
OUTLINE
  6
CONTINUOUS
 62
     3
 10
-45.546599999999998
 20
19.382131000000001
 30
0.0
 11
-45.480098999999989
 21
19.449815999999998
 31
0.0
  0
LINE
  5
1A03
  8
OUTLINE
  6
CONTINUOUS
 62
     3
 10
-45.480098999999989
 20
19.449815999999998
 30
0.0
 11
-45.403640000000003
 21
19.511993
 31
0.0
  0
LINE
  5
1A04
  8
OUTLINE
  6
CONTINUOUS
 62
     3
 10
-45.403640000000003
 20
19.511993
 30
0.0
 11
-45.368301000000002
 21
19.536414999999991
 31
0.0
  0
LINE
  5
1A05
  8
OUTLINE
  6
CONTINUOUS
 62
     3
 10
-45.737808999999999
 20
24.423604999999991
 30
0.0
 11
-45.737808999999999
 21
23.578592
 31
0.0
  0
LINE
  5
1A06
  8
OUTLINE
  6
CONTINUOUS
 62
     3
 10
-44.502989999999997
 20
24.594581999999999
 30
0.0
 11
-44.538544999999999
 21
24.593353
 31
0.0
  0
LINE
  5
1A07
  8
OUTLINE
  6
CONTINUOUS
 62
     3
 10
-44.538544999999999
 20
24.593353
 30
0.0
 11
-44.587434999999992
 21
24.585412999999999
 31
0.0
  0
LINE
  5
1A08
  8
OUTLINE
  6
CONTINUOUS
 62
     3
 10
-45.445314000000003
 20
24.586141999999992
 30
0.0
 11
-45.493974000000001
 21
24.582177999999988
 31
0.0
  0
LINE
  5
1A09
  8
OUTLINE
  6
CONTINUOUS
 62
     3
 10
-45.493974000000001
 20
24.582177999999988
 30
0.0
 11
-45.539489000000003
 21
24.575253
 31
0.0
  0
LINE
  5
1A0A
  8
OUTLINE
  6
CONTINUOUS
 62
     3
 10
-45.539489000000003
 20
24.575253
 30
0.0
 11
-45.581387999999997
 21
24.565159000000001
 31
0.0
  0
LINE
  5
1A0B
  8
OUTLINE
  6
CONTINUOUS
 62
     3
 10
-45.581387999999997
 20
24.565159000000001
 30
0.0
 11
-45.619309999999999
 21
24.552223999999999
 31
0.0
  0
LINE
  5
1A0C
  8
OUTLINE
  6
CONTINUOUS
 62
     3
 10
-45.619309999999999
 20
24.552223999999999
 30
0.0
 11
-45.652796000000002
 21
24.536617
 31
0.0
  0
LINE
  5
1A0D
  8
OUTLINE
  6
CONTINUOUS
 62
     3
 10
-45.652796000000002
 20
24.536617
 30
0.0
 11
-45.681499000000002
 21
24.518498999999998
 31
0.0
  0
LINE
  5
1A0E
  8
OUTLINE
  6
CONTINUOUS
 62
     3
 10
-45.681499000000002
 20
24.518498999999998
 30
0.0
 11
-45.704917999999999
 21
24.498006
 31
0.0
  0
LINE
  5
1A0F
  8
OUTLINE
  6
CONTINUOUS
 62
     3
 10
-45.704917999999999
 20
24.498006
 30
0.0
 11
-45.722590999999987
 21
24.475291999999989
 31
0.0
  0
LINE
  5
1A10
  8
OUTLINE
  6
CONTINUOUS
 62
     3
 10
-45.722590999999987
 20
24.475291999999989
 30
0.0
 11
-45.733862999999999
 21
24.450631000000001
 31
0.0
  0
LINE
  5
1A11
  8
OUTLINE
  6
CONTINUOUS
 62
     3
 10
-45.733862999999999
 20
24.450631000000001
 30
0.0
 11
-45.737808999999999
 21
24.423604999999991
 31
0.0
  0
LINE
  5
1A12
  8
OUTLINE
  6
CONTINUOUS
 62
     3
 10
-45.298540000000003
 20
24.569403999999999
 30
0.0
 11
-45.283923000000001
 21
24.570608
 31
0.0
  0
LINE
  5
1A13
  8
OUTLINE
  6
CONTINUOUS
 62
     3
 10
-45.283923000000001
 20
24.570608
 30
0.0
 11
-45.269275
 21
24.571400000000001
 31
0.0
  0
LINE
  5
1A14
  8
OUTLINE
  6
CONTINUOUS
 62
     3
 10
-45.269275
 20
24.571400000000001
 30
0.0
 11
-45.254607
 21
24.571778999999999
 31
0.0
  0
LINE
  5
1A15
  8
OUTLINE
  6
CONTINUOUS
 62
     3
 10
-45.254607
 20
24.571778999999999
 30
0.0
 11
-45.239934999999981
 21
24.571745
 31
0.0
  0
LINE
  5
1A16
  8
OUTLINE
  6
CONTINUOUS
 62
     3
 10
-45.737808999999999
 20
18.885273000000002
 30
0.0
 11
-45.737710999999997
 21
18.896605999999998
 31
0.0
  0
LINE
  5
1A17
  8
OUTLINE
  6
CONTINUOUS
 62
     3
 10
-43.418067000000001
 20
21.148129999999991
 30
0.0
 11
-43.400520999999998
 21
21.148343000000001
 31
0.0
  0
LINE
  5
1A18
  8
OUTLINE
  6
CONTINUOUS
 62
     3
 10
-44.679845999999998
 20
24.560444
 30
0.0
 11
-44.633957000000002
 21
24.573232999999998
 31
0.0
  0
LINE
  5
1A19
  8
OUTLINE
  6
CONTINUOUS
 62
     3
 10
-44.633957000000002
 20
24.573232999999998
 30
0.0
 11
-44.587434999999992
 21
24.585412999999999
 31
0.0
  0
LINE
  5
1A1A
  8
OUTLINE
  6
CONTINUOUS
 62
     3
 10
-45.368152000000002
 20
19.536518999999991
 30
0.0
 11
-45.026829999999997
 21
19.758897000000001
 31
0.0
  0
LINE
  5
1A1B
  8
OUTLINE
  6
CONTINUOUS
 62
     3
 10
-45.368152000000002
 20
19.536518999999991
 30
0.0
 11
-45.368303999999981
 21
19.536418999999999
 31
0.0
  0
LINE
  5
1A1C
  8
OUTLINE
  6
CONTINUOUS
 62
     3
 10
-45.026710999999992
 20
19.758973999999998
 30
0.0
 11
-44.975313
 21
19.793124999999961
 31
0.0
  0
LINE
  5
1A1D
  8
OUTLINE
  6
CONTINUOUS
 62
     3
 10
-64.0
 20
20.403531000000001
 30
0.0
 11
-64.0
 21
-20.40353
 31
0.0
  0
ARC
  5
1A1E
  8
OUTLINE
  6
CONTINUOUS
 62
     3
 10
-61.403530000000011
 20
-20.40353
 30
0.0
 40
2.5964700000000001
 50
180.0
 51
270.0
  0
LINE
  5
1A1F
  8
OUTLINE
  6
CONTINUOUS
 62
     3
 10
-64.0
 20
14.51008299999998
 30
0.0
 11
-63.983674000000001
 21
14.718160999999981
 31
0.0
  0
LINE
  5
1A20
  8
OUTLINE
  6
CONTINUOUS
 62
     3
 10
-64.0
 20
19.293392000000001
 30
0.0
 11
-63.983781999999991
 21
19.153818999999991
 31
0.0
  0
LINE
  5
1A21
  8
OUTLINE
  6
CONTINUOUS
 62
     3
 10
-64.0
 20
19.293392000000001
 30
0.0
 11
-63.983674000000001
 21
19.438683999999991
 31
0.0
  0
ARC
  5
1A22
  8
OUTLINE
  6
CONTINUOUS
 62
     3
 10
-61.403530000000011
 20
20.403531000000001
 30
0.0
 40
2.5964700000000001
 50
90.0
 51
180.0
  0
LINE
  5
1A23
  8
OUTLINE
  6
CONTINUOUS
 62
     3
 10
0.302207
 20
79.99996299999998
 30
0.0
 11
34.231175
 21
79.704523999999978
 31
0.0
  0
ARC
  5
1A24
  8
OUTLINE
  6
CONTINUOUS
 62
     3
 10
42.830335999999981
 20
78.131398000000004
 30
0.0
 40
1.497962999999999
 50
7.3643770000000002
 51
89.500000000000014
  0
LINE
  5
1A25
  8
OUTLINE
  6
CONTINUOUS
 62
     3
 10
42.843407999999982
 20
79.629304000000005
 30
0.0
 11
34.231175
 21
79.704523999999978
 31
0.0
  0
LINE
  5
1A26
  8
OUTLINE
  6
CONTINUOUS
 62
     3
 10
-20.536380999999999
 20
46.977010999999983
 30
0.0
 11
-20.336659000000001
 21
47.002450000000003
 31
0.0
  0
LINE
  5
1A27
  8
OUTLINE
  6
CONTINUOUS
 62
     3
 10
-18.479176999999989
 20
47.338735
 30
0.0
 11
0.0
 21
47.5
 31
0.0
  0
ARC
  5
1A28
  8
OUTLINE
  6
CONTINUOUS
 62
     3
 10
-18.474820999999991
 20
46.839433
 30
0.0
 40
0.4993210000000003
 50
90.499832999999995
 51
180.0
  0
LINE
  5
1A29
  8
OUTLINE
  6
CONTINUOUS
 62
     3
 10
-18.855532
 20
47.267698999999993
 30
0.0
 11
-18.849039000000001
 21
47.269517999999998
 31
0.0
  0
LINE
  5
1A2A
  8
OUTLINE
  6
CONTINUOUS
 62
     3
 10
-18.883890000000001
 20
47.260064
 30
0.0
 11
-18.580814
 21
47.327373999999999
 31
0.0
  0
LINE
  5
1A2B
  8
OUTLINE
  6
CONTINUOUS
 62
     3
 10
-18.915125
 20
47.251967999999991
 30
0.0
 11
-18.883890000000001
 21
47.260064
 31
0.0
  0
LINE
  5
1A2C
  8
OUTLINE
  6
CONTINUOUS
 62
     3
 10
-18.949259000000001
 20
47.243436000000003
 30
0.0
 11
-18.915125
 21
47.251967999999991
 31
0.0
  0
LINE
  5
1A2D
  8
OUTLINE
  6
CONTINUOUS
 62
     3
 10
-18.986281999999999
 20
47.234496999999983
 30
0.0
 11
-18.949259000000001
 21
47.243436000000003
 31
0.0
  0
LINE
  5
1A2E
  8
OUTLINE
  6
CONTINUOUS
 62
     3
 10
-19.026208999999991
 20
47.225172999999977
 30
0.0
 11
-18.986281999999999
 21
47.234496999999983
 31
0.0
  0
LINE
  5
1A2F
  8
OUTLINE
  6
CONTINUOUS
 62
     3
 10
-19.069039
 20
47.215487999999993
 30
0.0
 11
-19.026208999999991
 21
47.225172999999977
 31
0.0
  0
LINE
  5
1A30
  8
OUTLINE
  6
CONTINUOUS
 62
     3
 10
-19.114775999999981
 20
47.205460999999993
 30
0.0
 11
-19.069039
 21
47.215487999999993
 31
0.0
  0
LINE
  5
1A31
  8
OUTLINE
  6
CONTINUOUS
 62
     3
 10
-19.163412999999998
 20
47.195115000000001
 30
0.0
 11
-19.114775999999981
 21
47.205460999999993
 31
0.0
  0
LINE
  5
1A32
  8
OUTLINE
  6
CONTINUOUS
 62
     3
 10
-19.214943999999999
 20
47.184471999999992
 30
0.0
 11
-19.163412999999998
 21
47.195115000000001
 31
0.0
  0
LINE
  5
1A33
  8
OUTLINE
  6
CONTINUOUS
 62
     3
 10
-19.269337
 20
47.173558999999997
 30
0.0
 11
-19.214943999999999
 21
47.184471999999992
 31
0.0
  0
LINE
  5
1A34
  8
OUTLINE
  6
CONTINUOUS
 62
     3
 10
-19.326603999999961
 20
47.162393000000002
 30
0.0
 11
-19.269337
 21
47.173558999999997
 31
0.0
  0
LINE
  5
1A35
  8
OUTLINE
  6
CONTINUOUS
 62
     3
 10
-19.386731000000001
 20
47.150996999999983
 30
0.0
 11
-19.326603999999961
 21
47.162393000000002
 31
0.0
  0
LINE
  5
1A36
  8
OUTLINE
  6
CONTINUOUS
 62
     3
 10
-19.449743999999981
 20
47.139383000000002
 30
0.0
 11
-19.386731000000001
 21
47.150996999999983
 31
0.0
  0
LINE
  5
1A37
  8
OUTLINE
  6
CONTINUOUS
 62
     3
 10
-19.51566
 20
47.127567999999997
 30
0.0
 11
-19.449743999999981
 21
47.139383000000002
 31
0.0
  0
LINE
  5
1A38
  8
OUTLINE
  6
CONTINUOUS
 62
     3
 10
-19.584495
 20
47.115566999999999
 30
0.0
 11
-19.51566
 21
47.127567999999997
 31
0.0
  0
LINE
  5
1A39
  8
OUTLINE
  6
CONTINUOUS
 62
     3
 10
-19.656254999999991
 20
47.103400000000001
 30
0.0
 11
-19.584495
 21
47.115566999999999
 31
0.0
  0
LINE
  5
1A3A
  8
OUTLINE
  6
CONTINUOUS
 62
     3
 10
-19.730952999999982
 20
47.091085
 30
0.0
 11
-19.656254999999991
 21
47.103400000000001
 31
0.0
  0
LINE
  5
1A3B
  8
OUTLINE
  6
CONTINUOUS
 62
     3
 10
-19.808592999999991
 20
47.078641999999981
 30
0.0
 11
-19.730952999999982
 21
47.091085
 31
0.0
  0
LINE
  5
1A3C
  8
OUTLINE
  6
CONTINUOUS
 62
     3
 10
-19.889185999999992
 20
47.06609199999999
 30
0.0
 11
-19.808592999999991
 21
47.078641999999981
 31
0.0
  0
LINE
  5
1A3D
  8
OUTLINE
  6
CONTINUOUS
 62
     3
 10
-19.972740999999999
 20
47.053452999999998
 30
0.0
 11
-19.889185999999992
 21
47.06609199999999
 31
0.0
  0
LINE
  5
1A3E
  8
OUTLINE
  6
CONTINUOUS
 62
     3
 10
-20.148759999999999
 20
47.027996999999992
 30
0.0
 11
-19.972740999999999
 21
47.053452999999998
 31
0.0
  0
LINE
  5
1A3F
  8
OUTLINE
  6
CONTINUOUS
 62
     3
 10
-20.336659000000001
 20
47.002450000000003
 30
0.0
 11
-20.148759999999999
 21
47.027996999999992
 31
0.0
  0
LINE
  5
1A40
  8
OUTLINE
  6
CONTINUOUS
 62
     3
 10
-20.747845999999999
 20
46.951886000000002
 30
0.0
 11
-20.536380999999999
 21
46.977010999999983
 31
0.0
  0
LINE
  5
1A41
  8
OUTLINE
  6
CONTINUOUS
 62
     3
 10
-20.970925999999992
 20
46.927287999999997
 30
0.0
 11
-20.747845999999999
 21
46.951886000000002
 31
0.0
  0
LINE
  5
1A42
  8
OUTLINE
  6
CONTINUOUS
 62
     3
 10
-21.205401999999999
 20
46.903446999999993
 30
0.0
 11
-20.970925999999992
 21
46.927287999999997
 31
0.0
  0
LINE
  5
1A43
  8
OUTLINE
  6
CONTINUOUS
 62
     3
 10
-21.450997999999998
 20
46.880602000000003
 30
0.0
 11
-21.205401999999999
 21
46.903446999999993
 31
0.0
  0
LINE
  5
1A44
  8
OUTLINE
  6
CONTINUOUS
 62
     3
 10
-21.707360999999999
 20
46.858996999999988
 30
0.0
 11
-21.450997999999998
 21
46.880602000000003
 31
0.0
  0
LINE
  5
1A45
  8
OUTLINE
  6
CONTINUOUS
 62
     3
 10
-21.839445999999992
 20
46.848735999999981
 30
0.0
 11
-21.707360999999999
 21
46.858996999999988
 31
0.0
  0
LINE
  5
1A46
  8
OUTLINE
  6
CONTINUOUS
 62
     3
 10
-21.974053999999999
 20
46.838876999999982
 30
0.0
 11
-21.839445999999992
 21
46.848735999999981
 31
0.0
  0
LINE
  5
1A47
  8
OUTLINE
  6
CONTINUOUS
 62
     3
 10
-22.111122000000002
 20
46.829453000000001
 30
0.0
 11
-21.974053999999999
 21
46.838876999999982
 31
0.0
  0
LINE
  5
1A48
  8
OUTLINE
  6
CONTINUOUS
 62
     3
 10
-22.250578999999991
 20
46.820492999999999
 30
0.0
 11
-22.111122000000002
 21
46.829453000000001
 31
0.0
  0
LINE
  5
1A49
  8
OUTLINE
  6
CONTINUOUS
 62
     3
 10
-22.392348999999999
 20
46.812028999999967
 30
0.0
 11
-22.250578999999991
 21
46.820492999999999
 31
0.0
  0
LINE
  5
1A4A
  8
OUTLINE
  6
CONTINUOUS
 62
     3
 10
-22.536346999999999
 20
46.804088999999983
 30
0.0
 11
-22.392348999999999
 21
46.812028999999967
 31
0.0
  0
LINE
  5
1A4B
  8
OUTLINE
  6
CONTINUOUS
 62
     3
 10
-22.682487999999989
 20
46.796703000000001
 30
0.0
 11
-22.536346999999999
 21
46.804088999999983
 31
0.0
  0
LINE
  5
1A4C
  8
OUTLINE
  6
CONTINUOUS
 62
     3
 10
-35.749156999999997
 20
46.591287000000001
 30
0.0
 11
-23.598825999999999
 21
46.765590000000003
 31
0.0
  0
LINE
  5
1A4D
  8
OUTLINE
  6
CONTINUOUS
 62
     3
 10
-22.830679
 20
46.789901
 30
0.0
 11
-22.682487999999989
 21
46.796703000000001
 31
0.0
  0
LINE
  5
1A4E
  8
OUTLINE
  6
CONTINUOUS
 62
     3
 10
-22.980823999999991
 20
46.783711999999987
 30
0.0
 11
-22.830679
 21
46.789901
 31
0.0
  0
LINE
  5
1A4F
  8
OUTLINE
  6
CONTINUOUS
 62
     3
 10
-23.132822000000001
 20
46.778159999999993
 30
0.0
 11
-22.980823999999991
 21
46.783711999999987
 31
0.0
  0
LINE
  5
1A50
  8
OUTLINE
  6
CONTINUOUS
 62
     3
 10
-23.286563999999991
 20
46.773271999999992
 30
0.0
 11
-23.132822000000001
 21
46.778159999999993
 31
0.0
  0
LINE
  5
1A51
  8
OUTLINE
  6
CONTINUOUS
 62
     3
 10
-23.441941
 20
46.769074000000003
 30
0.0
 11
-23.286563999999991
 21
46.773271999999992
 31
0.0
  0
LINE
  5
1A52
  8
OUTLINE
  6
CONTINUOUS
 62
     3
 10
-23.598825999999999
 20
46.765590000000003
 30
0.0
 11
-23.441941
 21
46.769074000000003
 31
0.0
  0
LINE
  5
1A53
  8
OUTLINE
  6
CONTINUOUS
 62
     3
 10
-35.749287000000002
 20
46.591284999999999
 30
0.0
 11
-35.74901899999999
 21
46.588245999999991
 31
0.0
  0
LINE
  5
1A54
  8
OUTLINE
  6
CONTINUOUS
 62
     3
 10
-35.74901899999999
 20
46.588245999999991
 30
0.0
 11
-35.750371000000001
 21
46.575414999999992
 31
0.0
  0
LINE
  5
1A55
  8
OUTLINE
  6
CONTINUOUS
 62
     3
 10
-35.750371000000001
 20
46.575414999999992
 30
0.0
 11
-35.751984
 21
46.55278599999999
 31
0.0
  0
LINE
  5
1A56
  8
OUTLINE
  6
CONTINUOUS
 62
     3
 10
-35.751984
 20
46.55278599999999
 30
0.0
 11
-35.752071999999991
 21
46.520836000000003
 31
0.0
  0
LINE
  5
1A57
  8
OUTLINE
  6
CONTINUOUS
 62
     3
 10
-35.752071999999991
 20
46.520836000000003
 30
0.0
 11
-35.751733999999999
 21
46.480213999999997
 31
0.0
  0
LINE
  5
1A58
  8
OUTLINE
  6
CONTINUOUS
 62
     3
 10
-35.751733999999999
 20
46.480213999999997
 30
0.0
 11
-35.75133799999999
 21
46.376550000000002
 31
0.0
  0
LINE
  5
1A59
  8
OUTLINE
  6
CONTINUOUS
 62
     3
 10
-35.75133799999999
 20
46.376550000000002
 30
0.0
 11
-35.751387999999992
 21
46.250473999999983
 31
0.0
  0
ARC
  5
1A5A
  8
OUTLINE
  6
CONTINUOUS
 62
     3
 10
0.299593
 20
79.700370999999976
 30
0.0
 40
0.299593
 50
89.500017999999983
 51
179.99798100000001
  0
LINE
  5
1A5B
  8
OUTLINE
  6
CONTINUOUS
 62
     3
 10
0.302207
 20
79.99996299999998
 30
0.0
 11
0.302446
 21
79.992778000000001
 31
0.0
  0
LINE
  5
1A5C
  8
OUTLINE
  6
CONTINUOUS
 62
     3
 39
50.0
 10
-45.737645999999991
 20
23.568038000000001
 30
0.0
 11
-45.837672999999981
 21
23.568038000000001
 31
0.0
  0
LINE
  5
1A5D
  8
OUTLINE
  6
CONTINUOUS
 62
     3
 39
50.0
 10
-37.948400999999997
 20
-23.967410999999991
 30
0.0
 11
-37.948400999999997
 21
-23.499320999999991
 31
0.0
  0
LINE
  5
1A5E
  8
OUTLINE
  6
CONTINUOUS
 62
     3
 39
50.0
 10
-36.550302000000002
 20
-24.580501999999999
 30
0.0
 11
-36.550302000000002
 21
-23.967410999999991
 31
0.0
  0
LINE
  5
1A5F
  8
NOTE
  6
CONTINUOUS
 62
     4
 10
0.0
 20
-17.0
 30
0.0
 11
0.0
 21
23.0
 31
0.0
  0
LINE
  5
1A60
  8
NOTE
  6
CONTINUOUS
 62
     4
 10
20.0
 20
3.0
 30
0.0
 11
-20.0
 21
3.0
 31
0.0
  0
LINE
  5
1A61
  8
SIZE
  6
CONTINUOUS
 62
    30
 10
-81.316625999999999
 20
-23.0
 30
0.0
 11
-267.860727
 21
-23.0
 31
0.0
  0
LINE
  5
1A62
  8
SIZE
  6
CONTINUOUS
 62
    30
 10
-81.317679999999996
 20
23.0
 30
0.0
 11
-267.860727
 21
23.0
 31
0.0
  0
LINE
  5
1A63
  8
SIZE
  6
CONTINUOUS
 62
    30
 10
-247.86072699999991
 20
-35.0
 30
0.0
 11
-247.86072699999991
 21
-47.0
 31
0.0
  0
LINE
  5
1A64
  8
SIZE
  6
CONTINUOUS
 62
    30
 10
-247.86072699999991
 20
35.0
 30
0.0
 11
-247.86072699999991
 21
268.04522500000002
 31
0.0
  0
LINE
  5
1A65
  8
SIZE
  6
CONTINUOUS
 62
    30
 10
-247.86072699999991
 20
-23.0
 30
0.0
 11
-247.86072699999991
 21
23.0
 31
0.0
  0
CIRCLE
  5
1A66
  8
SIZE
  6
CONTINUOUS
 62
    30
 10
-247.86072699999991
 20
-23.0
 30
0.0
 40
6.0
  0
LINE
  5
1A67
  8
SIZE
  6
CONTINUOUS
 62
    30
 10
-247.86072699999991
 20
-23.0
 30
0.0
 11
-247.86072699999991
 21
-35.0
 31
0.0
  0
CIRCLE
  5
1A68
  8
SIZE
  6
CONTINUOUS
 62
    30
 10
-247.86072699999991
 20
23.0
 30
0.0
 40
6.0
  0
LINE
  5
1A69
  8
SIZE
  6
CONTINUOUS
 62
    30
 10
-247.86072699999991
 20
23.0
 30
0.0
 11
-247.86072699999991
 21
35.0
 31
0.0
  0
TEXT
  5
1A6A
  8
SIZE
  6
CONTINUOUS
 62
    30
 10
-272.86072699999988
 20
86.153796142856947
 30
0.0
 40
64.0
  1
φ46
 50
90.0
 41
0.9
 72
     1
 11
-272.86072699999988
 21
171.73093899999981
 31
0.0
  0
LINE
  5
1A6B
  8
SIZE
  6
CONTINUOUS
 62
    30
 10
-20.0
 20
-47.5
 30
0.0
 11
-391.59536800000001
 21
-47.5
 31
0.0
  0
LINE
  5
1A6C
  8
SIZE
  6
CONTINUOUS
 62
    30
 10
-20.0
 20
47.5
 30
0.0
 11
-391.59536800000001
 21
47.5
 31
0.0
  0
LINE
  5
1A6D
  8
SIZE
  6
CONTINUOUS
 62
    30
 10
-371.59536800000001
 20
-35.5
 30
0.0
 11
-371.59536800000001
 21
35.5
 31
0.0
  0
LINE
  5
1A6E
  8
SIZE
  6
CONTINUOUS
 62
    30
 10
-371.59536800000001
 20
47.5
 30
0.0
 11
-371.59536800000001
 21
270.68240600000001
 31
0.0
  0
CIRCLE
  5
1A6F
  8
SIZE
  6
CONTINUOUS
 62
    30
 10
-371.59536800000001
 20
-47.5
 30
0.0
 40
6.0
  0
LINE
  5
1A70
  8
SIZE
  6
CONTINUOUS
 62
    30
 10
-371.59536800000001
 20
-47.5
 30
0.0
 11
-371.59536800000001
 21
-35.5
 31
0.0
  0
CIRCLE
  5
1A71
  8
SIZE
  6
CONTINUOUS
 62
    30
 10
-371.59536800000001
 20
47.5
 30
0.0
 40
6.0
  0
LINE
  5
1A72
  8
SIZE
  6
CONTINUOUS
 62
    30
 10
-371.59536800000001
 20
47.5
 30
0.0
 11
-371.59536800000001
 21
35.5
 31
0.0
  0
TEXT
  5
1A73
  8
SIZE
  6
CONTINUOUS
 62
    30
 10
-396.59536800000001
 20
86.048120571428555
 30
0.0
 40
64.0
  1
φ95
 50
90.0
 41
0.9
 72
     1
 11
-396.59536800000001
 21
172.996692
 31
0.0
  0
LINE
  5
1A74
  8
SIZE
  6
CONTINUOUS
 62
    30
 10
-19.697793000000001
 20
79.99996299999998
 30
0.0
 11
-531.53336200000001
 21
79.99996299999998
 31
0.0
  0
LINE
  5
1A75
  8
SIZE
  6
CONTINUOUS
 62
    30
 10
-110.0
 20
0.0
 30
0.0
 11
-531.53336200000001
 21
0.0
 31
0.0
  0
LINE
  5
1A76
  8
SIZE
  6
CONTINUOUS
 62
    30
 10
-511.53336200000001
 20
12.0
 30
0.0
 11
-511.53336200000001
 21
67.999962999999994
 31
0.0
  0
LINE
  5
1A77
  8
SIZE
  6
CONTINUOUS
 62
    30
 10
-511.53336200000001
 20
79.99996299999998
 30
0.0
 11
-511.53336200000001
 21
235.25710599999991
 31
0.0
  0
CIRCLE
  5
1A78
  8
SIZE
  6
CONTINUOUS
 62
    30
 10
-511.53336200000001
 20
0.0
 30
0.0
 40
6.0
  0
LINE
  5
1A79
  8
SIZE
  6
CONTINUOUS
 62
    30
 10
-511.53336200000001
 20
0.0
 30
0.0
 11
-511.53336200000001
 21
12.0
 31
0.0
  0
CIRCLE
  5
1A7A
  8
SIZE
  6
CONTINUOUS
 62
    30
 10
-511.53336200000001
 20
79.99996299999998
 30
0.0
 40
6.0
  0
LINE
  5
1A7B
  8
SIZE
  6
CONTINUOUS
 62
    30
 10
-511.53336200000001
 20
79.99996299999998
 30
0.0
 11
-511.53336200000001
 21
67.999962999999994
 31
0.0
  0
TEXT
  5
1A7C
  8
SIZE
  6
CONTINUOUS
 62
    30
 10
-536.53336200000001
 20
116.9999625714285
 30
0.0
 40
64.0
  1
80
 50
90.0
 41
0.9
 72
     1
 11
-536.53336200000001
 21
163.628534
 31
0.0
  0
LINE
  5
1A7D
  8
SIZE
  6
CONTINUOUS
 62
    30
 10
49.999991999999999
 20
-30.000021
 30
0.0
 11
49.999991999999999
 21
-417.03967699999993
 31
0.0
  0
LINE
  5
1A7E
  8
SIZE
  6
CONTINUOUS
 62
    30
 10
0.0
 20
-145.20890099999991
 30
0.0
 11
0.0
 21
-417.03967699999993
 31
0.0
  0
LINE
  5
1A7F
  8
SIZE
  6
CONTINUOUS
 62
    30
 10
-12.0
 20
-397.03967699999993
 30
0.0
 11
-24.0
 21
-397.03967699999993
 31
0.0
  0
LINE
  5
1A80
  8
SIZE
  6
CONTINUOUS
 62
    30
 10
61.999991999999999
 20
-397.03967699999993
 30
0.0
 11
217.25713500000001
 21
-397.03967699999993
 31
0.0
  0
LINE
  5
1A81
  8
SIZE
  6
CONTINUOUS
 62
    30
 10
0.0
 20
-397.03967699999993
 30
0.0
 11
49.999991999999999
 21
-397.03967699999993
 31
0.0
  0
CIRCLE
  5
1A82
  8
SIZE
  6
CONTINUOUS
 62
    30
 10
0.0
 20
-397.03967699999993
 30
0.0
 40
6.0
  0
LINE
  5
1A83
  8
SIZE
  6
CONTINUOUS
 62
    30
 10
0.0
 20
-397.03967699999993
 30
0.0
 11
-12.0
 21
-397.03967699999993
 31
0.0
  0
CIRCLE
  5
1A84
  8
SIZE
  6
CONTINUOUS
 62
    30
 10
49.999991999999999
 20
-397.03967699999993
 30
0.0
 40
6.0
  0
LINE
  5
1A85
  8
SIZE
  6
CONTINUOUS
 62
    30
 10
49.999991999999999
 20
-397.03967699999993
 30
0.0
 11
61.999991999999999
 21
-397.03967699999993
 31
0.0
  0
TEXT
  5
1A86
  8
SIZE
  6
CONTINUOUS
 62
    30
 10
98.999991571428495
 20
-372.03967699999993
 30
0.0
 40
64.0
  1
50
 41
0.9
 72
     1
 11
145.6285629999999
 21
-372.03967699999993
 31
0.0
  0
LINE
  5
1A87
  8
SIZE
  6
CONTINUOUS
 62
    30
 10
0.0
 20
125.519175
 30
0.0
 11
0.0
 21
472.63375300000001
 31
0.0
  0
LINE
  5
1A88
  8
SIZE
  6
CONTINUOUS
 62
    30
 10
95.000004000000004
 20
90.056495999999981
 30
0.0
 11
95.000004000000004
 21
472.63375300000001
 31
0.0
  0
LINE
  5
1A89
  8
SIZE
  6
CONTINUOUS
 62
    30
 10
12.0
 20
452.63375300000001
 30
0.0
 11
83.000004000000004
 21
452.63375300000001
 31
0.0
  0
LINE
  5
1A8A
  8
SIZE
  6
CONTINUOUS
 62
    30
 10
95.000004000000004
 20
452.63375300000001
 30
0.0
 11
324.31428999999991
 21
452.63375300000001
 31
0.0
  0
CIRCLE
  5
1A8B
  8
SIZE
  6
CONTINUOUS
 62
    30
 10
0.0
 20
452.63375300000001
 30
0.0
 40
6.0
  0
LINE
  5
1A8C
  8
SIZE
  6
CONTINUOUS
 62
    30
 10
0.0
 20
452.63375300000001
 30
0.0
 11
12.0
 21
452.63375300000001
 31
0.0
  0
CIRCLE
  5
1A8D
  8
SIZE
  6
CONTINUOUS
 62
    30
 10
95.000004000000004
 20
452.63375300000001
 30
0.0
 40
6.0
  0
LINE
  5
1A8E
  8
SIZE
  6
CONTINUOUS
 62
    30
 10
95.000004000000004
 20
452.63375300000001
 30
0.0
 11
83.000004000000004
 21
452.63375300000001
 31
0.0
  0
TEXT
  5
1A8F
  8
SIZE
  6
CONTINUOUS
 62
    30
 10
132.00000414285711
 20
494.39565700000003
 30
0.0
 40
64.0
  1
(95)
 41
0.9
 72
     1
 11
215.65714700000001
 21
494.39565700000003
 31
0.0
  0
TEXT
  5
1A90
  8
NOTE
  6
CONTINUOUS
 62
     4
 10
163.80001899999991
 20
354.06051400000001
 30
0.0
 40
64.0
  1
（シャッター開時）
 41
0.9
  0
LINE
  5
1A91
  8
SIZE
  6
CONTINUOUS
 62
    30
 10
-45.499999999999993
 20
19.798843999999981
 30
0.0
 11
-45.499999999999993
 21
-285.32331599999992
 31
0.0
  0
LINE
  5
1A92
  8
SIZE
  6
CONTINUOUS
 62
    30
 10
0.0
 20
-145.20890099999991
 30
0.0
 11
0.0
 21
-285.32331599999992
 31
0.0
  0
LINE
  5
1A93
  8
SIZE
  6
CONTINUOUS
 62
    30
 10
12.0
 20
-265.32331599999992
 30
0.0
 11
24.0
 21
-265.32331599999992
 31
0.0
  0
LINE
  5
1A94
  8
SIZE
  6
CONTINUOUS
 62
    30
 10
-57.5
 20
-265.32331599999992
 30
0.0
 11
-295.04285699999991
 21
-265.32331599999992
 31
0.0
  0
LINE
  5
1A95
  8
SIZE
  6
CONTINUOUS
 62
    30
 10
0.0
 20
-265.32331599999992
 30
0.0
 11
-45.499999999999993
 21
-265.32331599999992
 31
0.0
  0
CIRCLE
  5
1A96
  8
SIZE
  6
CONTINUOUS
 62
    30
 10
0.0
 20
-265.32331599999992
 30
0.0
 40
6.0
  0
LINE
  5
1A97
  8
SIZE
  6
CONTINUOUS
 62
    30
 10
0.0
 20
-265.32331599999992
 30
0.0
 11
12.0
 21
-265.32331599999992
 31
0.0
  0
CIRCLE
  5
1A98
  8
SIZE
  6
CONTINUOUS
 62
    30
 10
-45.499999999999993
 20
-265.32331599999992
 30
0.0
 40
6.0
  0
LINE
  5
1A99
  8
SIZE
  6
CONTINUOUS
 62
    30
 10
-45.499999999999993
 20
-265.32331599999992
 30
0.0
 11
-57.5
 21
-265.32331599999992
 31
0.0
  0
TEXT
  5
1A9A
  8
SIZE
  6
CONTINUOUS
 62
    30
 10
-270.04285757142861
 20
-240.32331600000001
 30
0.0
 40
64.0
  1
45.5
 41
0.9
 72
     1
 11
-182.27142900000001
 21
-240.32331600000001
 31
0.0
  0
LINE
  5
1A9B
  8
SIZE
  6
CONTINUOUS
 62
    30
 10
0.0
 20
-145.20890099999991
 30
0.0
 11
0.0
 21
-417.03967699999993
 31
0.0
  0
LINE
  5
1A9C
  8
SIZE
  6
CONTINUOUS
 62
    30
 10
-64.0
 20
-32.489738200857573
 30
0.0
 11
-64.0
 21
-417.03967699999993
 31
0.0
  0
LINE
  5
1A9D
  8
SIZE
  6
CONTINUOUS
 62
    30
 10
12.0
 20
-397.03967699999993
 30
0.0
 11
24.0
 21
-397.03967699999993
 31
0.0
  0
LINE
  5
1A9E
  8
SIZE
  6
CONTINUOUS
 62
    30
 10
-76.0
 20
-397.03967699999993
 30
0.0
 11
-246.95881199999999
 21
-397.03967699999993
 31
0.0
  0
LINE
  5
1A9F
  8
SIZE
  6
CONTINUOUS
 62
    30
 10
0.0
 20
-397.03967699999993
 30
0.0
 11
-64.0
 21
-397.03967699999993
 31
0.0
  0
CIRCLE
  5
1AA0
  8
SIZE
  6
CONTINUOUS
 62
    30
 10
0.0
 20
-397.03967699999993
 30
0.0
 40
6.0
  0
LINE
  5
1AA1
  8
SIZE
  6
CONTINUOUS
 62
    30
 10
0.0
 20
-397.03967699999993
 30
0.0
 11
12.0
 21
-397.03967699999993
 31
0.0
  0
CIRCLE
  5
1AA2
  8
SIZE
  6
CONTINUOUS
 62
    30
 10
-64.0
 20
-397.03967699999993
 30
0.0
 40
6.0
  0
LINE
  5
1AA3
  8
SIZE
  6
CONTINUOUS
 62
    30
 10
-64.0
 20
-397.03967699999993
 30
0.0
 11
-76.0
 21
-397.03967699999993
 31
0.0
  0
TEXT
  5
1AA4
  8
SIZE
  6
CONTINUOUS
 62
    30
 10
-221.95881199999999
 20
-372.03967699999993
 30
0.0
 40
64.0
  1
64
 41
0.9
 72
     1
 11
-173.95881199999999
 21
-372.03967699999993
 31
0.0
  0
LINE
  5
1AA5
  8
NOTE
  6
CONTINUOUS
 62
     4
 39
50.0
 10
-206.2897669999999
 20
317.52058599999992
 30
0.0
 11
-591.29987500000004
 21
317.52058599999992
 31
0.0
  0
TEXT
  5
1AA6
  8
NOTE
  6
CONTINUOUS
 62
     4
 10
-246.1123879999999
 20
502.70396899999992
 30
0.0
 40
64.0
  1
EL
 41
0.9
  0
LINE
  5
1AA7
  8
NOTE
  6
CONTINUOUS
 62
     4
 10
12.0273
 20
71.310397999999978
 30
0.0
 11
15.0
 21
31.421012999999999
 31
0.0
  0
LINE
  5
1AA8
  8
NOTE
  6
CONTINUOUS
 62
     4
 10
15.0
 20
31.421012999999999
 30
0.0
 11
-7.5191270000000001
 21
64.479883999999984
 31
0.0
  0
LINE
  5
1AA9
  8
NOTE
  6
CONTINUOUS
 62
     4
 39
50.0
 10
15.0
 20
31.421012999999999
 30
0.0
 11
-136.35042999999999
 21
476.08848099999989
 31
0.0
  0
LINE
  5
1AAA
  8
NOTE
  6
CONTINUOUS
 62
     4
 10
15.0
 20
11.42101299999999
 30
0.0
 11
15.0
 21
51.421013000000002
 31
0.0
  0
LINE
  5
1AAB
  8
NOTE
  6
CONTINUOUS
 62
     4
 10
35.0
 20
31.421012999999999
 30
0.0
 11
-5.0
 21
31.421012999999999
 31
0.0
  0
LINE
  5
1AAC
  8
NOTE
  6
CONTINUOUS
 62
     4
 39
50.0
 10
-136.35042999999999
 20
476.08848099999989
 30
0.0
 11
-277.20927199999983
 21
476.08848099999989
 31
0.0
  0
LINE
  5
1AAD
  8
DETAIL
  6
DASHED
 62
     5
 10
15.379089
 20
-92.374388999999994
 30
0.0
 11
33.853968000000002
 21
-92.374388999999994
 31
0.0
  0
LINE
  5
1AAE
  8
DETAIL
  6
DASHED
 62
     5
 10
15.379089
 20
-86.382536000000002
 30
0.0
 11
33.853968000000002
 21
-86.382536000000002
 31
0.0
  0
LINE
  5
1AAF
  8
DETAIL
  6
DASHED
 62
     5
 10
33.853968000000002
 20
-92.374388999999994
 30
0.0
 11
33.853968000000002
 21
-86.382536000000002
 31
0.0
  0
LINE
  5
1AB0
  8
DETAIL
  6
DASHED
 62
     5
 10
15.379089
 20
-92.374388999999994
 30
0.0
 11
15.379089
 21
-86.382536000000002
 31
0.0
  0
ENDSEC
  0
EOF
