  0
SECTION
  2
HEADER
  9
$ACADVER
  1
AC1009
  9
$DWGCODEPAGE
  3
dos932
  9
$INSBASE
 10
0.0
 20
0.0
 30
0.0
  9
$EXTMIN
 10
-718.29984927119403
 20
-338.6993289910024
 30
-0.0015258207003583
  9
$EXTMAX
 10
852.44294349388474
 20
610.42786449010964
 30
0.0000000349246037
  9
$LIMMIN
 10
-2970.0
 20
-2100.0
  9
$LIMMAX
 10
2970.0
 20
2100.0
  9
$ORTHOMODE
 70
     1
  9
$REGENMODE
 70
     1
  9
$FILLMODE
 70
     1
  9
$QTEXTMODE
 70
     0
  9
$MIRRTEXT
 70
     0
  9
$LTSCALE
 40
20.0
  9
$ATTMODE
 70
     1
  9
$TEXTSIZE
 40
64.0
  9
$TRACEWID
 40
0.05
  9
$TEXTSTYLE
  7
STANDARD
  9
$CLAYER
  8
SIZE
  9
$CELTYPE
  6
CONTINUOUS
  9
$CECOLOR
 62
     7
  9
$DIMSCALE
 40
1.0
  9
$DIMASZ
 40
12.0
  9
$DIMEXO
 40
20.0
  9
$DIMDLI
 40
200.0
  9
$DIMRND
 40
0.0
  9
$DIMDLE
 40
0.0
  9
$DIMEXE
 40
20.0
  9
$DIMTP
 40
0.0
  9
$DIMTM
 40
0.0
  9
$DIMTXT
 40
64.0
  9
$DIMCEN
 40
0.09
  9
$DIMTSZ
 40
0.0
  9
$DIMTOL
 70
     0
  9
$DIMLIM
 70
     0
  9
$DIMTIH
 70
     0
  9
$DIMTOH
 70
     0
  9
$DIMSE1
 70
     0
  9
$DIMSE2
 70
     0
  9
$DIMTAD
 70
     1
  9
$DIMZIN
 70
     8
  9
$DIMBLK
  1

  9
$DIMASO
 70
     1
  9
$DIMSHO
 70
     0
  9
$DIMPOST
  1

  9
$DIMAPOST
  1

  9
$DIMALT
 70
     0
  9
$DIMALTD
 70
     2
  9
$DIMALTF
 40
25.399999999999999
  9
$DIMLFAC
 40
1.0
  9
$DIMTOFL
 70
     1
  9
$DIMTVP
 40
0.0
  9
$DIMTIX
 70
     1
  9
$DIMSOXD
 70
     0
  9
$DIMSAH
 70
     0
  9
$DIMBLK1
  1

  9
$DIMBLK2
  1

  9
$DIMSTYLE
  2
STANDARD
  9
$DIMCLRD
 70
     7
  9
$DIMCLRE
 70
     7
  9
$DIMCLRT
 70
     7
  9
$DIMTFAC
 40
1.0
  9
$DIMGAP
 40
25.0
  9
$LUNITS
 70
     2
  9
$LUPREC
 70
     4
  9
$SKETCHINC
 40
0.1
  9
$FILLETRAD
 40
3.0
  9
$AUNITS
 70
     1
  9
$AUPREC
 70
     3
  9
$MENU
  1
ACAD
  9
$ELEVATION
 40
0.0
  9
$PELEVATION
 40
0.0
  9
$THICKNESS
 40
0.0
  9
$LIMCHECK
 70
     0
  9
$CHAMFERA
 40
0.0
  9
$CHAMFERB
 40
0.0
  9
$SKPOLY
 70
     0
  9
$TDCREATE
 40
2453019.62301037
  9
$TDUPDATE
 40
2459025.576186458
  9
$TDINDWG
 40
1.7153863542
  9
$TDUSRTIMER
 40
1.7153863542
  9
$USRTIMER
 70
     1
  9
$ANGBASE
 50
0.0
  9
$ANGDIR
 70
     0
  9
$PDMODE
 70
     3
  9
$PDSIZE
 40
-2.0
  9
$PLINEWID
 40
0.0
  9
$SPLFRAME
 70
     0
  9
$SPLINETYPE
 70
     6
  9
$SPLINESEGS
 70
     8
  9
$SURFTAB1
 70
     6
  9
$SURFTAB2
 70
     6
  9
$SURFTYPE
 70
     6
  9
$SURFU
 70
     6
  9
$SURFV
 70
     6
  9
$UCSNAME
  2

  9
$UCSORG
 10
0.0
 20
0.0
 30
0.0
  9
$UCSXDIR
 10
1.0
 20
0.0
 30
0.0
  9
$UCSYDIR
 10
0.0
 20
1.0
 30
0.0
  9
$PUCSNAME
  2

  9
$PUCSORG
 10
0.0
 20
0.0
 30
0.0
  9
$PUCSXDIR
 10
1.0
 20
0.0
 30
0.0
  9
$PUCSYDIR
 10
0.0
 20
1.0
 30
0.0
  9
$USERI1
 70
     0
  9
$USERI2
 70
     0
  9
$USERI3
 70
     0
  9
$USERI4
 70
     0
  9
$USERI5
 70
     0
  9
$USERR1
 40
20.0
  9
$USERR2
 40
0.0
  9
$USERR3
 40
0.0
  9
$USERR4
 40
0.0
  9
$USERR5
 40
0.0
  9
$WORLDVIEW
 70
     1
  9
$SHADEDGE
 70
     3
  9
$SHADEDIF
 70
    70
  9
$TILEMODE
 70
     1
  9
$MAXACTVP
 70
    48
  9
$PINSBASE
 10
0.0
 20
0.0
 30
0.0
  9
$PLIMCHECK
 70
     0
  9
$PEXTMIN
 10
-100000000000000000000.0
 20
-100000000000000000000.0
 30
-100000000000000000000.0
  9
$PEXTMAX
 10
100000000000000000000.0
 20
100000000000000000000.0
 30
100000000000000000000.0
  9
$PLIMMIN
 10
0.0
 20
0.0
  9
$PLIMMAX
 10
12.0
 20
9.0
  9
$UNITMODE
 70
     0
  9
$VISRETAIN
 70
     0
  9
$PLINEGEN
 70
     0
  9
$PSLTSCALE
 70
     0
  9
$TREEDEPTH
 70
  3020
  9
$ATTDIA
 70
     0
  9
$ATTREQ
 70
     1
  9
$BLIPMODE
 70
     1
  9
$COORDS
 70
     1
  9
$DRAGMODE
 70
     2
  9
$OSMODE
 70
     0
  9
$HANDLING
 70
     0
  9
$HANDSEED
  5
11036
  0
ENDSEC
  0
SECTION
  2
TABLES
  0
TABLE
  2
LTYPE
 70
     2
  0
LTYPE
  2
CONTINUOUS
 70
     0
  3
実線
 72
    65
 73
     0
 40
0.0
  0
LTYPE
  2
DASHDOT
 70
     0
  3
____ _ ____ _ ____ _ ____ _ ____ _ ____ _ ____
 72
    65
 73
     4
 40
5.5
 49
4.0
 49
-0.6
 49
0.3
 49
-0.6
  0
ENDTAB
  0
TABLE
  2
LAYER
 70
    12
  0
LAYER
  2
0
 70
     0
 62
     7
  6
CONTINUOUS
  0
LAYER
  2
BASIS
 70
     0
 62
     6
  6
DASHDOT
  0
LAYER
  2
OUTLINE
 70
     0
 62
     3
  6
CONTINUOUS
  0
LAYER
  2
DETAIL
 70
     0
 62
     5
  6
CONTINUOUS
  0
LAYER
  2
SIZE
 70
     0
 62
    30
  6
CONTINUOUS
  0
LAYER
  2
ARRANGE
 70
     0
 62
     1
  6
CONTINUOUS
  0
LAYER
  2
DEFPOINTS
 70
     0
 62
     7
  6
CONTINUOUS
  0
LAYER
  2
ETC
 70
     0
 62
    61
  6
CONTINUOUS
  0
LAYER
  2
FIX
 70
     0
 62
    11
  6
CONTINUOUS
  0
LAYER
  2
NOTE
 70
     0
 62
     4
  6
CONTINUOUS
  0
LAYER
  2
SERVICESPACE
 70
    64
 62
     2
  6
DASHDOT
  0
LAYER
  2
SYMBOLLINE
 70
    64
 62
    15
  6
CONTINUOUS
  0
ENDTAB
  0
TABLE
  2
STYLE
 70
     1
  0
STYLE
  2
STANDARD
 70
     0
 40
64.0
 41
0.9
 50
0.0
 71
     0
 42
64.0
  3
SIMPLEX.shx
  4
BIGFONT.shx
  0
ENDTAB
  0
TABLE
  2
APPID
 70
    19
  0
APPID
  2
ACAD
 70
     0
  0
APPID
  2
AUTOCAD_POSTSCRIPT_FIGURE
 70
     0
  0
APPID
  2
ACAD_EXEMPT_FROM_CAD_STANDARDS
 70
     0
  0
APPID
  2
ACAD_PSEXT
 70
     0
  0
APPID
  2
ACAUTHENVIRON
 70
     0
  0
APPID
  2
GENIUS_GENOENT_13
 70
     0
  0
APPID
  2
GENIUS_GENCFG_13
 70
     0
  0
APPID
  2
GENIUS_GENCFG0_13
 70
     0
  0
APPID
  2
GENIUS_GENCFG1_13
 70
     0
  0
APPID
  2
GENIUS_GENCFG2_13
 70
     0
  0
APPID
  2
GENIUS_GENCFG3_13
 70
     0
  0
APPID
  2
GENIUS_GENCFG4_13
 70
     0
  0
APPID
  2
GENIUS_GEVCFG0_13
 70
     0
  0
APPID
  2
CONTENTBLOCKICON
 70
     0
  0
APPID
  2
CONTENTBLOCKDESCRIPTION
 70
     0
  0
APPID
  2
ACAD_NAV_VCDISPLAY
 70
     0
  0
APPID
  2
ACAD_MLEADERVER
 70
     0
  0
APPID
  2
ACDBDYNAMICBLOCKTRUENAME
 70
     0
  0
APPID
  2
ACDBDYNAMICBLOCKGUID
 70
     0
  0
ENDTAB
  0
TABLE
  2
DIMSTYLE
 70
     1
  0
DIMSTYLE
  2
STANDARD
 70
     0
  3

  4

  5
_ORIGIN
  6

  7

 40
1.0
 41
12.0
 42
20.0
 43
200.0
 44
20.0
 45
0.0
 46
0.0
 47
0.0
 48
0.0
140
64.0
141
0.09
142
0.0
143
25.399999999999999
144
1.0
145
0.0
146
1.0
147
25.0
 71
     0
 72
     0
 73
     0
 74
     0
 75
     0
 76
     0
 77
     1
 78
     8
170
     0
171
     2
172
     1
173
     0
174
     1
175
     0
176
     7
177
     7
178
     7
  0
ENDTAB
  0
TABLE
  2
VIEW
 70
     1
  0
VIEW
  2
ALL
 70
     0
 40
4282.6198079999986
 10
0.0
 20
41.309904000000003
 41
5940.0
 11
0.0
 21
0.0
 31
1.0
 12
0.0
 22
0.0
 32
0.0
 42
50.0
 43
0.0
 44
0.0
 50
0.0
 71
     0
  0
ENDTAB
  0
TABLE
  2
UCS
 70
     0
  0
ENDTAB
  0
TABLE
  2
VPORT
 70
     1
  0
VPORT
  2
*ACTIVE
 70
     0
 10
0.0
 20
0.0
 11
1.0
 21
1.0
 12
67.071547111345396
 22
135.86426774955359
 13
0.0
 23
0.0
 14
1.0
 24
1.0
 15
0.0
 25
0.0
 16
0.0
 26
0.0
 36
1.0
 17
0.0
 27
0.0
 37
0.0
 40
955.41974945999232
 41
1.747787610619469
 42
50.0
 43
0.0
 44
0.0
 50
0.0
 51
0.0
 71
     0
 72
  1000
 73
     1
 74
     3
 75
     0
 76
     0
 77
     0
 78
     0
  0
ENDTAB
  0
ENDSEC
  0
SECTION
  2
BLOCKS
  0
BLOCK
  8
0
  2
_ORIGIN
 70
     0
 10
0.0
 20
0.0
 30
0.0
  3
_ORIGIN
  1
_ORIGIN
  0
CIRCLE
  8
0
  6
CONTINUOUS
 62
     7
 10
0.0
 20
0.0
 30
0.0
 40
0.5
  0
LINE
  8
0
  6
CONTINUOUS
 62
     7
 10
0.0
 20
0.0
 30
0.0
 11
-1.0
 21
0.0
 31
0.0
  0
ENDBLK
  8
0
  0
ENDSEC
  0
SECTION
  2
ENTITIES
  0
TEXT
  8
ETC
  6
CONTINUOUS
 62
    61
 10
540.23295099999996
 20
426.104331
 30
0.0
 40
40.0
  1
V-08PF8_6
 41
0.9
  0
TEXT
  8
ETC
  6
CONTINUOUS
 62
    61
 10
536.04695700000002
 20
365.408052
 30
0.0
 40
40.0
  1
換気扇
 41
0.9
  0
TEXT
  8
ETC
  6
CONTINUOUS
 62
    61
 10
586.65445999999997
 20
283.53794199999987
 30
0.0
 40
40.0
  1
V-08PF8
 41
0.9
  0
CIRCLE
  8
ARRANGE
  6
CONTINUOUS
 62
     1
 10
0.0
 20
0.0
 30
0.0
 40
40.0
  0
POINT
  8
ARRANGE
  6
CONTINUOUS
 62
     1
 10
0.0
 20
0.0
 30
0.0
  0
LINE
  8
BASIS
  6
DASHDOT
 62
     6
 10
0.0
 20
92.769592999999986
 30
0.0
 11
0.0
 21
-53.155797999999997
 31
0.0
  0
LINE
  8
OUTLINE
  6
CONTINUOUS
 62
     3
 10
-51.448926999999912
 20
32.369813000000022
 30
0.0
 11
-51.73141499999997
 21
0.0
 31
0.0
  0
LINE
  8
OUTLINE
  6
CONTINUOUS
 62
     3
 10
47.357712999999883
 20
44.804361999999969
 30
0.0
 11
47.748714999999947
 21
0.0
 31
0.0
  0
LINE
  8
OUTLINE
  6
CONTINUOUS
 62
     3
 10
-79.491469999999936
 20
0.0
 30
0.0
 11
79.491469999999936
 21
0.0
 31
0.0
  0
LINE
  8
OUTLINE
  6
CONTINUOUS
 62
     3
 10
79.991395000000011
 20
-0.5087280000000192
 30
0.0
 11
79.520450748978874
 21
-27.489042743796741
 31
0.0
  0
ARC
  8
OUTLINE
  6
CONTINUOUS
 62
     3
 10
79.491469999999936
 20
-0.5
 30
0.0
 40
0.5
 50
359.00000000000148
 51
90.0
  0
LINE
  8
OUTLINE
  6
CONTINUOUS
 62
     3
 10
79.989800000000059
 20
-0.6000000000000227
 30
0.0
 11
80.0
 21
-0.6000000000000227
 31
0.0
  0
LINE
  8
OUTLINE
  6
CONTINUOUS
 62
     3
 10
-79.520450748978874
 20
-27.489042743796741
 30
0.0
 11
-79.991395000000011
 21
-0.5087280000000192
 31
0.0
  0
ARC
  8
OUTLINE
  6
CONTINUOUS
 62
     3
 10
-79.491469999999936
 20
-0.5
 30
0.0
 40
0.5
 50
90.0
 51
180.99999999999849
  0
LINE
  8
OUTLINE
  6
CONTINUOUS
 62
     3
 10
22.900000000000091
 20
52.0
 30
0.0
 11
80.000273000000107
 21
52.0
 31
0.0
  0
LINE
  8
OUTLINE
  6
CONTINUOUS
 62
     3
 10
80.000273000000107
 20
52.0
 30
0.0
 11
79.520450965477949
 21
79.489042689671919
 31
0.0
  0
ARC
  8
OUTLINE
  6
CONTINUOUS
 62
     3
 10
46.857733000000053
 20
44.800000000000011
 30
0.0
 40
0.5
 50
0.500000000001317
 51
90.0
  0
ARC
  8
OUTLINE
  6
CONTINUOUS
 62
     3
 10
-28.393800000000059
 20
52.189090000000022
 30
0.0
 40
1.8890899999999999
 50
270.0
 51
0.7359749999987952
  0
LINE
  8
OUTLINE
  6
CONTINUOUS
 62
     3
 10
46.857733000000053
 20
45.300000000000011
 30
0.0
 11
22.900000000000091
 21
45.300000000000011
 31
0.0
  0
LINE
  8
OUTLINE
  6
CONTINUOUS
 62
     3
 10
-79.491469999999936
 20
52.0
 30
0.0
 11
-25.976998000000091
 21
52.0
 31
0.0
  0
LINE
  8
OUTLINE
  6
CONTINUOUS
 62
     3
 10
-25.976998000000091
 20
52.0
 30
0.0
 11
22.900000000000091
 21
52.0
 31
0.0
  0
LINE
  8
OUTLINE
  6
CONTINUOUS
 62
     3
 10
22.900000000000091
 20
45.300000000000011
 30
0.0
 11
22.900000000000091
 21
52.0
 31
0.0
  0
ARC
  8
OUTLINE
  6
CONTINUOUS
 62
     3
 10
-39.059756999999991
 20
42.300000000000011
 30
0.0
 40
8.0
 50
90.0
 51
157.9756869999959
  0
LINE
  8
OUTLINE
  6
CONTINUOUS
 62
     3
 10
-28.393800000000059
 20
50.300000000000011
 30
0.0
 11
-39.059756999999991
 21
50.300000000000011
 31
0.0
  0
LINE
  8
OUTLINE
  6
CONTINUOUS
 62
     3
 10
-46.989125000000058
 20
44.815382
 30
0.0
 11
-47.012445000000071
 21
44.02383500000002
 31
0.0
  0
LINE
  8
OUTLINE
  6
CONTINUOUS
 62
     3
 10
-47.012445000000071
 20
44.02383500000002
 30
0.0
 11
-48.824747000000123
 21
40.123027999999977
 31
0.0
  0
ARC
  8
OUTLINE
  6
CONTINUOUS
 62
     3
 10
-43.449231999999938
 20
32.300000000000011
 30
0.0
 40
8.0
 50
156.30104700000419
 51
179.49999999999869
  0
LINE
  8
OUTLINE
  6
CONTINUOUS
 62
     3
 10
-50.774593000000102
 20
35.515446999999988
 30
0.0
 11
-48.871924999999919
 21
39.85006199999998
 31
0.0
  0
LINE
  8
OUTLINE
  6
CONTINUOUS
 62
     3
 10
-48.853160000000123
 20
40.045790000000011
 30
0.0
 11
-48.868472999999987
 21
39.965359999999983
 31
0.0
  0
LINE
  8
OUTLINE
  6
CONTINUOUS
 62
     3
 10
-48.868472999999987
 20
39.965359999999983
 30
0.0
 11
-48.871266999999989
 21
39.916622000000018
 31
0.0
  0
LINE
  8
OUTLINE
  6
CONTINUOUS
 62
     3
 10
-48.824747000000123
 20
40.123027999999977
 30
0.0
 11
-48.853160000000123
 21
40.045790000000011
 31
0.0
  0
LINE
  8
OUTLINE
  6
CONTINUOUS
 62
     3
 10
-46.971579999999904
 20
44.932164999999998
 30
0.0
 11
-46.989125000000058
 21
44.815404999999998
 31
0.0
  0
LINE
  8
OUTLINE
  6
CONTINUOUS
 62
     3
 10
-46.920027000000118
 20
45.054021999999968
 30
0.0
 11
-46.971579999999904
 21
44.932164999999998
 31
0.0
  0
LINE
  8
OUTLINE
  6
CONTINUOUS
 62
     3
 10
-46.839210000000087
 20
45.157220000000002
 30
0.0
 11
-46.920027000000118
 21
45.054021999999968
 31
0.0
  0
LINE
  8
OUTLINE
  6
CONTINUOUS
 62
     3
 10
-46.735507999999982
 20
45.235214999999982
 30
0.0
 11
-46.839210000000087
 21
45.157220000000002
 31
0.0
  0
LINE
  8
OUTLINE
  6
CONTINUOUS
 62
     3
 10
-46.616342000000031
 20
45.283607000000018
 30
0.0
 11
-46.735507999999982
 21
45.235214999999982
 31
0.0
  0
LINE
  8
OUTLINE
  6
CONTINUOUS
 62
     3
 10
-46.489362000000028
 20
45.300000000000011
 30
0.0
 11
-46.616342000000031
 21
45.283607000000018
 31
0.0
  0
LINE
  8
OUTLINE
  6
CONTINUOUS
 62
     3
 10
-79.520450696384046
 20
79.489042756945423
 30
0.0
 11
-79.991395000000011
 21
52.508725000000027
 31
0.0
  0
ARC
  8
OUTLINE
  6
CONTINUOUS
 62
     3
 10
-79.491469999999936
 20
52.5
 30
0.0
 40
0.5
 50
179.00000000000151
 51
270.0
  0
LINE
  8
SIZE
  6
CONTINUOUS
 62
    30
 10
94.119346999999834
 20
0.0
 30
0.0
 11
240.09785000000011
 21
0.0
 31
0.0
  0
LINE
  8
SIZE
  6
CONTINUOUS
 62
    30
 10
20.000062999999951
 20
-29.99928499999999
 30
0.0
 11
240.09785000000011
 21
-29.99928499999999
 31
0.0
  0
LINE
  8
SIZE
  6
CONTINUOUS
 62
    30
 10
220.09785000000011
 20
12.0
 30
0.0
 11
220.09785000000011
 21
24.0
 31
0.0
  0
LINE
  8
SIZE
  6
CONTINUOUS
 62
    30
 10
220.09785000000011
 20
-41.999284999999993
 30
0.0
 11
220.09785000000011
 21
-197.256428
 31
0.0
  0
LINE
  8
SIZE
  6
CONTINUOUS
 62
    30
 10
220.09785000000011
 20
0.0
 30
0.0
 11
220.09785000000011
 21
-29.99928499999999
 31
0.0
  0
CIRCLE
  8
SIZE
  6
CONTINUOUS
 62
    30
 10
220.09785000000011
 20
0.0
 30
0.0
 40
6.0
  0
LINE
  8
SIZE
  6
CONTINUOUS
 62
    30
 10
220.09785000000011
 20
0.0
 30
0.0
 11
220.09785000000011
 21
12.0
 31
0.0
  0
CIRCLE
  8
SIZE
  6
CONTINUOUS
 62
    30
 10
220.09785000000011
 20
-29.99928499999999
 30
0.0
 40
6.0
  0
LINE
  8
SIZE
  6
CONTINUOUS
 62
    30
 10
220.09785000000011
 20
-29.99928499999999
 30
0.0
 11
220.09785000000011
 21
-41.999284999999993
 31
0.0
  0
TEXT
  8
SIZE
  6
CONTINUOUS
 62
    30
 10
195.09785000000011
 20
-172.25642742857141
 30
0.0
 40
64.0
  1
30
 50
90.0
 41
0.9
 72
     1
 11
195.09785000000011
 21
-125.62785599999999
 31
0.0
  0
POINT
  8
DEFPOINTS
  6
CONTINUOUS
 62
    30
 10
74.119346999999834
 20
0.0
 30
0.0
  0
LINE
  8
SIZE
  6
CONTINUOUS
 62
    30
 10
86.544386999999915
 20
0.0
 30
0.0
 11
360.09785000000011
 21
0.0
 31
0.0
  0
LINE
  8
SIZE
  6
CONTINUOUS
 62
    30
 10
86.544386999999915
 20
52.0
 30
0.0
 11
360.09785000000011
 21
52.0
 31
0.0
  0
LINE
  8
SIZE
  6
CONTINUOUS
 62
    30
 10
340.09785000000011
 20
-12.0
 30
0.0
 11
340.09785000000011
 21
-24.0
 31
0.0
  0
LINE
  8
SIZE
  6
CONTINUOUS
 62
    30
 10
340.09785000000011
 20
64.0
 30
0.0
 11
340.09785000000011
 21
501.22285699999998
 31
0.0
  0
LINE
  8
SIZE
  6
CONTINUOUS
 62
    30
 10
340.09785000000011
 20
0.0
 30
0.0
 11
340.09785000000011
 21
52.0
 31
0.0
  0
CIRCLE
  8
SIZE
  6
CONTINUOUS
 62
    30
 10
340.09785000000011
 20
0.0
 30
0.0
 40
6.0
  0
LINE
  8
SIZE
  6
CONTINUOUS
 62
    30
 10
340.09785000000011
 20
0.0
 30
0.0
 11
340.09785000000011
 21
-12.0
 31
0.0
  0
CIRCLE
  8
SIZE
  6
CONTINUOUS
 62
    30
 10
340.09785000000011
 20
52.0
 30
0.0
 40
6.0
  0
LINE
  8
SIZE
  6
CONTINUOUS
 62
    30
 10
340.09785000000011
 20
52.0
 30
0.0
 11
340.09785000000011
 21
64.0
 31
0.0
  0
TEXT
  8
SIZE
  6
CONTINUOUS
 62
    30
 10
315.09785000000011
 20
118.55428614285719
 30
0.0
 40
64.0
  1
52（最小）
 50
90.0
 41
0.9
 72
     1
 11
315.09785000000011
 21
288.61142899999999
 31
0.0
  0
POINT
  8
DEFPOINTS
  6
CONTINUOUS
 62
    30
 10
66.544386999999915
 20
0.0
 30
0.0
  0
POINT
  8
DEFPOINTS
  6
CONTINUOUS
 62
    30
 10
66.544386999999915
 20
52.0
 30
0.0
  0
POINT
  8
DEFPOINTS
  6
CONTINUOUS
 62
    30
 10
61.922376999999869
 20
0.0
 30
0.0
  0
LINE
  8
SIZE
  6
CONTINUOUS
 62
    30
 10
100.00027300000011
 20
52.0
 30
0.0
 11
240.09785000000011
 21
52.0
 31
0.0
  0
LINE
  8
SIZE
  6
CONTINUOUS
 62
    30
 10
20.000062999999951
 20
81.999281999999994
 30
0.0
 11
240.09785000000011
 21
81.999281999999994
 31
0.0
  0
LINE
  8
SIZE
  6
CONTINUOUS
 62
    30
 10
220.09785000000011
 20
40.0
 30
0.0
 11
220.09785000000011
 21
28.0
 31
0.0
  0
LINE
  8
SIZE
  6
CONTINUOUS
 62
    30
 10
220.09785000000011
 20
93.999281999999994
 30
0.0
 11
220.09785000000011
 21
249.25642500000001
 31
0.0
  0
LINE
  8
SIZE
  6
CONTINUOUS
 62
    30
 10
220.09785000000011
 20
52.0
 30
0.0
 11
220.09785000000011
 21
81.999281999999994
 31
0.0
  0
CIRCLE
  8
SIZE
  6
CONTINUOUS
 62
    30
 10
220.09785000000011
 20
52.0
 30
0.0
 40
6.0
  0
LINE
  8
SIZE
  6
CONTINUOUS
 62
    30
 10
220.09785000000011
 20
52.0
 30
0.0
 11
220.09785000000011
 21
40.0
 31
0.0
  0
CIRCLE
  8
SIZE
  6
CONTINUOUS
 62
    30
 10
220.09785000000011
 20
81.999281999999994
 30
0.0
 40
6.0
  0
LINE
  8
SIZE
  6
CONTINUOUS
 62
    30
 10
220.09785000000011
 20
81.999281999999994
 30
0.0
 11
220.09785000000011
 21
93.999281999999994
 31
0.0
  0
TEXT
  8
SIZE
  6
CONTINUOUS
 62
    30
 10
195.09785000000011
 20
130.99928257142861
 30
0.0
 40
64.0
  1
30
 50
90.0
 41
0.9
 72
     1
 11
195.09785000000011
 21
177.6278540000001
 31
0.0
  0
POINT
  8
DEFPOINTS
  6
CONTINUOUS
 62
    30
 10
80.000273000000107
 20
52.0
 30
0.0
  0
LINE
  8
SIZE
  6
CONTINUOUS
 62
    30
 10
-23.0
 20
86.999640999999997
 30
0.0
 11
-23.0
 21
218.98685800000001
 31
0.0
  0
LINE
  8
SIZE
  6
CONTINUOUS
 62
    30
 10
22.900000000000091
 20
86.999640999999997
 30
0.0
 11
22.900000000000091
 21
218.98685800000001
 31
0.0
  0
LINE
  8
SIZE
  6
CONTINUOUS
 62
    30
 10
34.900000000000091
 20
198.98685800000001
 30
0.0
 11
46.900000000000091
 21
198.98685800000001
 31
0.0
  0
LINE
  8
SIZE
  6
CONTINUOUS
 62
    30
 10
-35.0
 20
198.98685800000001
 30
0.0
 11
-248.03280299999989
 21
198.98685800000001
 31
0.0
  0
LINE
  8
SIZE
  6
CONTINUOUS
 62
    30
 10
22.900000000000091
 20
198.98685800000001
 30
0.0
 11
-23.0
 21
198.98685800000001
 31
0.0
  0
CIRCLE
  8
SIZE
  6
CONTINUOUS
 62
    30
 10
22.900000000000091
 20
198.98685800000001
 30
0.0
 40
6.0
  0
LINE
  8
SIZE
  6
CONTINUOUS
 62
    30
 10
22.900000000000091
 20
198.98685800000001
 30
0.0
 11
34.900000000000091
 21
198.98685800000001
 31
0.0
  0
CIRCLE
  8
SIZE
  6
CONTINUOUS
 62
    30
 10
-23.0
 20
198.98685800000001
 30
0.0
 40
6.0
  0
LINE
  8
SIZE
  6
CONTINUOUS
 62
    30
 10
-23.0
 20
198.98685800000001
 30
0.0
 11
-35.0
 21
198.98685800000001
 31
0.0
  0
TEXT
  8
SIZE
  6
CONTINUOUS
 62
    30
 10
-234.55280285714289
 20
223.98685800000001
 30
0.0
 40
64.0
  1
φ46
 41
0.9
 72
     1
 11
-148.97566000000009
 21
223.98685800000001
 31
0.0
  0
LINE
  8
SIZE
  6
CONTINUOUS
 62
    30
 10
-47.498718000000054
 20
20.0
 30
0.0
 11
-47.498716999999942
 21
338.98685799999998
 31
0.0
  0
LINE
  8
SIZE
  6
CONTINUOUS
 62
    30
 10
47.498714999999947
 20
20.0
 30
0.0
 11
47.498714999999947
 21
338.98685799999998
 31
0.0
  0
LINE
  8
SIZE
  6
CONTINUOUS
 62
    30
 10
35.498714999999947
 20
318.98685799999998
 30
0.0
 11
-35.498716999999942
 21
318.98685799999998
 31
0.0
  0
LINE
  8
SIZE
  6
CONTINUOUS
 62
    30
 10
-47.498716999999942
 20
318.98685799999998
 30
0.0
 11
-260.35586000000001
 21
318.98685799999998
 31
0.0
  0
CIRCLE
  8
SIZE
  6
CONTINUOUS
 62
    30
 10
47.498714999999947
 20
318.98685799999998
 30
0.0
 40
6.0
  0
LINE
  8
SIZE
  6
CONTINUOUS
 62
    30
 10
47.498714999999947
 20
318.98685799999998
 30
0.0
 11
35.498714999999947
 21
318.98685799999998
 31
0.0
  0
CIRCLE
  8
SIZE
  6
CONTINUOUS
 62
    30
 10
-47.498716999999942
 20
318.98685799999998
 30
0.0
 40
6.0
  0
LINE
  8
SIZE
  6
CONTINUOUS
 62
    30
 10
-47.498716999999942
 20
318.98685799999998
 30
0.0
 11
-35.498716999999942
 21
318.98685799999998
 31
0.0
  0
TEXT
  8
SIZE
  6
CONTINUOUS
 62
    30
 10
-246.8758604285714
 20
343.98685799999998
 30
0.0
 40
64.0
  1
φ95
 41
0.9
 72
     1
 11
-159.927289
 21
343.98685799999998
 31
0.0
  0
POINT
  8
DEFPOINTS
  6
CONTINUOUS
 62
    30
 10
-47.498718000000054
 20
0.0
 30
0.0
  0
POINT
  8
DEFPOINTS
  6
CONTINUOUS
 62
    30
 10
47.498714999999947
 20
0.0
 30
0.0
  0
LINE
  8
NOTE
  6
DASHDOT
 62
     4
 10
70.0
 20
10.34964500000001
 30
0.0
 11
70.0
 21
-10.34964500000001
 31
0.0
  0
LINE
  8
NOTE
  6
DASHDOT
 62
     4
 10
-70.0
 20
10.34964500000001
 30
0.0
 11
-70.0
 21
-10.34964500000001
 31
0.0
  0
CIRCLE
  8
FIX
  6
CONTINUOUS
 62
    11
 10
70.0
 20
0.0
 30
0.0
 40
2.0
  0
CIRCLE
  8
FIX
  6
CONTINUOUS
 62
    11
 10
-70.0
 20
0.0
 30
0.0
 40
2.0
  0
LINE
  8
SIZE
  6
CONTINUOUS
 62
    30
 10
-79.791470000000004
 20
-20.0
 30
0.0
 11
-79.791470000000004
 21
-338.40289799999999
 31
0.0
  0
LINE
  8
SIZE
  6
CONTINUOUS
 62
    30
 10
79.791470000000118
 20
-20.0
 30
0.0
 11
79.791470000000118
 21
-338.40289799999999
 31
0.0
  0
LINE
  8
SIZE
  6
CONTINUOUS
 62
    30
 10
67.791470000000118
 20
-318.40289799999999
 30
0.0
 11
-67.791470000000004
 21
-318.40289799999999
 31
0.0
  0
LINE
  8
SIZE
  6
CONTINUOUS
 62
    30
 10
-79.791470000000004
 20
-318.40289799999999
 30
0.0
 11
-344.21432700000008
 21
-318.40289799999999
 31
0.0
  0
CIRCLE
  8
SIZE
  6
CONTINUOUS
 62
    30
 10
79.791470000000118
 20
-318.40289799999999
 30
0.0
 40
6.0
  0
LINE
  8
SIZE
  6
CONTINUOUS
 62
    30
 10
79.791470000000118
 20
-318.40289799999999
 30
0.0
 11
67.791470000000118
 21
-318.40289799999999
 31
0.0
  0
CIRCLE
  8
SIZE
  6
CONTINUOUS
 62
    30
 10
-79.791470000000004
 20
-318.40289799999999
 30
0.0
 40
6.0
  0
LINE
  8
SIZE
  6
CONTINUOUS
 62
    30
 10
-79.791470000000004
 20
-318.40289799999999
 30
0.0
 11
-67.791470000000004
 21
-318.40289799999999
 31
0.0
  0
TEXT
  8
SIZE
  6
CONTINUOUS
 62
    30
 10
-323.05432757142859
 20
-293.40289799999999
 30
0.0
 40
64.0
  1
□160
 41
0.9
 72
     1
 11
-218.0028990000001
 21
-293.40289799999999
 31
0.0
  0
POINT
  8
DEFPOINTS
  6
CONTINUOUS
 62
    30
 10
-79.791470000000004
 20
0.0
 30
0.0
  0
POINT
  8
DEFPOINTS
  6
CONTINUOUS
 62
    30
 10
79.791470000000118
 20
0.0
 30
0.0
  0
LINE
  8
SIZE
  6
CONTINUOUS
 62
    30
 10
-70.0
 20
-30.34964500000001
 30
0.0
 11
-70.0
 21
-218.40289799999999
 31
0.0
  0
LINE
  8
SIZE
  6
CONTINUOUS
 62
    30
 10
70.0
 20
-30.34964500000001
 30
0.0
 11
70.0
 21
-218.40289799999999
 31
0.0
  0
LINE
  8
SIZE
  6
CONTINUOUS
 62
    30
 10
-58.0
 20
-198.40289799999999
 30
0.0
 11
58.0
 21
-198.40289799999999
 31
0.0
  0
CIRCLE
  8
SIZE
  6
CONTINUOUS
 62
    30
 10
-70.0
 20
-198.40289799999999
 30
0.0
 40
6.0
  0
LINE
  8
SIZE
  6
CONTINUOUS
 62
    30
 10
-70.0
 20
-198.40289799999999
 30
0.0
 11
-58.0
 21
-198.40289799999999
 31
0.0
  0
CIRCLE
  8
SIZE
  6
CONTINUOUS
 62
    30
 10
70.0
 20
-198.40289799999999
 30
0.0
 40
6.0
  0
LINE
  8
SIZE
  6
CONTINUOUS
 62
    30
 10
70.0
 20
-198.40289799999999
 30
0.0
 11
58.0
 21
-198.40289799999999
 31
0.0
  0
TEXT
  8
SIZE
  6
CONTINUOUS
 62
    30
 10
-68.571428571428569
 20
-173.40289799999999
 30
0.0
 40
64.0
  1
140
 41
0.9
 72
     1
 11
0.0
 21
-173.40289799999999
 31
0.0
  0
LINE
  8
DETAIL
  6
CONTINUOUS
 62
     5
 10
-51.448926999999912
 20
32.369813000000022
 30
0.0
 11
-51.73141499999997
 21
0.0
 31
0.0
  0
LINE
  8
DETAIL
  6
CONTINUOUS
 62
     5
 10
-47.384878000000072
 20
30.67766499999999
 30
0.0
 11
-47.480070000000069
 21
28.896959999999979
 31
0.0
  0
LINE
  8
DETAIL
  6
CONTINUOUS
 62
     5
 10
-48.871262000000122
 20
39.917315000000031
 30
0.0
 11
-49.264180000000117
 21
0.0
 31
0.0
  0
LINE
  8
DETAIL
  6
CONTINUOUS
 62
     5
 10
47.357712999999883
 20
44.804361999999969
 30
0.0
 11
47.748714999999947
 21
0.0
 31
0.0
  0
LINE
  8
DETAIL
  6
CONTINUOUS
 62
     5
 10
-79.491469999999936
 20
0.0
 30
0.0
 11
79.491469999999936
 21
0.0
 31
0.0
  0
LINE
  8
DETAIL
  6
CONTINUOUS
 62
     5
 10
79.991395000000011
 20
-0.5087280000000192
 30
0.0
 11
79.520450748978874
 21
-27.489042743796741
 31
0.0
  0
ARC
  8
DETAIL
  6
CONTINUOUS
 62
     5
 10
79.491469999999936
 20
-0.5
 30
0.0
 40
0.5
 50
359.00000000000148
 51
90.0
  0
LINE
  8
DETAIL
  6
CONTINUOUS
 62
     5
 10
79.989800000000059
 20
-0.6000000000000227
 30
0.0
 11
80.0
 21
-0.6000000000000227
 31
0.0
  0
LINE
  8
DETAIL
  6
CONTINUOUS
 62
     5
 10
-79.520450748978874
 20
-27.489042743796741
 30
0.0
 11
-79.991395000000011
 21
-0.5087280000000192
 31
0.0
  0
LINE
  8
DETAIL
  6
CONTINUOUS
 62
     5
 10
-47.501739999999927
 20
28.300563000000011
 30
0.0
 11
-47.748718000000054
 21
0.0
 31
0.0
  0
LINE
  8
DETAIL
  6
CONTINUOUS
 62
     5
 10
-47.480070000000069
 20
28.896959999999979
 30
0.0
 11
-47.493240000000007
 21
28.61091799999997
 31
0.0
  0
LINE
  8
DETAIL
  6
CONTINUOUS
 62
     5
 10
-47.493240000000007
 20
28.61091799999997
 30
0.0
 11
-47.500555000000077
 21
28.37937299999999
 31
0.0
  0
LINE
  8
DETAIL
  6
CONTINUOUS
 62
     5
 10
-47.500555000000077
 20
28.37937299999999
 30
0.0
 11
-47.501782999999932
 21
28.295582000000021
 31
0.0
  0
LINE
  8
DETAIL
  6
CONTINUOUS
 62
     5
 10
-46.967231999999967
 20
28.499939999999981
 30
0.0
 11
-46.962837000000043
 21
28.49992300000002
 31
0.0
  0
ARC
  8
DETAIL
  6
CONTINUOUS
 62
     5
 10
-79.491469999999936
 20
-0.5
 30
0.0
 40
0.5
 50
90.0
 51
180.99999999999849
  0
LINE
  8
DETAIL
  6
CONTINUOUS
 62
     5
 10
22.900000000000091
 20
52.0
 30
0.0
 11
80.000273000000107
 21
52.0
 31
0.0
  0
LINE
  8
DETAIL
  6
CONTINUOUS
 62
     5
 10
80.000273000000107
 20
52.0
 30
0.0
 11
79.520450965477949
 21
79.489042689671919
 31
0.0
  0
ARC
  8
DETAIL
  6
CONTINUOUS
 62
     5
 10
46.857733000000053
 20
44.800000000000011
 30
0.0
 40
0.5
 50
0.500000000001317
 51
90.0
  0
ARC
  8
DETAIL
  6
CONTINUOUS
 62
     5
 10
-28.393800000000059
 20
52.189090000000022
 30
0.0
 40
1.8890899999999999
 50
270.0
 51
0.7359749999987952
  0
LINE
  8
DETAIL
  6
CONTINUOUS
 62
     5
 10
46.857733000000053
 20
45.300000000000011
 30
0.0
 11
-46.492041999999863
 21
45.300000000000011
 31
0.0
  0
LINE
  8
DETAIL
  6
CONTINUOUS
 62
     5
 10
-79.491469999999936
 20
52.0
 30
0.0
 11
-25.976998000000091
 21
52.0
 31
0.0
  0
LINE
  8
DETAIL
  6
CONTINUOUS
 62
     5
 10
-25.976998000000091
 20
52.0
 30
0.0
 11
22.900000000000091
 21
52.0
 31
0.0
  0
LINE
  8
DETAIL
  6
CONTINUOUS
 62
     5
 10
22.900000000000091
 20
45.300000000000011
 30
0.0
 11
22.900000000000091
 21
52.0
 31
0.0
  0
ARC
  8
DETAIL
  6
CONTINUOUS
 62
     5
 10
-39.059756999999991
 20
42.300000000000011
 30
0.0
 40
8.0
 50
90.0
 51
157.9756869999959
  0
LINE
  8
DETAIL
  6
CONTINUOUS
 62
     5
 10
-28.393800000000059
 20
50.300000000000011
 30
0.0
 11
-39.059756999999991
 21
50.300000000000011
 31
0.0
  0
LINE
  8
DETAIL
  6
CONTINUOUS
 62
     5
 10
-46.989125000000058
 20
44.815382
 30
0.0
 11
-47.108784999999898
 21
40.753528000000017
 31
0.0
  0
LINE
  8
DETAIL
  6
CONTINUOUS
 62
     5
 10
-47.012445000000071
 20
44.02383500000002
 30
0.0
 11
-48.824747000000123
 21
40.123027999999977
 31
0.0
  0
LINE
  8
DETAIL
  6
CONTINUOUS
 62
     5
 10
-47.220362000000023
 20
36.586009999999987
 30
0.0
 11
-47.333695000000027
 21
31.956070000000011
 31
0.0
  0
LINE
  8
DETAIL
  6
CONTINUOUS
 62
     5
 10
-47.357849999999871
 20
31.28675800000002
 30
0.0
 11
-47.384878000000072
 21
30.67766499999999
 31
0.0
  0
LINE
  8
DETAIL
  6
CONTINUOUS
 62
     5
 10
-47.333695000000027
 20
31.956070000000011
 30
0.0
 11
-47.357849999999871
 21
31.28675800000002
 31
0.0
  0
LINE
  8
DETAIL
  6
CONTINUOUS
 62
     5
 10
-47.108784999999898
 20
40.753528000000017
 30
0.0
 11
-47.220362000000023
 21
36.586009999999987
 31
0.0
  0
ARC
  8
DETAIL
  6
CONTINUOUS
 62
     5
 10
-43.449231999999938
 20
32.300000000000011
 30
0.0
 40
8.0
 50
156.30104700000419
 51
179.49999999999869
  0
LINE
  8
DETAIL
  6
CONTINUOUS
 62
     5
 10
-50.774593000000102
 20
35.515446999999988
 30
0.0
 11
-48.871924999999919
 21
39.85006199999998
 31
0.0
  0
LINE
  8
DETAIL
  6
CONTINUOUS
 62
     5
 10
-48.853160000000123
 20
40.045790000000011
 30
0.0
 11
-48.868472999999987
 21
39.965359999999983
 31
0.0
  0
LINE
  8
DETAIL
  6
CONTINUOUS
 62
     5
 10
-48.868472999999987
 20
39.965359999999983
 30
0.0
 11
-48.871266999999989
 21
39.916622000000018
 31
0.0
  0
LINE
  8
DETAIL
  6
CONTINUOUS
 62
     5
 10
-48.824747000000123
 20
40.123027999999977
 30
0.0
 11
-48.853160000000123
 21
40.045790000000011
 31
0.0
  0
LINE
  8
DETAIL
  6
CONTINUOUS
 62
     5
 10
-46.971579999999904
 20
44.932164999999998
 30
0.0
 11
-46.989125000000058
 21
44.815404999999998
 31
0.0
  0
LINE
  8
DETAIL
  6
CONTINUOUS
 62
     5
 10
-46.920027000000118
 20
45.054021999999968
 30
0.0
 11
-46.971579999999904
 21
44.932164999999998
 31
0.0
  0
LINE
  8
DETAIL
  6
CONTINUOUS
 62
     5
 10
-46.839210000000087
 20
45.157220000000002
 30
0.0
 11
-46.920027000000118
 21
45.054021999999968
 31
0.0
  0
LINE
  8
DETAIL
  6
CONTINUOUS
 62
     5
 10
-46.735507999999982
 20
45.235214999999982
 30
0.0
 11
-46.839210000000087
 21
45.157220000000002
 31
0.0
  0
LINE
  8
DETAIL
  6
CONTINUOUS
 62
     5
 10
-46.616342000000031
 20
45.283607000000018
 30
0.0
 11
-46.735507999999982
 21
45.235214999999982
 31
0.0
  0
LINE
  8
DETAIL
  6
CONTINUOUS
 62
     5
 10
-46.489362000000028
 20
45.300000000000011
 30
0.0
 11
-46.616342000000031
 21
45.283607000000018
 31
0.0
  0
LINE
  8
DETAIL
  6
CONTINUOUS
 62
     5
 10
-79.520450696384046
 20
79.489042756945423
 30
0.0
 11
-79.991395000000011
 21
52.508725000000027
 31
0.0
  0
ARC
  8
DETAIL
  6
CONTINUOUS
 62
     5
 10
-79.491469999999936
 20
52.5
 30
0.0
 40
0.5
 50
179.00000000000151
 51
270.0
  0
LINE
  8
DETAIL
  6
CONTINUOUS
 62
     5
 10
-23.0
 20
52.0
 30
0.0
 11
-23.0
 21
45.300000000000011
 31
0.0
  0
LINE
  8
NOTE
  6
DASHDOT
 62
     4
 10
70.0
 20
62.34964500000001
 30
0.0
 11
70.0
 21
41.65035499999999
 31
0.0
  0
LINE
  8
NOTE
  6
DASHDOT
 62
     4
 10
-70.0
 20
62.34964500000001
 30
0.0
 11
-70.0
 21
41.65035499999999
 31
0.0
  0
CIRCLE
  8
FIX
  6
CONTINUOUS
 62
    11
 10
70.0
 20
52.0
 30
0.0
 40
2.0
  0
CIRCLE
  8
FIX
  6
CONTINUOUS
 62
    11
 10
-70.0
 20
52.0
 30
0.0
 40
2.0
  0
LINE
  8
NOTE
  6
CONTINUOUS
 62
     4
 10
70.0
 20
0.0
 30
0.0
 11
352.37075099999993
 21
-125.4042919999999
 31
0.0
  0
LINE
  8
NOTE
  6
CONTINUOUS
 62
     4
 10
-70.0
 20
0.0
 30
0.0
 11
-224.07499999999999
 21
-80.446370000000115
 31
0.0
  0
TEXT
  8
NOTE
  6
CONTINUOUS
 62
     4
 10
368.94708300000002
 20
-106.393388
 30
0.0
 40
40.0
  1
2-φ5×7据付用長穴
 41
0.9
  0
TEXT
  8
NOTE
  6
CONTINUOUS
 62
     4
 10
-690.94853106234223
 20
-65.459659999999985
 30
0.0
 40
40.0
  1
2-φ4×10据付用長穴
 41
0.9
  0
LINE
  8
NOTE
  6
CONTINUOUS
 62
     4
 10
-70.0
 20
0.0
 30
0.0
 11
-76.711119000000053
 21
-7.7935620000000654
 31
0.0
  0
LINE
  8
NOTE
  6
CONTINUOUS
 62
     4
 10
-70.0
 20
0.0
 30
0.0
 11
-80.230904999999893
 21
-1.052287999999862
 31
0.0
  0
LINE
  8
NOTE
  6
CONTINUOUS
 62
     4
 10
70.0
 20
0.0
 30
0.0
 11
77.77454200000011
 21
-0.9517679999999018
 31
0.0
  0
LINE
  8
NOTE
  6
CONTINUOUS
 62
     4
 10
70.0
 20
0.0
 30
0.0
 11
75.919058999999834
 21
-5.1297270000000026
 31
0.0
  0
LINE
  8
NOTE
  6
CONTINUOUS
 62
     4
 10
352.37075099999993
 20
-125.4042919999999
 30
0.0
 11
820.86006563995034
 21
-125.4042919999999
 31
0.0
  0
LINE
  8
NOTE
  6
CONTINUOUS
 62
     4
 10
-224.07499999999999
 20
-80.446370000000115
 30
0.0
 11
-708.90985027409602
 21
-80.446370000000115
 31
0.0
  0
TEXT
  8
NOTE
  6
CONTINUOUS
 62
     4
 10
-701.92507978889614
 20
120.4637910000001
 30
0.0
 40
40.0
  1
2-φ4×10据付用長穴
 41
0.9
  0
LINE
  8
NOTE
  6
CONTINUOUS
 62
     4
 10
-224.07499999999999
 20
105.477081
 30
0.0
 11
-717.89050988003146
 21
105.477081
 31
0.0
  0
LINE
  8
NOTE
  6
CONTINUOUS
 62
     4
 10
-70.0
 20
52.0
 30
0.0
 11
-224.07499999999999
 21
105.477081
 31
0.0
  0
LINE
  8
NOTE
  6
CONTINUOUS
 62
     4
 10
-70.0
 20
52.0
 30
0.0
 11
-78.097383000000036
 21
58.718608000000131
 31
0.0
  0
LINE
  8
NOTE
  6
CONTINUOUS
 62
     4
 10
-70.0
 20
52.0
 30
0.0
 11
-80.481718000000001
 21
51.743621000000083
 31
0.0
  0
LINE
  8
NOTE
  6
CONTINUOUS
 62
     4
 10
70.0
 20
52.0
 30
0.0
 11
159.98767099999989
 21
551.39029100000016
 31
0.0
  0
TEXT
  8
NOTE
  6
CONTINUOUS
 62
     4
 10
176.56400300000001
 20
570.4011949999998
 30
0.0
 40
40.0
  1
2-φ5×7据付用長穴
 41
0.9
  0
LINE
  8
NOTE
  6
CONTINUOUS
 62
     4
 10
159.98767099999989
 20
551.39029100000016
 30
0.0
 11
630.61531406152062
 21
551.39029100000016
 31
0.0
  0
LINE
  8
NOTE
  6
CONTINUOUS
 62
     4
 10
70.0
 20
52.0
 30
0.0
 11
76.982040999999981
 21
65.356075000000146
 31
0.0
  0
LINE
  8
NOTE
  6
CONTINUOUS
 62
     4
 10
70.0
 20
52.0
 30
0.0
 11
68.119138000000021
 21
66.953125999999884
 31
0.0
  0
LINE
  8
DETAIL
  6
CONTINUOUS
 62
     5
 10
-69.476621724165852
 20
-30.0
 30
0.0
 11
69.476621724165852
 21
-30.0
 31
0.0
  0
LINE
  8
DETAIL
  6
CONTINUOUS
 62
     5
 10
69.476621724165852
 20
-30.0
 30
0.0
 11
79.520450748978874
 21
-27.489042743796741
 31
0.0
  0
LINE
  8
DETAIL
  6
CONTINUOUS
 62
     5
 10
-69.476621724165852
 20
-30.0
 30
0.0
 11
-79.520450748978874
 21
-27.489042743796741
 31
0.0
  0
LINE
  8
DETAIL
  6
CONTINUOUS
 62
     5
 10
-69.476621724165852
 20
82.0
 30
0.0
 11
69.476621724165852
 21
82.0
 31
0.0
  0
LINE
  8
DETAIL
  6
CONTINUOUS
 62
     5
 10
-69.476621724165852
 20
82.0
 30
0.0
 11
-79.520450696384046
 21
79.489042756945423
 31
0.0
  0
LINE
  8
OUTLINE
  6
CONTINUOUS
 62
     3
 10
-69.476621724165852
 20
-30.0
 30
0.0
 11
69.476621724165852
 21
-30.0
 31
0.0
  0
LINE
  8
OUTLINE
  6
CONTINUOUS
 62
     3
 10
69.476621724165852
 20
-30.0
 30
0.0
 11
79.520450748978874
 21
-27.489042743796741
 31
0.0
  0
LINE
  8
OUTLINE
  6
CONTINUOUS
 62
     3
 10
-69.476621724165852
 20
-30.0
 30
0.0
 11
-79.520450748978874
 21
-27.489042743796741
 31
0.0
  0
LINE
  8
OUTLINE
  6
CONTINUOUS
 62
     3
 10
-69.476621724165852
 20
82.0
 30
0.0
 11
69.476621724165852
 21
82.0
 31
0.0
  0
LINE
  8
OUTLINE
  6
CONTINUOUS
 62
     3
 10
-69.476621724165852
 20
82.0
 30
0.0
 11
-79.520450696384046
 21
79.489042756945423
 31
0.0
  0
LINE
  8
OUTLINE
  6
CONTINUOUS
 62
     3
 10
69.476621724165852
 20
82.0
 30
0.0
 11
79.520450965477949
 21
79.489042689671919
 31
0.0
  0
LINE
  8
DETAIL
  6
CONTINUOUS
 62
     5
 10
69.476621724165852
 20
82.0
 30
0.0
 11
79.520450965477949
 21
79.489042689671919
 31
0.0
  0
LINE
  8
DETAIL
  6
CONTINUOUS
 62
     5
 10
-12.5
 20
-15.0
 30
0.0
 11
12.5
 21
-15.0
 31
0.0
  0
LINE
  8
DETAIL
  6
CONTINUOUS
 62
     5
 10
-12.5
 20
-17.0
 30
0.0
 11
12.5
 21
-17.0
 31
0.0
  0
LINE
  8
DETAIL
  6
CONTINUOUS
 62
     5
 10
-12.5
 20
-15.0
 30
0.0
 11
-12.5
 21
-17.0
 31
0.0
  0
LINE
  8
DETAIL
  6
CONTINUOUS
 62
     5
 10
12.5
 20
-15.0
 30
0.0
 11
12.5
 21
-17.0
 31
0.0
  0
LINE
  8
DETAIL
  6
CONTINUOUS
 62
     5
 10
-12.5
 20
67.0
 30
0.0
 11
12.5
 21
67.0
 31
0.0
  0
LINE
  8
DETAIL
  6
CONTINUOUS
 62
     5
 10
-12.5
 20
69.0
 30
0.0
 11
12.5
 21
69.0
 31
0.0
  0
LINE
  8
DETAIL
  6
CONTINUOUS
 62
     5
 10
-12.5
 20
67.0
 30
0.0
 11
-12.5
 21
69.0
 31
0.0
  0
LINE
  8
DETAIL
  6
CONTINUOUS
 62
     5
 10
12.5
 20
67.0
 30
0.0
 11
12.5
 21
69.0
 31
0.0
  0
ENDSEC
  0
EOF
