  0
SECTION
  2
HEADER
  9
$ACADVER
  1
AC1009
  9
$DWGCODEPAGE
  3
dos932
  9
$INSBASE
 10
0.0
 20
0.0
 30
0.0
  9
$EXTMIN
 10
-226.1398145185558
 20
-292.87718538297122
 30
-0.0015257624927045
  9
$EXTMAX
 10
965.28626637915841
 20
641.18958327592009
 30
0.0022888765696933
  9
$LIMMIN
 10
-2970.0
 20
-2100.0
  9
$LIMMAX
 10
2970.0
 20
2100.0
  9
$ORTHOMODE
 70
     1
  9
$REGENMODE
 70
     1
  9
$FILLMODE
 70
     1
  9
$QTEXTMODE
 70
     0
  9
$MIRRTEXT
 70
     0
  9
$LTSCALE
 40
20.0
  9
$ATTMODE
 70
     1
  9
$TEXTSIZE
 40
64.0
  9
$TRACEWID
 40
0.05
  9
$TEXTSTYLE
  7
STANDARD
  9
$CLAYER
  8
SIZE
  9
$CELTYPE
  6
CONTINUOUS
  9
$CECOLOR
 62
     7
  9
$DIMSCALE
 40
1.0
  9
$DIMASZ
 40
12.0
  9
$DIMEXO
 40
20.0
  9
$DIMDLI
 40
200.0
  9
$DIMRND
 40
0.0
  9
$DIMDLE
 40
0.0
  9
$DIMEXE
 40
20.0
  9
$DIMTP
 40
0.0
  9
$DIMTM
 40
0.0
  9
$DIMTXT
 40
64.0
  9
$DIMCEN
 40
0.09
  9
$DIMTSZ
 40
0.0
  9
$DIMTOL
 70
     0
  9
$DIMLIM
 70
     0
  9
$DIMTIH
 70
     0
  9
$DIMTOH
 70
     0
  9
$DIMSE1
 70
     0
  9
$DIMSE2
 70
     0
  9
$DIMTAD
 70
     1
  9
$DIMZIN
 70
     8
  9
$DIMBLK
  1

  9
$DIMASO
 70
     1
  9
$DIMSHO
 70
     0
  9
$DIMPOST
  1

  9
$DIMAPOST
  1

  9
$DIMALT
 70
     0
  9
$DIMALTD
 70
     2
  9
$DIMALTF
 40
25.399999999999999
  9
$DIMLFAC
 40
1.0
  9
$DIMTOFL
 70
     1
  9
$DIMTVP
 40
0.0
  9
$DIMTIX
 70
     1
  9
$DIMSOXD
 70
     0
  9
$DIMSAH
 70
     0
  9
$DIMBLK1
  1

  9
$DIMBLK2
  1

  9
$DIMSTYLE
  2
STANDARD
  9
$DIMCLRD
 70
     7
  9
$DIMCLRE
 70
     7
  9
$DIMCLRT
 70
     7
  9
$DIMTFAC
 40
1.0
  9
$DIMGAP
 40
25.0
  9
$LUNITS
 70
     2
  9
$LUPREC
 70
     4
  9
$SKETCHINC
 40
0.1
  9
$FILLETRAD
 40
3.0
  9
$AUNITS
 70
     1
  9
$AUPREC
 70
     3
  9
$MENU
  1
ACAD
  9
$ELEVATION
 40
0.0
  9
$PELEVATION
 40
0.0
  9
$THICKNESS
 40
0.0
  9
$LIMCHECK
 70
     0
  9
$CHAMFERA
 40
0.0
  9
$CHAMFERB
 40
0.0
  9
$SKPOLY
 70
     0
  9
$TDCREATE
 40
2453019.623009259
  9
$TDUPDATE
 40
2459356.648706343
  9
$TDINDWG
 40
1.8819488542
  9
$TDUSRTIMER
 40
1.8819488542
  9
$USRTIMER
 70
     1
  9
$ANGBASE
 50
0.0
  9
$ANGDIR
 70
     0
  9
$PDMODE
 70
     3
  9
$PDSIZE
 40
-2.0
  9
$PLINEWID
 40
0.0
  9
$SPLFRAME
 70
     0
  9
$SPLINETYPE
 70
     6
  9
$SPLINESEGS
 70
     8
  9
$SURFTAB1
 70
     6
  9
$SURFTAB2
 70
     6
  9
$SURFTYPE
 70
     6
  9
$SURFU
 70
     6
  9
$SURFV
 70
     6
  9
$UCSNAME
  2

  9
$UCSORG
 10
0.0
 20
0.0
 30
0.0
  9
$UCSXDIR
 10
1.0
 20
0.0
 30
0.0
  9
$UCSYDIR
 10
0.0
 20
1.0
 30
0.0
  9
$PUCSNAME
  2

  9
$PUCSORG
 10
0.0
 20
0.0
 30
0.0
  9
$PUCSXDIR
 10
1.0
 20
0.0
 30
0.0
  9
$PUCSYDIR
 10
0.0
 20
1.0
 30
0.0
  9
$USERI1
 70
     0
  9
$USERI2
 70
     0
  9
$USERI3
 70
     0
  9
$USERI4
 70
     0
  9
$USERI5
 70
     0
  9
$USERR1
 40
20.0
  9
$USERR2
 40
0.0
  9
$USERR3
 40
0.0
  9
$USERR4
 40
0.0
  9
$USERR5
 40
0.0
  9
$WORLDVIEW
 70
     1
  9
$SHADEDGE
 70
     3
  9
$SHADEDIF
 70
    70
  9
$TILEMODE
 70
     1
  9
$MAXACTVP
 70
    48
  9
$PINSBASE
 10
0.0
 20
0.0
 30
0.0
  9
$PLIMCHECK
 70
     0
  9
$PEXTMIN
 10
-100000000000000000000.0
 20
-100000000000000000000.0
 30
-100000000000000000000.0
  9
$PEXTMAX
 10
100000000000000000000.0
 20
100000000000000000000.0
 30
100000000000000000000.0
  9
$PLIMMIN
 10
0.0
 20
0.0
  9
$PLIMMAX
 10
12.0
 20
9.0
  9
$UNITMODE
 70
     0
  9
$VISRETAIN
 70
     0
  9
$PLINEGEN
 70
     0
  9
$PSLTSCALE
 70
     0
  9
$TREEDEPTH
 70
  3020
  9
$ATTDIA
 70
     0
  9
$ATTREQ
 70
     1
  9
$BLIPMODE
 70
     1
  9
$COORDS
 70
     1
  9
$DRAGMODE
 70
     2
  9
$OSMODE
 70
     0
  9
$HANDLING
 70
     0
  9
$HANDSEED
  5
4AB
  0
ENDSEC
  0
SECTION
  2
TABLES
  0
TABLE
  2
LTYPE
 70
     2
  0
LTYPE
  2
CONTINUOUS
 70
     0
  3
実線
 72
    65
 73
     0
 40
0.0
  0
LTYPE
  2
DASHDOT
 70
     0
  3
____ _ ____ _ ____ _ ____ _ ____ _ ____ _ ____
 72
    65
 73
     4
 40
5.5
 49
4.0
 49
-0.6
 49
0.3
 49
-0.6
  0
ENDTAB
  0
TABLE
  2
LAYER
 70
    12
  0
LAYER
  2
SIZE
 70
     0
 62
    30
  6
CONTINUOUS
  0
LAYER
  2
BASIS
 70
     0
 62
     6
  6
DASHDOT
  0
LAYER
  2
OUTLINE
 70
     0
 62
     3
  6
CONTINUOUS
  0
LAYER
  2
DETAIL
 70
     0
 62
     5
  6
CONTINUOUS
  0
LAYER
  2
ARRANGE
 70
     0
 62
     1
  6
CONTINUOUS
  0
LAYER
  2
DEFPOINTS
 70
     0
 62
     7
  6
CONTINUOUS
  0
LAYER
  2
ETC
 70
     0
 62
    61
  6
CONTINUOUS
  0
LAYER
  2
NOTE
 70
     0
 62
     4
  6
CONTINUOUS
  0
LAYER
  2
0
 70
    64
 62
     7
  6
CONTINUOUS
  0
LAYER
  2
FIX
 70
    64
 62
    11
  6
CONTINUOUS
  0
LAYER
  2
SERVICESPACE
 70
    64
 62
     2
  6
DASHDOT
  0
LAYER
  2
SYMBOLLINE
 70
    64
 62
    15
  6
CONTINUOUS
  0
ENDTAB
  0
TABLE
  2
STYLE
 70
     1
  0
STYLE
  2
STANDARD
 70
     0
 40
64.0
 41
0.9
 50
0.0
 71
     0
 42
64.0
  3
SIMPLEX.shx
  4
BIGFONT.shx
  0
ENDTAB
  0
TABLE
  2
APPID
 70
    20
  0
APPID
  2
ACAD
 70
     0
  0
APPID
  2
ACADANNOTATIVE
 70
     0
  0
APPID
  2
AUTOCAD_POSTSCRIPT_FIGURE
 70
     0
  0
APPID
  2
ACAD_EXEMPT_FROM_CAD_STANDARDS
 70
     0
  0
APPID
  2
ACAD_PSEXT
 70
     0
  0
APPID
  2
ACAUTHENVIRON
 70
     0
  0
APPID
  2
GENIUS_GENOENT_13
 70
     0
  0
APPID
  2
GENIUS_GENCFG_13
 70
     0
  0
APPID
  2
GENIUS_GENCFG0_13
 70
     0
  0
APPID
  2
GENIUS_GENCFG1_13
 70
     0
  0
APPID
  2
GENIUS_GENCFG2_13
 70
     0
  0
APPID
  2
GENIUS_GENCFG3_13
 70
     0
  0
APPID
  2
GENIUS_GENCFG4_13
 70
     0
  0
APPID
  2
GENIUS_GEVCFG0_13
 70
     0
  0
APPID
  2
CONTENTBLOCKICON
 70
     0
  0
APPID
  2
CONTENTBLOCKDESCRIPTION
 70
     0
  0
APPID
  2
ACAD_NAV_VCDISPLAY
 70
     0
  0
APPID
  2
ACAD_MLEADERVER
 70
     0
  0
APPID
  2
ACDBDYNAMICBLOCKTRUENAME
 70
     0
  0
APPID
  2
ACDBDYNAMICBLOCKGUID
 70
     0
  0
ENDTAB
  0
TABLE
  2
DIMSTYLE
 70
     1
  0
DIMSTYLE
  2
STANDARD
 70
     0
  3

  4

  5

  6

  7

 40
1.0
 41
12.0
 42
20.0
 43
200.0
 44
20.0
 45
0.0
 46
0.0
 47
0.0
 48
0.0
140
64.0
141
0.09
142
0.0
143
25.399999999999999
144
1.0
145
0.0
146
1.0
147
25.0
 71
     0
 72
     0
 73
     0
 74
     0
 75
     0
 76
     0
 77
     1
 78
     8
170
     0
171
     2
172
     1
173
     0
174
     1
175
     0
176
     7
177
     7
178
     7
  0
ENDTAB
  0
TABLE
  2
VIEW
 70
     1
  0
VIEW
  2
ALL
 70
     0
 40
4282.6198079999986
 10
0.0
 20
41.309904000000003
 41
5940.0
 11
0.0
 21
0.0
 31
1.0
 12
0.0
 22
0.0
 32
0.0
 42
50.0
 43
0.0
 44
0.0
 50
0.0
 71
     0
  0
ENDTAB
  0
TABLE
  2
UCS
 70
     0
  0
ENDTAB
  0
TABLE
  2
VPORT
 70
     1
  0
VPORT
  2
*ACTIVE
 70
     0
 10
0.0
 20
0.0
 11
1.0
 21
1.0
 12
369.57322593030142
 22
174.1561989464744
 13
0.0
 23
0.0
 14
1.0
 24
1.0
 15
0.0
 25
0.0
 16
0.0
 26
0.0
 36
1.0
 17
0.0
 27
0.0
 37
0.0
 40
760.66810748558737
 41
1.980636237897649
 42
50.0
 43
0.0
 44
0.0
 50
0.0
 51
0.0
 71
     0
 72
  1000
 73
     1
 74
     3
 75
     0
 76
     0
 77
     0
 78
     0
  0
ENDTAB
  0
ENDSEC
  0
SECTION
  2
BLOCKS
  0
ENDSEC
  0
SECTION
  2
ENTITIES
  0
TEXT
  8
ETC
  6
CONTINUOUS
 62
    61
 10
337.03031564024047
 20
576.98668600737551
 30
0.0
 40
64.0
  1
V-08PHSD8_4
 41
0.9
  0
TEXT
  8
ETC
  6
CONTINUOUS
 62
    61
 10
332.8443216402402
 20
459.03137599254433
 30
0.0
 40
64.0
  1
換気扇
 41
0.9
  0
LINE
  8
BASIS
  6
DASHDOT
 62
     6
 10
0.0
 20
-109.2854010143142
 30
0.0
 11
0.0
 21
137.21084731898549
 31
0.0
  0
LINE
  8
BASIS
  6
DASHDOT
 62
     6
 10
-105.3299700391558
 20
0.0
 30
0.0
 11
125.4561247050906
 21
0.0
 31
0.0
  0
TEXT
  8
ETC
  6
CONTINUOUS
 62
    61
 10
383.54571988879621
 20
350.88260310631898
 30
0.0
 40
40.0
  1
V-08PHSD8
 41
0.9
  0
TEXT
  8
ETC
  6
CONTINUOUS
 62
    61
 10
383.54571988879621
 20
284.88260310631892
 30
0.0
 40
40.0
  1
V-08PNSD8
 41
0.9
  0
LINE
  8
NOTE
  6
CONTINUOUS
 62
     4
 10
0.0
 20
-14.9484717749999
 30
0.0
 11
0.0
 21
0.9965647849999328
 31
0.0
  0
LINE
  8
NOTE
  6
CONTINUOUS
 62
     4
 10
-4.982823924999991
 20
-3.9862591400001151
 30
0.0
 11
4.982823924999991
 21
-3.9862591400001151
 31
0.0
  0
LINE
  8
BASIS
  6
DASHDOT
 62
     6
 10
125.4561247050906
 20
-9.9656478500000958
 30
0.0
 11
-105.3299700391558
 21
-9.9656478500000958
 31
0.0
  0
LINE
  8
SIZE
  6
CONTINUOUS
 62
    30
 10
0.0
 20
157.2108473189854
 30
0.0
 11
0.0
 21
435.41205436948121
 31
0.0
  0
LINE
  8
SIZE
  6
CONTINUOUS
 62
    30
 10
-50.624280894122421
 20
93.184678260034602
 30
0.0
 11
-50.624280894122393
 21
435.41205436948121
 31
0.0
  0
LINE
  8
SIZE
  6
CONTINUOUS
 62
    30
 10
12.000000000000011
 20
415.41205436948121
 30
0.0
 11
24.0
 21
415.41205436948121
 31
0.0
  0
LINE
  8
SIZE
  6
CONTINUOUS
 62
    30
 10
-62.624280894122393
 20
415.41205436948121
 30
0.0
 11
-225.83570946555099
 21
415.41205436948121
 31
0.0
  0
LINE
  8
SIZE
  6
CONTINUOUS
 62
    30
 10
0.0
 20
415.41205436948121
 30
0.0
 11
-50.624280894122393
 21
415.41205436948121
 31
0.0
  0
CIRCLE
  8
SIZE
  6
CONTINUOUS
 62
    30
 10
0.0
 20
415.41205436948121
 30
0.0
 40
6.0
  0
LINE
  8
SIZE
  6
CONTINUOUS
 62
    30
 10
0.0
 20
415.41205436948121
 30
0.0
 11
12.000000000000011
 21
415.41205436948121
 31
0.0
  0
CIRCLE
  8
SIZE
  6
CONTINUOUS
 62
    30
 10
-50.624280894122393
 20
415.41205436948121
 30
0.0
 40
6.0
  0
LINE
  8
SIZE
  6
CONTINUOUS
 62
    30
 10
-50.624280894122393
 20
415.41205436948121
 30
0.0
 11
-62.624280894122393
 21
415.41205436948121
 31
0.0
  0
TEXT
  8
SIZE
  6
CONTINUOUS
 62
    30
 10
-200.83570946555099
 20
440.41205436948121
 30
0.0
 40
64.0
  1
51
 41
0.9
 72
     1
 11
-166.54999517983671
 21
440.41205436948121
 31
0.0
  0
POINT
  8
DEFPOINTS
  6
CONTINUOUS
 62
    30
 10
0.0
 20
137.21084731898549
 30
0.0
  0
POINT
  8
DEFPOINTS
  6
CONTINUOUS
 62
    30
 10
-50.624280894122421
 20
73.184678260034602
 30
0.0
  0
POINT
  8
DEFPOINTS
  6
CONTINUOUS
 62
    30
 10
-50.624280894122393
 20
415.41205436948121
 30
0.0
  0
LINE
  8
NOTE
  6
CONTINUOUS
 62
     4
 10
-0.0000000000000568
 20
33.212270664284013
 30
0.0
 11
0.0000000000000568
 21
41.582202192920249
 31
0.0
  0
LINE
  8
SIZE
  6
CONTINUOUS
 62
    30
 10
36.50530169549998
 20
52.311261295702479
 30
0.0
 11
36.505301695500009
 21
305.31664000440242
 31
0.0
  0
LINE
  8
SIZE
  6
CONTINUOUS
 62
    30
 10
0.0
 20
157.2108473189854
 30
0.0
 11
0.0
 21
305.31664000440242
 31
0.0
  0
LINE
  8
SIZE
  6
CONTINUOUS
 62
    30
 10
-12.0
 20
285.31664000440242
 30
0.0
 11
-24.0
 21
285.31664000440242
 31
0.0
  0
LINE
  8
SIZE
  6
CONTINUOUS
 62
    30
 10
48.505301695500009
 20
285.31664000440242
 30
0.0
 11
286.04815883835721
 21
285.31664000440242
 31
0.0
  0
LINE
  8
SIZE
  6
CONTINUOUS
 62
    30
 10
0.0
 20
285.31664000440242
 30
0.0
 11
36.505301695500009
 21
285.31664000440242
 31
0.0
  0
CIRCLE
  8
SIZE
  6
CONTINUOUS
 62
    30
 10
0.0
 20
285.31664000440242
 30
0.0
 40
6.0
  0
LINE
  8
SIZE
  6
CONTINUOUS
 62
    30
 10
0.0
 20
285.31664000440242
 30
0.0
 11
-12.0
 21
285.31664000440242
 31
0.0
  0
CIRCLE
  8
SIZE
  6
CONTINUOUS
 62
    30
 10
36.505301695500009
 20
285.31664000440242
 30
0.0
 40
6.0
  0
LINE
  8
SIZE
  6
CONTINUOUS
 62
    30
 10
36.505301695500009
 20
285.31664000440242
 30
0.0
 11
48.505301695500009
 21
285.31664000440242
 31
0.0
  0
TEXT
  8
SIZE
  6
CONTINUOUS
 62
    30
 10
85.505301695500037
 20
310.31664000440242
 30
0.0
 40
64.0
  1
36.5
 41
0.9
 72
     1
 11
173.27673026692861
 21
310.31664000440242
 31
0.0
  0
POINT
  8
DEFPOINTS
  6
CONTINUOUS
 62
    30
 10
36.50530169549998
 20
32.311261295702479
 30
0.0
  0
POINT
  8
DEFPOINTS
  6
CONTINUOUS
 62
    30
 10
0.0
 20
137.21084731898549
 30
0.0
  0
POINT
  8
DEFPOINTS
  6
CONTINUOUS
 62
    30
 10
0.0
 20
285.31664000440242
 30
0.0
  0
LINE
  8
SIZE
  6
CONTINUOUS
 62
    30
 10
19.594417104507389
 20
75.034248834751907
 30
0.0
 11
356.22196576332908
 21
75.034248834751793
 31
0.0
  0
LINE
  8
SIZE
  6
CONTINUOUS
 62
    30
 10
145.45612470509059
 20
0.0
 30
0.0
 11
356.22196576332908
 21
-0.0000000000000711
 31
0.0
  0
LINE
  8
SIZE
  6
CONTINUOUS
 62
    30
 10
336.22196576332902
 20
11.99999999999994
 30
0.0
 11
336.22196576332902
 21
63.034248834751807
 31
0.0
  0
LINE
  8
SIZE
  6
CONTINUOUS
 62
    30
 10
336.22196576332902
 20
75.034248834751821
 30
0.0
 11
336.22196576332902
 21
230.29139169189469
 31
0.0
  0
CIRCLE
  8
SIZE
  6
CONTINUOUS
 62
    30
 10
336.22196576332902
 20
-0.0000000000000568
 30
0.0
 40
6.0
  0
LINE
  8
SIZE
  6
CONTINUOUS
 62
    30
 10
336.22196576332902
 20
-0.0000000000000568
 30
0.0
 11
336.22196576332902
 21
11.99999999999994
 31
0.0
  0
CIRCLE
  8
SIZE
  6
CONTINUOUS
 62
    30
 10
336.22196576332902
 20
75.034248834751821
 30
0.0
 40
6.0
  0
LINE
  8
SIZE
  6
CONTINUOUS
 62
    30
 10
336.22196576332902
 20
75.034248834751821
 30
0.0
 11
336.22196576332902
 21
63.034248834751807
 31
0.0
  0
TEXT
  8
SIZE
  6
CONTINUOUS
 62
    30
 10
311.22196576332902
 20
112.03424883475191
 30
0.0
 40
64.0
  1
75
 50
90.0
 41
0.9
 72
     1
 11
311.22196576332902
 21
158.66282026332331
 31
0.0
  0
POINT
  8
DEFPOINTS
  6
CONTINUOUS
 62
    30
 10
-0.4055828954926142
 20
75.034248834751907
 30
0.0
  0
POINT
  8
DEFPOINTS
  6
CONTINUOUS
 62
    30
 10
125.4561247050906
 20
0.0
 30
0.0
  0
POINT
  8
DEFPOINTS
  6
CONTINUOUS
 62
    30
 10
336.22196576332902
 20
-0.0000000000000568
 30
0.0
  0
LINE
  8
SIZE
  6
CONTINUOUS
 62
    30
 10
145.45612470509059
 20
0.0
 30
0.0
 11
356.22196576332908
 21
-0.0000000000000711
 31
0.0
  0
LINE
  8
SIZE
  6
CONTINUOUS
 62
    30
 10
145.45612470509059
 20
-9.9656478500000958
 30
0.0
 11
356.22196576332908
 21
-9.9656478500001526
 31
0.0
  0
LINE
  8
SIZE
  6
CONTINUOUS
 62
    30
 10
336.22196576332902
 20
11.99999999999994
 30
0.0
 11
336.22196576332902
 21
23.99999999999994
 31
0.0
  0
LINE
  8
SIZE
  6
CONTINUOUS
 62
    30
 10
336.22196576332902
 20
-21.965647850000149
 30
0.0
 11
336.22196576332902
 21
-166.25136213571449
 31
0.0
  0
LINE
  8
SIZE
  6
CONTINUOUS
 62
    30
 10
336.22196576332902
 20
-0.0000000000000568
 30
0.0
 11
336.22196576332902
 21
-9.9656478500001526
 31
0.0
  0
CIRCLE
  8
SIZE
  6
CONTINUOUS
 62
    30
 10
336.22196576332902
 20
-0.0000000000000568
 30
0.0
 40
6.0
  0
LINE
  8
SIZE
  6
CONTINUOUS
 62
    30
 10
336.22196576332902
 20
-0.0000000000000568
 30
0.0
 11
336.22196576332902
 21
11.99999999999994
 31
0.0
  0
CIRCLE
  8
SIZE
  6
CONTINUOUS
 62
    30
 10
336.22196576332902
 20
-9.9656478500001526
 30
0.0
 40
6.0
  0
LINE
  8
SIZE
  6
CONTINUOUS
 62
    30
 10
336.22196576332902
 20
-9.9656478500001526
 30
0.0
 11
336.22196576332902
 21
-21.965647850000149
 31
0.0
  0
TEXT
  8
SIZE
  6
CONTINUOUS
 62
    30
 10
311.22196576332902
 20
-141.25136213571429
 30
0.0
 40
64.0
  1
10
 50
90.0
 41
0.9
 72
     1
 11
311.22196576332902
 21
-100.10850499285721
 31
0.0
  0
POINT
  8
DEFPOINTS
  6
CONTINUOUS
 62
    30
 10
125.4561247050906
 20
0.0
 30
0.0
  0
POINT
  8
DEFPOINTS
  6
CONTINUOUS
 62
    30
 10
125.4561247050906
 20
-9.9656478500000958
 30
0.0
  0
POINT
  8
DEFPOINTS
  6
CONTINUOUS
 62
    30
 10
336.22196576332902
 20
-9.9656478500001526
 30
0.0
  0
LINE
  8
SIZE
  6
CONTINUOUS
 62
    30
 10
24.982823924999991
 20
-3.9862591400001288
 30
0.0
 11
234.3377652851382
 21
-3.9862591400001861
 31
0.0
  0
LINE
  8
SIZE
  6
CONTINUOUS
 62
    30
 10
145.45612470509059
 20
-9.9656478500000958
 30
0.0
 11
234.3377652851382
 21
-9.9656478500001242
 31
0.0
  0
LINE
  8
SIZE
  6
CONTINUOUS
 62
    30
 10
214.3377652851382
 20
8.0137408599998139
 30
0.0
 11
214.3377652851382
 21
20.01374085999981
 31
0.0
  0
LINE
  8
SIZE
  6
CONTINUOUS
 62
    30
 10
214.3377652851382
 20
-21.96564785000011
 30
0.0
 11
214.33776528513809
 21
-119.622790707143
 31
0.0
  0
LINE
  8
SIZE
  6
CONTINUOUS
 62
    30
 10
214.3377652851382
 20
-3.9862591400001861
 30
0.0
 11
214.3377652851382
 21
-9.96564785000011
 31
0.0
  0
CIRCLE
  8
SIZE
  6
CONTINUOUS
 62
    30
 10
214.3377652851382
 20
-3.9862591400001861
 30
0.0
 40
6.0
  0
LINE
  8
SIZE
  6
CONTINUOUS
 62
    30
 10
214.3377652851382
 20
-3.9862591400001861
 30
0.0
 11
214.3377652851382
 21
8.0137408599998139
 31
0.0
  0
CIRCLE
  8
SIZE
  6
CONTINUOUS
 62
    30
 10
214.3377652851382
 20
-9.96564785000011
 30
0.0
 40
6.0
  0
LINE
  8
SIZE
  6
CONTINUOUS
 62
    30
 10
214.3377652851382
 20
-9.96564785000011
 30
0.0
 11
214.3377652851382
 21
-21.965647850000121
 31
0.0
  0
TEXT
  8
SIZE
  6
CONTINUOUS
 62
    30
 10
189.3377652851382
 20
-94.622790707142968
 30
0.0
 40
64.0
  1
6
 50
90.0
 41
0.9
 72
     1
 11
189.3377652851382
 21
-76.794219278571546
 31
0.0
  0
POINT
  8
DEFPOINTS
  6
CONTINUOUS
 62
    30
 10
4.982823924999991
 20
-3.9862591400001151
 30
0.0
  0
POINT
  8
DEFPOINTS
  6
CONTINUOUS
 62
    30
 10
125.4561247050906
 20
-9.9656478500000958
 30
0.0
  0
POINT
  8
DEFPOINTS
  6
CONTINUOUS
 62
    30
 10
214.3377652851382
 20
-9.96564785000011
 30
0.0
  0
LINE
  8
SIZE
  6
CONTINUOUS
 62
    30
 10
-19.5944171045324
 20
-94.965544534714923
 30
0.0
 11
-139.0925739172508
 21
-94.965544534714851
 31
0.0
  0
LINE
  8
SIZE
  6
CONTINUOUS
 62
    30
 10
-20.0
 20
-99.981540590048638
 30
0.0
 11
-139.0925739172508
 21
-99.981540590048624
 31
0.0
  0
LINE
  8
SIZE
  6
CONTINUOUS
 62
    30
 10
-119.0925739172508
 20
-82.965544534714866
 30
0.0
 11
-119.0925739172508
 21
-70.965544534714866
 31
0.0
  0
LINE
  8
SIZE
  6
CONTINUOUS
 62
    30
 10
-119.0925739172508
 20
-111.9815405900486
 30
0.0
 11
-119.0925739172508
 21
-212.3815405900487
 31
0.0
  0
LINE
  8
SIZE
  6
CONTINUOUS
 62
    30
 10
-119.0925739172508
 20
-94.965544534714851
 30
0.0
 11
-119.0925739172508
 21
-99.981540590048624
 31
0.0
  0
CIRCLE
  8
SIZE
  6
CONTINUOUS
 62
    30
 10
-119.0925739172508
 20
-94.965544534714851
 30
0.0
 40
6.0
  0
LINE
  8
SIZE
  6
CONTINUOUS
 62
    30
 10
-119.0925739172508
 20
-94.965544534714851
 30
0.0
 11
-119.0925739172508
 21
-82.965544534714866
 31
0.0
  0
CIRCLE
  8
SIZE
  6
CONTINUOUS
 62
    30
 10
-119.0925739172508
 20
-99.981540590048624
 30
0.0
 40
6.0
  0
LINE
  8
SIZE
  6
CONTINUOUS
 62
    30
 10
-119.0925739172508
 20
-99.981540590048624
 30
0.0
 11
-119.0925739172508
 21
-111.9815405900486
 31
0.0
  0
TEXT
  8
SIZE
  6
CONTINUOUS
 62
    30
 10
-144.0925739172508
 20
-187.3815405900487
 30
0.0
 40
64.0
  1
5
 50
90.0
 41
0.9
 72
     1
 11
-144.0925739172508
 21
-168.18154059004871
 31
0.0
  0
POINT
  8
DEFPOINTS
  6
CONTINUOUS
 62
    30
 10
0.4055828954676031
 20
-94.965544534714923
 30
0.0
  0
POINT
  8
DEFPOINTS
  6
CONTINUOUS
 62
    30
 10
0.0
 20
-99.981540590048638
 30
0.0
  0
POINT
  8
DEFPOINTS
  6
CONTINUOUS
 62
    30
 10
-119.0925739172508
 20
-99.981540590048624
 30
0.0
  0
TEXT
  8
NOTE
  6
CONTINUOUS
 62
     4
 10
107.6499595887439
 20
121.06550566952249
 30
0.0
 40
64.0
  1
EL
 41
0.9
  0
TEXT
  8
NOTE
  6
CONTINUOUS
 62
     4
 10
107.4972429677304
 20
-247.21383823298791
 30
0.0
 40
64.0
  1
2-φ4×10
 41
0.9
  0
LINE
  8
NOTE
  6
CONTINUOUS
 62
     4
 10
4.5056605286165166
 20
41.451388780050912
 30
0.0
 11
0.0
 21
37.175441809979027
 31
0.0
  0
LINE
  8
NOTE
  6
CONTINUOUS
 62
     4
 10
0.0
 20
37.175441809979027
 30
0.0
 11
6.0399921490826216
 21
38.625681145061442
 31
0.0
  0
LINE
  8
NOTE
  6
CONTINUOUS
 62
     4
 10
0.0
 20
37.175441809979027
 30
0.0
 11
10.545652677699151
 21
42.90162811513332
 31
0.0
  0
LINE
  8
NOTE
  6
CONTINUOUS
 62
     4
 10
10.545652677699151
 20
42.90162811513332
 30
0.0
 11
95.649959588743911
 21
89.065505669522494
 31
0.0
  0
LINE
  8
NOTE
  6
CONTINUOUS
 62
     4
 10
95.649959588743911
 20
89.065505669522494
 30
0.0
 11
192.67853101731529
 21
89.065505669522494
 31
0.0
  0
LINE
  8
NOTE
  6
CONTINUOUS
 62
     4
 10
0.402497593120188
 20
-10.184863416571771
 30
0.0
 11
-0.0000000000000284
 21
-3.9862591400001288
 31
0.0
  0
LINE
  8
NOTE
  6
CONTINUOUS
 62
     4
 10
-0.0000000000000284
 20
-3.9862591400001288
 30
0.0
 11
3.447883065113643
 21
-9.1531539191980169
 31
0.0
  0
LINE
  8
NOTE
  6
CONTINUOUS
 62
     4
 10
-0.0000000000000284
 20
-3.9862591400001288
 30
0.0
 11
3.8503806582338602
 21
-15.35175819576966
 31
0.0
  0
LINE
  8
NOTE
  6
CONTINUOUS
 62
     4
 10
3.8503806582338602
 20
-15.35175819576966
 30
0.0
 11
97.805173060577047
 21
-292.81250178533202
 31
0.0
  0
LINE
  8
NOTE
  6
CONTINUOUS
 62
     4
 10
97.805173060577047
 20
-292.81250178533202
 30
0.0
 11
502.58231591771982
 21
-292.81250178533202
 31
0.0
  0
LINE
  8
SIZE
  6
CONTINUOUS
 62
    30
 10
64.50842863250007
 20
40.180364780038637
 30
0.0
 11
64.508428632500099
 21
435.41205436948121
 31
0.0
  0
LINE
  8
SIZE
  6
CONTINUOUS
 62
    30
 10
0.0
 20
157.2108473189854
 30
0.0
 11
0.0
 21
435.41205436948121
 31
0.0
  0
LINE
  8
SIZE
  6
CONTINUOUS
 62
    30
 10
-12.0
 20
415.41205436948121
 30
0.0
 11
-23.999999999999972
 21
415.41205436948121
 31
0.0
  0
LINE
  8
SIZE
  6
CONTINUOUS
 62
    30
 10
76.508428632500042
 20
415.41205436948121
 30
0.0
 11
314.05128577535731
 21
415.41205436948121
 31
0.0
  0
LINE
  8
SIZE
  6
CONTINUOUS
 62
    30
 10
0.0
 20
415.41205436948121
 30
0.0
 11
64.508428632500099
 21
415.41205436948121
 31
0.0
  0
CIRCLE
  8
SIZE
  6
CONTINUOUS
 62
    30
 10
0.0
 20
415.41205436948121
 30
0.0
 40
6.0
  0
LINE
  8
SIZE
  6
CONTINUOUS
 62
    30
 10
0.0
 20
415.41205436948121
 30
0.0
 11
-12.0
 21
415.41205436948121
 31
0.0
  0
CIRCLE
  8
SIZE
  6
CONTINUOUS
 62
    30
 10
64.508428632500099
 20
415.41205436948121
 30
0.0
 40
6.0
  0
LINE
  8
SIZE
  6
CONTINUOUS
 62
    30
 10
64.508428632500099
 20
415.41205436948121
 30
0.0
 11
76.508428632500042
 21
415.41205436948121
 31
0.0
  0
TEXT
  8
SIZE
  6
CONTINUOUS
 62
    30
 10
113.5084286325001
 20
440.41205436948121
 30
0.0
 40
64.0
  1
64.5
 41
0.9
 72
     1
 11
201.27985720392871
 21
440.41205436948121
 31
0.0
  0
POINT
  8
DEFPOINTS
  6
CONTINUOUS
 62
    30
 10
64.50842863250007
 20
20.180364780038641
 30
0.0
  0
POINT
  8
DEFPOINTS
  6
CONTINUOUS
 62
    30
 10
0.0
 20
137.21084731898549
 30
0.0
  0
POINT
  8
DEFPOINTS
  6
CONTINUOUS
 62
    30
 10
0.0
 20
415.41205436948121
 30
0.0
  0
LINE
  8
SIZE
  6
CONTINUOUS
 62
    30
 10
38.436448522500022
 20
47.345524176632807
 30
0.0
 11
651.94490083458231
 21
47.345524176632637
 31
0.0
  0
LINE
  8
SIZE
  6
CONTINUOUS
 62
    30
 10
38.436448522500022
 20
-47.34552417665703
 30
0.0
 11
651.94490083458231
 21
-47.345524176657193
 31
0.0
  0
LINE
  8
SIZE
  6
CONTINUOUS
 62
    30
 10
631.94490083458231
 20
-35.345524176657193
 30
0.0
 11
631.94490083458231
 21
35.345524176632637
 31
0.0
  0
LINE
  8
SIZE
  6
CONTINUOUS
 62
    30
 10
631.94490083458231
 20
47.345524176632637
 30
0.0
 11
631.94490083458231
 21
262.94552417663272
 31
0.0
  0
CIRCLE
  8
SIZE
  6
CONTINUOUS
 62
    30
 10
631.94490083458231
 20
-47.345524176657193
 30
0.0
 40
6.0
  0
LINE
  8
SIZE
  6
CONTINUOUS
 62
    30
 10
631.94490083458231
 20
-47.345524176657193
 30
0.0
 11
631.94490083458231
 21
-35.345524176657193
 31
0.0
  0
CIRCLE
  8
SIZE
  6
CONTINUOUS
 62
    30
 10
631.94490083458231
 20
47.345524176632637
 30
0.0
 40
6.0
  0
LINE
  8
SIZE
  6
CONTINUOUS
 62
    30
 10
631.94490083458231
 20
47.345524176632637
 30
0.0
 11
631.94490083458231
 21
35.345524176632637
 31
0.0
  0
TEXT
  8
SIZE
  6
CONTINUOUS
 62
    30
 10
596.27823416791568
 20
74.19695274806115
 30
0.0
 40
64.0
  1
φ95
 50
90.0
 41
0.9
 72
     1
 11
596.27823416791568
 21
161.14552417663259
 31
0.0
  0
POINT
  8
DEFPOINTS
  6
CONTINUOUS
 62
    30
 10
18.436448522500029
 20
47.345524176632807
 30
0.0
  0
POINT
  8
DEFPOINTS
  6
CONTINUOUS
 62
    30
 10
18.436448522500029
 20
-47.34552417665703
 30
0.0
  0
POINT
  8
DEFPOINTS
  6
CONTINUOUS
 62
    30
 10
631.94490083458231
 20
-47.345524176657193
 30
0.0
  0
LINE
  8
SIZE
  6
CONTINUOUS
 62
    30
 10
81.917360191499867
 20
22.771505337250179
 30
0.0
 11
518.28708941524485
 21
22.771505337250051
 31
0.0
  0
LINE
  8
SIZE
  6
CONTINUOUS
 62
    30
 10
81.917360191499867
 20
-22.771505337250119
 30
0.0
 11
518.28708941524485
 21
-22.77150533725025
 31
0.0
  0
LINE
  8
SIZE
  6
CONTINUOUS
 62
    30
 10
498.28708941524468
 20
-34.771505337250261
 30
0.0
 11
498.28708941524468
 21
-46.771505337250261
 31
0.0
  0
LINE
  8
SIZE
  6
CONTINUOUS
 62
    30
 10
498.28708941524468
 20
34.771505337250069
 30
0.0
 11
498.28708941524479
 21
247.62864819439301
 31
0.0
  0
LINE
  8
SIZE
  6
CONTINUOUS
 62
    30
 10
498.28708941524468
 20
-22.771505337250229
 30
0.0
 11
498.28708941524468
 21
22.771505337250051
 31
0.0
  0
CIRCLE
  8
SIZE
  6
CONTINUOUS
 62
    30
 10
498.28708941524468
 20
-22.771505337250229
 30
0.0
 40
6.0
  0
LINE
  8
SIZE
  6
CONTINUOUS
 62
    30
 10
498.28708941524468
 20
-22.771505337250229
 30
0.0
 11
498.28708941524468
 21
-34.771505337250233
 31
0.0
  0
CIRCLE
  8
SIZE
  6
CONTINUOUS
 62
    30
 10
498.28708941524468
 20
22.771505337250051
 30
0.0
 40
6.0
  0
LINE
  8
SIZE
  6
CONTINUOUS
 62
    30
 10
498.28708941524468
 20
22.771505337250051
 30
0.0
 11
498.28708941524468
 21
34.771505337250069
 31
0.0
  0
TEXT
  8
SIZE
  6
CONTINUOUS
 62
    30
 10
462.62042274857811
 20
61.622933908678732
 30
0.0
 40
64.0
  1
φ46
 50
90.0
 41
0.9
 72
     1
 11
462.62042274857811
 21
147.20007676582159
 31
0.0
  0
POINT
  8
DEFPOINTS
  6
CONTINUOUS
 62
    30
 10
61.917360191499881
 20
22.771505337250179
 30
0.0
  0
POINT
  8
DEFPOINTS
  6
CONTINUOUS
 62
    30
 10
61.917360191499881
 20
-22.771505337250119
 30
0.0
  0
POINT
  8
DEFPOINTS
  6
CONTINUOUS
 62
    30
 10
498.28708941524468
 20
-22.771505337250229
 30
0.0
  0
LINE
  8
NOTE
  6
CONTINUOUS
 62
     4
 10
3.7276681819328128
 20
37.175441809979027
 30
0.0
 11
-3.7276681819328128
 21
37.175441809979027
 31
0.0
  0
LINE
  8
SIZE
  6
CONTINUOUS
 62
    30
 10
-20.405582895492611
 20
75.034248834751907
 30
0.0
 11
-139.09257391725069
 21
75.034248834751963
 31
0.0
  0
LINE
  8
SIZE
  6
CONTINUOUS
 62
    30
 10
-20.398625914000089
 20
-94.566979333372387
 30
0.0
 11
-139.0925739172508
 21
-94.566979333372345
 31
0.0
  0
LINE
  8
SIZE
  6
CONTINUOUS
 62
    30
 10
-119.0925739172508
 20
-82.566979333372345
 30
0.0
 11
-119.0925739172507
 21
63.034248834751928
 31
0.0
  0
LINE
  8
SIZE
  6
CONTINUOUS
 62
    30
 10
-119.0925739172507
 20
75.034248834751963
 30
0.0
 11
-119.0925739172507
 21
339.45710597760922
 31
0.0
  0
CIRCLE
  8
SIZE
  6
CONTINUOUS
 62
    30
 10
-119.0925739172508
 20
-94.566979333372345
 30
0.0
 40
6.0
  0
LINE
  8
SIZE
  6
CONTINUOUS
 62
    30
 10
-119.0925739172508
 20
-94.566979333372345
 30
0.0
 11
-119.0925739172508
 21
-82.566979333372345
 31
0.0
  0
CIRCLE
  8
SIZE
  6
CONTINUOUS
 62
    30
 10
-119.0925739172507
 20
75.034248834751963
 30
0.0
 40
6.0
  0
LINE
  8
SIZE
  6
CONTINUOUS
 62
    30
 10
-119.0925739172507
 20
75.034248834751963
 30
0.0
 11
-119.0925739172507
 21
63.034248834751928
 31
0.0
  0
TEXT
  8
SIZE
  6
CONTINUOUS
 62
    30
 10
-144.0925739172508
 20
108.194248834752
 30
0.0
 40
64.0
  1
□170
 50
90.0
 41
0.9
 72
     1
 11
-144.0925739172508
 21
213.24567740618059
 31
0.0
  0
POINT
  8
DEFPOINTS
  6
CONTINUOUS
 62
    30
 10
-0.4055828954926142
 20
75.034248834751907
 30
0.0
  0
POINT
  8
DEFPOINTS
  6
CONTINUOUS
 62
    30
 10
-0.3986259140000925
 20
-94.566979333372387
 30
0.0
  0
POINT
  8
DEFPOINTS
  6
CONTINUOUS
 62
    30
 10
-119.0925739172508
 20
-94.566979333372345
 30
0.0
  0
ARC
  8
DETAIL
  6
CONTINUOUS
 62
     5
 10
9914.8230459649967
 20
9.9656478499998684
 30
0.0
 40
9961.4124496637505
 50
180.45283382484419
 51
180.46429822015489
  0
ARC
  8
DETAIL
  6
CONTINUOUS
 62
     5
 10
9914.8230459649967
 20
9.9656478499998684
 30
0.0
 40
9961.4124496637505
 50
180.47576263405489
 51
180.4872270670034
  0
ARC
  8
DETAIL
  6
CONTINUOUS
 62
     5
 10
9914.8230459649967
 20
9.9656478499998684
 30
0.0
 40
9961.4124496637505
 50
180.49869151946589
 51
180.51015599188861
  0
ARC
  8
DETAIL
  6
CONTINUOUS
 62
     5
 10
-47.494547880838923
 20
-78.230335622499979
 30
0.0
 40
0.4982823925006718
 50
180.50722390301769
 51
270.0
  0
ARC
  8
DETAIL
  6
CONTINUOUS
 62
     5
 10
-47.503320578689568
 20
-77.23377083750006
 30
0.0
 40
0.4982823925
 50
90.0
 51
180.5014924122782
  0
ARC
  8
DETAIL
  6
CONTINUOUS
 62
     5
 10
-47.529040489226077
 20
-74.244076482500063
 30
0.0
 40
0.4982823924996093
 50
180.48429796995319
 51
270.0
  0
ARC
  8
DETAIL
  6
CONTINUOUS
 62
     5
 10
-47.537414399257052
 20
-73.247511697499931
 30
0.0
 40
0.4982823925
 50
90.0
 51
180.47856649894311
  0
ARC
  8
DETAIL
  6
CONTINUOUS
 62
     5
 10
-47.561937952432231
 20
-70.257817342499933
 30
0.0
 40
0.4982823925006178
 50
180.46137211442311
 51
270.0
  0
ARC
  8
DETAIL
  6
CONTINUOUS
 62
     5
 10
-47.56991307866781
 20
-69.261252557500015
 30
0.0
 40
0.4982823925
 50
90.0
 51
180.45564066223099
  0
ARC
  8
DETAIL
  6
CONTINUOUS
 62
     5
 10
9914.8230459649967
 20
9.9656478499998684
 30
0.0
 40
9963.2062662767476
 50
180.47856649894311
 51
180.48429796995319
  0
ARC
  8
DETAIL
  6
CONTINUOUS
 62
     5
 10
9914.8230459649967
 20
9.9656478499998684
 30
0.0
 40
9963.2062662767476
 50
180.5014924122782
 51
180.50722390301769
  0
ARC
  8
DETAIL
  6
CONTINUOUS
 62
     5
 10
9914.8230459649967
 20
9.9656478499998684
 30
0.0
 40
9963.2062662767512
 50
180.45564066223099
 51
180.46137211442971
  0
LINE
  8
DETAIL
  6
CONTINUOUS
 62
     5
 10
-47.56991307866781
 20
-68.76297016500007
 30
0.0
 11
-25.412402017501218
 21
-68.76297016500007
 31
0.0
  0
LINE
  8
DETAIL
  6
CONTINUOUS
 62
     5
 10
-47.561937952432231
 20
-70.75609973500012
 30
0.0
 11
-25.412402017501218
 21
-70.75609973500012
 31
0.0
  0
LINE
  8
DETAIL
  6
CONTINUOUS
 62
     5
 10
-47.537414399257052
 20
-72.749229304999972
 30
0.0
 11
-25.412402017501218
 21
-72.749229304999972
 31
0.0
  0
LINE
  8
DETAIL
  6
CONTINUOUS
 62
     5
 10
-47.529040489226077
 20
-74.742358875000022
 30
0.0
 11
-25.412402017501218
 21
-74.742358875000022
 31
0.0
  0
LINE
  8
DETAIL
  6
CONTINUOUS
 62
     5
 10
-47.503320578689568
 20
-76.735488445000101
 30
0.0
 11
-25.412402017501218
 21
-76.735488445000101
 31
0.0
  0
LINE
  8
DETAIL
  6
CONTINUOUS
 62
     5
 10
-47.494547880838923
 20
-78.728618014999924
 30
0.0
 11
-25.412402017501218
 21
-78.728618014999924
 31
0.0
  0
LINE
  8
DETAIL
  6
CONTINUOUS
 62
     5
 10
-24.914119625001259
 20
-69.261252557500015
 30
0.0
 11
-24.914119625001259
 21
-70.257817342499933
 31
0.0
  0
LINE
  8
DETAIL
  6
CONTINUOUS
 62
     5
 10
-24.914119625001259
 20
-73.247511697499931
 30
0.0
 11
-24.914119625001259
 21
-74.244076482500063
 31
0.0
  0
LINE
  8
DETAIL
  6
CONTINUOUS
 62
     5
 10
-24.914119625001259
 20
-77.23377083750006
 30
0.0
 11
-24.914119625001259
 21
-78.230335622499979
 31
0.0
  0
ARC
  8
DETAIL
  6
CONTINUOUS
 62
     5
 10
-25.412402017501218
 20
-69.261252557500015
 30
0.0
 40
0.4982823925
 50
0.0
 51
90.0
  0
ARC
  8
DETAIL
  6
CONTINUOUS
 62
     5
 10
-25.412402017501218
 20
-70.257817342499933
 30
0.0
 40
0.4982823925
 50
270.0
 51
0.0
  0
ARC
  8
DETAIL
  6
CONTINUOUS
 62
     5
 10
-25.412402017501218
 20
-73.247511697499931
 30
0.0
 40
0.4982823925
 50
0.0
 51
90.0
  0
ARC
  8
DETAIL
  6
CONTINUOUS
 62
     5
 10
-25.412402017501218
 20
-74.244076482500063
 30
0.0
 40
0.4982823925
 50
270.0
 51
0.0
  0
ARC
  8
DETAIL
  6
CONTINUOUS
 62
     5
 10
-25.412402017501218
 20
-77.23377083750006
 30
0.0
 40
0.4982823925
 50
0.0
 51
90.0
  0
ARC
  8
DETAIL
  6
CONTINUOUS
 62
     5
 10
-25.412402017501218
 20
-78.230335622499979
 30
0.0
 40
0.4982823925
 50
270.0
 51
0.0
  0
CIRCLE
  8
ARRANGE
  6
CONTINUOUS
 62
     1
 10
0.0
 20
0.0
 30
0.0
 40
40.0
  0
POINT
  8
ARRANGE
  6
CONTINUOUS
 62
     1
 10
0.0
 20
0.0
 30
0.0
  0
ARC
  8
DETAIL
  6
CONTINUOUS
 62
     5
 10
9914.8230459649967
 20
9.9656478499998684
 30
0.0
 40
9962.1598732524999
 50
180.44706808896399
 51
180.59271694977829
  0
ARC
  8
DETAIL
  6
CONTINUOUS
 62
     5
 10
9914.8230459649967
 20
9.9656478499998684
 30
0.0
 40
9961.7612473384997
 50
180.44250039016279
 51
180.44708597903411
  0
ARC
  8
DETAIL
  6
CONTINUOUS
 62
     5
 10
9914.8230459649967
 20
9.9656478499998684
 30
0.0
 40
9962.1598732524999
 50
179.63653061229621
 51
180.44248268360229
  0
ARC
  8
DETAIL
  6
CONTINUOUS
 62
     5
 10
9914.8230459649967
 20
9.9656478499998684
 30
0.0
 40
9965.6478499999994
 50
179.63653061229621
 51
180.44232781160349
  0
LINE
  8
DETAIL
  6
CONTINUOUS
 62
     5
 10
-14.94847177499997
 20
-99.465787192089579
 30
0.0
 11
-14.94847177499997
 21
-99.457165543000073
 31
0.0
  0
LINE
  8
DETAIL
  6
CONTINUOUS
 62
     5
 10
-14.751993559884911
 20
-99.453736003017767
 30
0.0
 11
-14.94847177499997
 21
-99.457165543000073
 31
0.0
  0
ARC
  8
DETAIL
  6
CONTINUOUS
 62
     5
 10
-14.75912446585005
 20
-99.045206671655791
 30
0.0
 40
0.408591561849978
 50
271.00000000000819
 51
0.0
  0
LINE
  8
DETAIL
  6
CONTINUOUS
 62
     5
 10
-14.35053290400009
 20
-99.045206671655791
 30
0.0
 11
-14.35053290400009
 21
-98.872559629344451
 31
0.0
  0
ARC
  8
DETAIL
  6
CONTINUOUS
 62
     5
 10
-14.75912446585005
 20
-98.872559629344451
 30
0.0
 40
0.408591561849968
 50
0.0
 51
88.999999999988461
  0
LINE
  8
DETAIL
  6
CONTINUOUS
 62
     5
 10
-14.751993559884911
 20
-98.464030297982504
 30
0.0
 11
-14.94847177499997
 21
-98.460600758000183
 31
0.0
  0
LINE
  8
DETAIL
  6
CONTINUOUS
 62
     5
 10
-14.94847177499997
 20
-98.460600758000183
 30
0.0
 11
-14.94847177499997
 21
-95.149172899426162
 31
0.0
  0
ARC
  8
DETAIL
  6
CONTINUOUS
 62
     5
 10
-14.450189382499961
 20
-95.149172899426162
 30
0.0
 40
0.4982823925002252
 50
119.6406397662401
 51
180.0
  0
ARC
  8
DETAIL
  6
CONTINUOUS
 62
     5
 10
-17.439883737500001
 20
-95.166568002425379
 30
0.0
 40
0.4982823925
 50
0.0
 51
88.999999999998238
  0
LINE
  8
DETAIL
  6
CONTINUOUS
 62
     5
 10
-16.941601344999981
 20
-95.166568002425379
 30
0.0
 11
-16.941601344999981
 21
-99.48325819754848
 31
0.0
  0
ARC
  8
DETAIL
  6
CONTINUOUS
 62
     5
 10
-16.443318952499961
 20
-99.48325819754848
 30
0.0
 40
0.4982823925
 50
180.0
 51
270.0
  0
LINE
  8
DETAIL
  6
CONTINUOUS
 62
     5
 10
-15.438057940684081
 20
-99.963993693789348
 30
0.0
 11
-16.443318952499961
 21
-99.981540590048638
 31
0.0
  0
ARC
  8
DETAIL
  6
CONTINUOUS
 62
     5
 10
-15.446754167499989
 20
-99.465787192089579
 30
0.0
 40
0.4982823925000061
 50
271.00000000000182
 51
0.0
  0
ARC
  8
DETAIL
  6
CONTINUOUS
 62
     5
 10
-0.3986259140000925
 20
-94.566979333372387
 30
0.0
 40
0.398625914000016
 50
269.00000000000801
 51
0.0
  0
LINE
  8
DETAIL
  6
CONTINUOUS
 62
     5
 10
-49.31244702019643
 20
-94.111872045951372
 30
0.0
 11
-0.4055828954687968
 21
-94.965544534749057
 31
0.0
  0
ARC
  8
DETAIL
  6
CONTINUOUS
 62
     5
 10
-49.295054566464607
 20
-93.115459042595944
 30
0.0
 40
0.9965647850021184
 50
180.59271694977829
 51
268.99999999992008
  0
ARC
  8
DETAIL
  6
CONTINUOUS
 62
     5
 10
9914.8230459649967
 20
9.9656478499998684
 30
0.0
 40
9965.6478499999994
 50
180.44691161199501
 51
180.59271694977829
  0
LINE
  8
DETAIL
  6
CONTINUOUS
 62
     5
 10
0.0
 20
-67.766405380000037
 30
0.0
 11
-50.521644416297761
 21
-67.766405380000037
 31
0.0
  0
ARC
  8
DETAIL
  6
CONTINUOUS
 62
     5
 10
9914.8230459649967
 20
9.9656478499998684
 30
0.0
 40
9965.2492240859992
 50
180.44234550580009
 51
180.44692948950589
  0
LINE
  8
DETAIL
  6
CONTINUOUS
 62
     5
 10
0.0
 20
-66.969153552000193
 30
0.0
 11
-50.527831276740983
 21
-66.969153552000193
 31
0.0
  0
ARC
  8
DETAIL
  6
CONTINUOUS
 62
     5
 10
-49.627736161450507
 20
73.178356363834155
 30
0.0
 40
0.996564785000024
 50
90.999999987903848
 51
179.63653063299739
  0
ARC
  8
DETAIL
  6
CONTINUOUS
 62
     5
 10
-0.3986259140000925
 20
74.635672639468794
 30
0.0
 40
0.3986259140001037
 50
0.0015801942957956
 51
90.999972424883822
  0
LINE
  8
DETAIL
  6
CONTINUOUS
 62
     5
 10
-49.645128614783403
 20
74.174769367134331
 30
0.0
 11
-0.4055828954926142
 21
75.034248834751907
 31
0.0
  0
LINE
  8
DETAIL
  6
CONTINUOUS
 62
     5
 10
0.0
 20
74.635683633372082
 30
0.0
 11
0.0
 21
-94.566979333372387
 31
0.0
  0
ARC
  8
DETAIL
  6
CONTINUOUS
 62
     5
 10
34.363671458860722
 20
29.93636756073613
 30
0.0
 40
2.175390527730559
 50
10.107304922668829
 51
90.533171833449259
  0
ARC
  8
DETAIL
  6
CONTINUOUS
 62
     5
 10
24.316123003867919
 20
37.17544180997902
 30
0.0
 40
4.8831674464999786
 50
180.0
 51
268.97965286622292
  0
LINE
  8
DETAIL
  6
CONTINUOUS
 62
     5
 10
34.343428428281918
 20
32.111663900974008
 30
0.0
 11
24.229166118128092
 21
32.293048666183722
 31
0.0
  0
LINE
  8
DETAIL
  6
CONTINUOUS
 62
     5
 10
26.78179657365877
 20
-44.338311663113139
 30
0.0
 11
23.754332455461849
 21
-44.325792925607047
 31
0.0
  0
ARC
  8
DETAIL
  6
CONTINUOUS
 62
     5
 10
26.39396732783473
 20
-39.676788756985957
 30
0.0
 40
0.4981675346215885
 50
270.66467644869698
 51
289.08669165720158
  0
LINE
  8
DETAIL
  6
CONTINUOUS
 62
     5
 10
26.556933293861899
 20
-40.147548092116388
 30
0.0
 11
27.206218630499961
 21
-39.922792888873687
 31
0.0
  0
LINE
  8
DETAIL
  6
CONTINUOUS
 62
     5
 10
21.258973644271862
 20
-40.2340490797352
 30
0.0
 11
26.39968028853713
 21
-40.17492466004353
 31
0.0
  0
LINE
  8
DETAIL
  6
CONTINUOUS
 62
     5
 10
23.920449644346149
 20
-39.63737668781063
 30
0.0
 11
27.206218630499961
 21
-39.43869161206851
 31
0.0
  0
LINE
  8
DETAIL
  6
CONTINUOUS
 62
     5
 10
36.505301695499952
 20
-44.699307587658147
 30
0.0
 11
19.433013307500001
 21
-44.845415324980991
 31
0.0
  0
ARC
  8
DETAIL
  6
CONTINUOUS
 62
     5
 10
25.711384544771821
 20
-43.29571577163243
 30
0.0
 40
1.4948421031914161
 50
270.50000000000131
 51
359.99989140460661
  0
LINE
  8
DETAIL
  6
CONTINUOUS
 62
     5
 10
27.206218630499961
 20
-34.21680082651541
 30
0.0
 11
27.206218630499961
 21
-43.295718604865769
 31
0.0
  0
LINE
  8
DETAIL
  6
CONTINUOUS
 62
     5
 10
36.011367581937293
 20
-47.345500000000001
 30
0.0
 11
0.0
 21
-47.345549538463317
 31
0.0
  0
ARC
  8
DETAIL
  6
CONTINUOUS
 62
     5
 10
36.007019302950987
 20
-46.847236580566708
 30
0.0
 40
0.4982823924999741
 50
270.49999999999147
 51
0.0
  0
LINE
  8
DETAIL
  6
CONTINUOUS
 62
     5
 10
19.433013307500001
 20
-34.430410152027093
 30
0.0
 11
25.724416289911691
 21
-34.461973837523708
 31
0.0
  0
LINE
  8
DETAIL
  6
CONTINUOUS
 62
     5
 10
19.433013307500001
 20
-31.625272419743169
 30
0.0
 11
24.182868306024321
 21
-31.563351242233239
 31
0.0
  0
LINE
  8
DETAIL
  6
CONTINUOUS
 62
     5
 10
19.433013307500001
 20
-30.262755957108311
 30
0.0
 11
22.595324921775159
 21
-30.200304507874758
 31
0.0
  0
LINE
  8
DETAIL
  6
CONTINUOUS
 62
     5
 10
19.433013307500001
 20
11.743881815076071
 30
0.0
 11
19.433013307500001
 21
-47.33682728753422
 31
0.0
  0
LINE
  8
DETAIL
  6
CONTINUOUS
 62
     5
 10
22.22184196817312
 20
-28.679442213150651
 30
0.0
 11
19.433013307500001
 21
-28.734267563875619
 31
0.0
  0
ARC
  8
DETAIL
  6
CONTINUOUS
 62
     5
 10
24.714810126877069
 20
-34.216803291418387
 30
0.0
 40
2.491408503622877
 50
0.0000566867999376
 51
84.784164044602377
  0
ARC
  8
DETAIL
  6
CONTINUOUS
 62
     5
 10
25.21308906049995
 20
-28.758405456698029
 30
0.0
 40
2.9896943550000001
 50
180.0
 51
264.78409142950159
  0
LINE
  8
DETAIL
  6
CONTINUOUS
 62
     5
 10
22.22339470549997
 20
-28.758405456698029
 30
0.0
 11
22.22339470549997
 21
-26.667054772616211
 31
0.0
  0
ARC
  8
DETAIL
  6
CONTINUOUS
 62
     5
 10
19.233700350499991
 20
-26.667054772616211
 30
0.0
 40
2.9896943550000001
 50
0.0
 51
63.896118862700163
  0
ARC
  8
DETAIL
  6
CONTINUOUS
 62
     5
 10
23.618585404499921
 20
-17.717925198507832
 30
0.0
 40
6.9759534949999997
 50
233.13010235415439
 51
243.89611886270009
  0
LINE
  8
DETAIL
  6
CONTINUOUS
 62
     5
 10
36.505301695450953
 20
-46.847236580566708
 30
0.0
 11
36.505301695499952
 21
6.758301646293603
 31
0.0
  0
LINE
  8
DETAIL
  6
CONTINUOUS
 62
     5
 10
33.683889734174393
 20
6.7148138887514506
 30
0.0
 11
37.816489660958503
 21
6.7811885173587143
 31
0.0
  0
LINE
  8
DETAIL
  6
CONTINUOUS
 62
     5
 10
29.582320863339248
 20
6.7864070396183251
 30
0.0
 11
33.683889734173484
 21
6.7148138887514506
 31
0.0
  0
LINE
  8
DETAIL
  6
CONTINUOUS
 62
     5
 10
28.70106630178989
 20
7.7447965749305894
 30
0.0
 11
28.701065807999949
 21
7.6831826518230173
 31
0.0
  0
ARC
  8
DETAIL
  6
CONTINUOUS
 62
     5
 10
29.597974114499952
 20
7.6831787419005204
 30
0.0
 40
0.8969083064999781
 50
179.99999997269421
 51
268.99999726049907
  0
ARC
  8
DETAIL
  6
CONTINUOUS
 62
     5
 10
37.800835915999983
 20
7.6779602110707401
 30
0.0
 40
0.8969083065000141
 50
271.00003428830212
 51
0.0000358687979362
  0
ARC
  8
DETAIL
  6
CONTINUOUS
 62
     5
 10
37.800835915999983
 20
7.744797136420857
 30
0.0
 40
0.8969083065000399
 50
359.99996413120209
 51
88.999965711697982
  0
ARC
  8
DETAIL
  6
CONTINUOUS
 62
     5
 10
34.311485082500042
 20
8.8951102045580228
 30
0.0
 40
0.1993129570000458
 50
180.0
 51
269.00000000087118
  0
LINE
  8
DETAIL
  6
CONTINUOUS
 62
     5
 10
29.582320863320291
 20
8.6415688300738225
 30
0.0
 11
37.816489660958503
 21
8.6415688301326554
 31
0.0
  0
LINE
  8
DETAIL
  6
CONTINUOUS
 62
     5
 10
34.112172125499967
 20
8.8951102045580228
 30
0.0
 11
34.112172125499967
 21
9.6716522284827988
 31
0.0
  0
ARC
  8
DETAIL
  6
CONTINUOUS
 62
     5
 10
36.007019302999993
 20
10.12390602165965
 30
0.0
 40
0.4982823925000159
 50
268.99999988909082
 51
352.41745689830162
  0
LINE
  8
DETAIL
  6
CONTINUOUS
 62
     5
 10
35.9983230751875
 20
9.6256995199596531
 30
0.0
 11
34.112172125400257
 21
9.6516403813482157
 31
0.0
  0
ARC
  8
DETAIL
  6
CONTINUOUS
 62
     5
 10
37.800835915999983
 20
17.238351760088339
 30
0.0
 40
0.8969083065000777
 50
6.3570907447954612
 51
88.999965711697982
  0
LINE
  8
DETAIL
  6
CONTINUOUS
 62
     5
 10
36.505301695499952
 20
18.158010324765879
 30
0.0
 11
37.816489660958503
 21
18.13512345370054
 31
0.0
  0
LINE
  8
DETAIL
  6
CONTINUOUS
 62
     5
 10
23.563541974004579
 20
16.191674283856631
 30
0.0
 11
34.531284714508558
 21
17.065585639939631
 31
0.0
  0
ARC
  8
DETAIL
  6
CONTINUOUS
 62
     5
 10
23.91749708986794
 20
11.721123027839891
 30
0.0
 40
4.4845415325000282
 50
94.526939837542741
 51
180.0
  0
ARC
  8
DETAIL
  6
CONTINUOUS
 62
     5
 10
34.358206096255003
 20
19.238218094242061
 30
0.0
 40
2.1826462589463231
 50
272.46853450679203
 51
349.64473945432047
  0
LINE
  8
DETAIL
  6
CONTINUOUS
 62
     5
 10
36.505301695499952
 20
8.6644557011829875
 30
0.0
 11
36.505301695499952
 21
32.311261295702479
 31
0.0
  0
ARC
  8
DETAIL
  6
CONTINUOUS
 62
     5
 10
34.363671458860722
 20
31.929497130736191
 30
0.0
 40
2.175390527730559
 50
10.107304922668829
 51
90.533171833449259
  0
ARC
  8
DETAIL
  6
CONTINUOUS
 62
     5
 10
34.358462381776803
 20
26.37591737868695
 30
0.0
 40
2.1823019116422628
 50
10.34321037203607
 51
87.671128047419771
  0
LINE
  8
DETAIL
  6
CONTINUOUS
 62
     5
 10
34.447140857400477
 20
28.55641680806502
 30
0.0
 11
23.9468378388612
 21
29.358082158636531
 31
0.0
  0
LINE
  8
DETAIL
  6
CONTINUOUS
 62
     5
 10
34.343428428281918
 20
34.104793470974073
 30
0.0
 11
24.229166118128092
 21
34.286178236183787
 31
0.0
  0
ARC
  8
DETAIL
  6
CONTINUOUS
 62
     5
 10
24.316123003867919
 20
34.227266153667188
 30
0.0
 40
4.8831674464999786
 50
180.0
 51
265.66291730094912
  0
ARC
  8
DETAIL
  6
CONTINUOUS
 62
     5
 10
24.316128616873609
 20
39.168584435015362
 30
0.0
 40
4.8831805994226443
 50
180.0001531785407
 51
268.97958974535987
  0
LINE
  8
DETAIL
  6
CONTINUOUS
 62
     5
 10
19.432955557367961
 20
34.227266153667188
 30
0.0
 11
19.432936307335641
 21
46.842856679461761
 31
0.0
  0
ARC
  8
DETAIL
  6
CONTINUOUS
 62
     5
 10
18.934673164867949
 20
46.847236580566829
 30
0.0
 40
0.4982823924999382
 50
359.49636374179943
 51
89.499999998809884
  0
LINE
  8
DETAIL
  6
CONTINUOUS
 62
     5
 10
29.08511093957901
 20
34.199738453576629
 30
0.0
 11
26.692679399681818
 21
36.901961764971702
 31
0.0
  0
LINE
  8
DETAIL
  6
CONTINUOUS
 62
     5
 10
28.500391823837329
 20
34.210150604605133
 30
0.0
 11
26.201967036364412
 21
36.846344033926243
 31
0.0
  0
LINE
  8
DETAIL
  6
CONTINUOUS
 62
     5
 10
25.893046531362021
 20
39.452316859970551
 30
0.0
 11
25.4023341680446
 21
39.39669912892532
 31
0.0
  0
LINE
  8
DETAIL
  6
CONTINUOUS
 62
     5
 10
25.280696589236701
 20
38.677944837989337
 30
0.0
 11
25.280696589236701
 21
37.151119006412962
 31
0.0
  0
LINE
  8
DETAIL
  6
CONTINUOUS
 62
     5
 10
26.201967036364412
 20
36.846344033926243
 30
0.0
 11
25.62679990698723
 21
38.943075361227777
 31
0.0
  0
LINE
  8
DETAIL
  6
CONTINUOUS
 62
     5
 10
26.692679399681818
 20
36.901961764971702
 30
0.0
 11
26.11751227030453
 21
38.998693092273022
 31
0.0
  0
LINE
  8
DETAIL
  6
CONTINUOUS
 62
     5
 10
25.654722038924088
 20
34.26080969805389
 30
0.0
 11
25.280696589236701
 21
37.151119006412962
 31
0.0
  0
LINE
  8
DETAIL
  6
CONTINUOUS
 62
     5
 10
36.87006972324275
 20
25.899828688882739
 30
0.0
 11
36.505301695499952
 21
26.30593981623019
 31
0.0
  0
LINE
  8
DETAIL
  6
CONTINUOUS
 62
     5
 10
37.003584088000032
 20
25.11343258200009
 30
0.0
 11
37.003584088000032
 21
25.579538940802191
 31
0.0
  0
ARC
  8
DETAIL
  6
CONTINUOUS
 62
     5
 10
61.917360191499881
 20
20.180436896250061
 30
0.0
 40
2.591068441000135
 50
0.0
 51
90.0
  0
LINE
  8
DETAIL
  6
CONTINUOUS
 62
     5
 10
64.508428632500056
 20
-20.180436896250061
 30
0.0
 11
64.508428632500056
 21
20.180364780038641
 31
0.0
  0
ARC
  8
DETAIL
  6
CONTINUOUS
 62
     5
 10
61.917360191499881
 20
-20.180436896250061
 30
0.0
 40
2.5910684410000222
 50
270.0
 51
0.0
  0
LINE
  8
DETAIL
  6
CONTINUOUS
 62
     5
 10
61.917360191499881
 20
22.771505337249891
 30
0.0
 11
39.196026615000051
 21
22.771505337249891
 31
0.0
  0
LINE
  8
DETAIL
  6
CONTINUOUS
 62
     5
 10
61.917360191499881
 20
-22.771505337250119
 30
0.0
 11
39.196026615000051
 21
-22.771505337250119
 31
0.0
  0
LINE
  8
DETAIL
  6
CONTINUOUS
 62
     5
 10
37.30255352349991
 20
23.329762470437341
 30
0.0
 11
38.099805351499867
 21
23.329762470437341
 31
0.0
  0
LINE
  8
DETAIL
  6
CONTINUOUS
 62
     5
 10
36.505301695499952
 20
23.40304929980471
 30
0.0
 11
37.30255352349991
 21
23.40304929980471
 31
0.0
  0
LINE
  8
DETAIL
  6
CONTINUOUS
 62
     5
 10
37.30255352349991
 20
25.113186357649059
 30
0.0
 11
37.30255352349991
 21
18.144094242386469
 31
0.0
  0
LINE
  8
DETAIL
  6
CONTINUOUS
 62
     5
 10
36.505301695499952
 20
25.11343258200009
 30
0.0
 11
37.30255352349991
 21
25.11343258200009
 31
0.0
  0
LINE
  8
DETAIL
  6
CONTINUOUS
 62
     5
 10
38.697744222499978
 20
23.91755483999987
 30
0.0
 11
38.099805351499867
 21
23.91755483999987
 31
0.0
  0
LINE
  8
DETAIL
  6
CONTINUOUS
 62
     5
 10
38.697744222499978
 20
-31.84024488075011
 30
0.0
 11
38.697744222499978
 21
23.91755483999987
 31
0.0
  0
ARC
  8
DETAIL
  6
CONTINUOUS
 62
     5
 10
39.196026615000051
 20
23.269787729749851
 30
0.0
 40
0.4982823925
 50
180.0
 51
270.0
  0
LINE
  8
DETAIL
  6
CONTINUOUS
 62
     5
 10
38.099805351499867
 20
18.08347190898758
 30
0.0
 11
38.099805351499867
 21
23.91755483651195
 31
0.0
  0
LINE
  8
DETAIL
  6
CONTINUOUS
 62
     5
 10
38.099805351499867
 20
8.5899172854194603
 30
0.0
 11
38.099805351499867
 21
17.34014172653519
 31
0.0
  0
LINE
  8
DETAIL
  6
CONTINUOUS
 62
     5
 10
37.30255352349991
 20
17.340227258999899
 30
0.0
 11
37.30255352349991
 21
8.6505396187187671
 31
0.0
  0
LINE
  8
DETAIL
  6
CONTINUOUS
 62
     5
 10
38.099805351499867
 20
-31.19247777049986
 30
0.0
 11
38.099805351499867
 21
6.8328400620719094
 31
0.0
  0
LINE
  8
DETAIL
  6
CONTINUOUS
 62
     5
 10
37.30255352349991
 20
6.7722177287726026
 30
0.0
 11
37.30255352349991
 21
-31.19247777049986
 31
0.0
  0
LINE
  8
DETAIL
  6
CONTINUOUS
 62
     5
 10
36.505301695499952
 20
-31.19247777049986
 30
0.0
 11
38.697744222499978
 21
-31.19247777049986
 31
0.0
  0
ARC
  8
DETAIL
  6
CONTINUOUS
 62
     5
 10
39.196026615000051
 20
-23.269787729750082
 30
0.0
 40
0.4982823925
 50
90.0
 51
180.0
  0
LINE
  8
DETAIL
  6
CONTINUOUS
 62
     5
 10
36.505301695499952
 20
17.340227258999899
 30
0.0
 11
38.697744222499978
 21
17.340227258999899
 31
0.0
  0
LINE
  8
DETAIL
  6
CONTINUOUS
 62
     5
 10
-4.2357658889216054
 20
-95.514240419196668
 30
0.0
 11
-0.3484321219863773
 21
-95.514240419196668
 31
0.0
  0
LINE
  8
DETAIL
  6
CONTINUOUS
 62
     5
 10
-0.3646342741150761
 20
-96.442461092538565
 30
0.0
 11
-4.2195633046360967
 21
-96.44248585053505
 31
0.0
  0
LINE
  8
DETAIL
  6
CONTINUOUS
 62
     5
 10
-0.382967915352026
 20
-97.22304138323679
 30
0.0
 11
-4.2059386571225454
 21
-97.22304138323679
 31
0.0
  0
LINE
  8
DETAIL
  6
CONTINUOUS
 62
     5
 10
-4.2465136632851568
 20
-94.898500838749996
 30
0.0
 11
-4.2068595358973653
 21
-97.170284273602277
 31
0.0
  0
ARC
  8
DETAIL
  6
CONTINUOUS
 62
     5
 10
-3.9079356349378709
 20
-97.16506653749876
 30
0.0
 40
0.2989694355000259
 50
181.00000000000171
 51
270.0
  0
LINE
  8
DETAIL
  6
CONTINUOUS
 62
     5
 10
-0.6762623759625512
 20
-97.464035972998431
 30
0.0
 11
-3.9079356349378709
 21
-97.464035972998431
 31
0.0
  0
ARC
  8
DETAIL
  6
CONTINUOUS
 62
     5
 10
-0.6762623759625512
 20
-97.16506653749876
 30
0.0
 40
0.2989694355000119
 50
270.0
 51
358.99999999999818
  0
LINE
  8
DETAIL
  6
CONTINUOUS
 62
     5
 10
-0.3773384750029436
 20
-97.170284273600942
 30
0.0
 11
-0.3388749242304243
 21
-94.966708926725573
 31
0.0
  0
ARC
  8
DETAIL
  6
CONTINUOUS
 62
     5
 10
30.818556858570219
 20
13.852250511499729
 30
0.0
 40
10.37059932633
 50
337.3871256045058
 51
22.612874395494192
  0
LINE
  8
DETAIL
  6
CONTINUOUS
 62
     5
 10
40.39190435699993
 20
17.839774563277839
 30
0.0
 11
38.697744222499978
 21
17.987994369249918
 31
0.0
  0
LINE
  8
DETAIL
  6
CONTINUOUS
 62
     5
 10
40.39190435699993
 20
9.8647264597220783
 30
0.0
 11
40.39190435699993
 21
17.839774563277839
 31
0.0
  0
LINE
  8
DETAIL
  6
CONTINUOUS
 62
     5
 10
40.39190435699993
 20
9.8647264597220783
 30
0.0
 11
38.697744222499978
 21
9.7165066537500024
 31
0.0
  0
LINE
  8
DETAIL
  6
CONTINUOUS
 62
     5
 10
40.39190435699993
 20
-31.69202507477803
 30
0.0
 11
38.697744222499978
 21
-31.84024488075011
 31
0.0
  0
LINE
  8
DETAIL
  6
CONTINUOUS
 62
     5
 10
40.39190435699993
 20
-23.71697697122227
 30
0.0
 11
38.697744222499978
 21
-23.56875716525019
 31
0.0
  0
ARC
  8
DETAIL
  6
CONTINUOUS
 62
     5
 10
30.818556858570219
 20
-27.704501022999921
 30
0.0
 40
10.37059932633
 50
337.3871256045058
 51
22.612874395494192
  0
LINE
  8
DETAIL
  6
CONTINUOUS
 62
     5
 10
25.280696589236701
 20
38.677944837989337
 30
0.0
 11
25.4023341680446
 21
39.39669912892532
 31
0.0
  0
LINE
  8
DETAIL
  6
CONTINUOUS
 62
     5
 10
25.4023341680446
 20
39.39669912892532
 30
0.0
 11
25.62679990698723
 21
38.943075361227777
 31
0.0
  0
LINE
  8
DETAIL
  6
CONTINUOUS
 62
     5
 10
25.893046531362021
 20
39.452316859970551
 30
0.0
 11
26.11751227030453
 21
38.998693092273022
 31
0.0
  0
ARC
  8
DETAIL
  6
CONTINUOUS
 62
     5
 10
36.342940978364709
 20
25.492119530343469
 30
0.0
 40
0.6664018844762913
 50
7.5378556717525296
 51
37.72025634757911
  0
ARC
  8
DETAIL
  6
CONTINUOUS
 62
     5
 10
25.412277921744931
 20
-31.97704644354798
 30
0.0
 40
2.5044549335559738
 50
277.1595771698735
 51
314.41673498131519
  0
ARC
  8
DETAIL
  6
CONTINUOUS
 62
     5
 10
23.808507784604501
 20
-45.37219146109851
 30
0.0
 40
5.7359072049575124
 50
88.881745625318274
 51
139.7138970281307
  0
ARC
  8
DETAIL
  6
CONTINUOUS
 62
     5
 10
24.008586285491671
 20
12.51791659243599
 30
0.0
 40
56.844278135813653
 50
265.38308948435969
 51
269.74372583420097
  0
ARC
  8
OUTLINE
  6
CONTINUOUS
 62
     3
 10
9914.8230459649967
 20
9.9656478499998684
 30
0.0
 40
9965.6478499999994
 50
179.63653061229621
 51
180.44232781160349
  0
ARC
  8
OUTLINE
  6
CONTINUOUS
 62
     3
 10
-0.3986259140000925
 20
-94.566979333372387
 30
0.0
 40
0.398625914000016
 50
269.00000000000801
 51
0.0
  0
LINE
  8
OUTLINE
  6
CONTINUOUS
 62
     3
 10
-49.31244702019643
 20
-94.111872045951372
 30
0.0
 11
-0.4055828954687968
 21
-94.965544534749057
 31
0.0
  0
ARC
  8
OUTLINE
  6
CONTINUOUS
 62
     3
 10
-49.295054566464607
 20
-93.115459042595944
 30
0.0
 40
0.9965647850021184
 50
180.59271694977829
 51
268.99999999992008
  0
ARC
  8
OUTLINE
  6
CONTINUOUS
 62
     3
 10
9914.8230459649967
 20
9.9656478499998684
 30
0.0
 40
9965.6478499999994
 50
180.44691161199501
 51
180.59271694977829
  0
ARC
  8
OUTLINE
  6
CONTINUOUS
 62
     3
 10
9914.8230459649967
 20
9.9656478499998684
 30
0.0
 40
9965.2492240859992
 50
180.44234550580009
 51
180.44692948950589
  0
ARC
  8
OUTLINE
  6
CONTINUOUS
 62
     3
 10
-49.627736161450507
 20
73.178356363834155
 30
0.0
 40
0.996564785000024
 50
90.999999987903848
 51
179.63653063299739
  0
ARC
  8
OUTLINE
  6
CONTINUOUS
 62
     3
 10
-0.3986259140000925
 20
74.635672639468794
 30
0.0
 40
0.3986259140001037
 50
0.0015801942957956
 51
90.999972424883822
  0
LINE
  8
OUTLINE
  6
CONTINUOUS
 62
     3
 10
-49.645128614783403
 20
74.174769367134331
 30
0.0
 11
-0.4055828954926142
 21
75.034248834751907
 31
0.0
  0
LINE
  8
OUTLINE
  6
CONTINUOUS
 62
     3
 10
0.0
 20
74.635683633372082
 30
0.0
 11
0.0
 21
-94.566979333372387
 31
0.0
  0
LINE
  8
OUTLINE
  6
CONTINUOUS
 62
     3
 10
36.011367581937293
 20
-47.345500000000001
 30
0.0
 11
0.0
 21
-47.345549538463317
 31
0.0
  0
ARC
  8
OUTLINE
  6
CONTINUOUS
 62
     3
 10
36.007019302950987
 20
-46.847236580566708
 30
0.0
 40
0.4982823924999741
 50
270.49999999999147
 51
0.0
  0
LINE
  8
OUTLINE
  6
CONTINUOUS
 62
     3
 10
36.505301695450953
 20
-46.847236580566708
 30
0.0
 11
36.505301695465278
 21
-31.19247777049986
 31
0.0
  0
LINE
  8
OUTLINE
  6
CONTINUOUS
 62
     3
 10
36.50530169549998
 20
26.305939816230161
 30
0.0
 11
36.505301695499952
 21
32.311261295702479
 31
0.0
  0
ARC
  8
OUTLINE
  6
CONTINUOUS
 62
     3
 10
34.363671458860722
 20
31.929497130736191
 30
0.0
 40
2.175390527730559
 50
10.107304922668829
 51
90.533171833449259
  0
LINE
  8
OUTLINE
  6
CONTINUOUS
 62
     3
 10
34.343428428281918
 20
34.104793470974073
 30
0.0
 11
24.229166118128092
 21
34.286178236183787
 31
0.0
  0
ARC
  8
OUTLINE
  6
CONTINUOUS
 62
     3
 10
24.316128616873609
 20
39.168584435015362
 30
0.0
 40
4.8831805994226443
 50
180.0001531785407
 51
268.97958974535987
  0
LINE
  8
OUTLINE
  6
CONTINUOUS
 62
     3
 10
19.432948017468419
 20
39.168571379979078
 30
0.0
 11
19.432936307335641
 21
46.842856679461761
 31
0.0
  0
ARC
  8
OUTLINE
  6
CONTINUOUS
 62
     3
 10
18.934673164867949
 20
46.847236580566829
 30
0.0
 40
0.4982823924999382
 50
359.49636374179943
 51
89.499999998809884
  0
LINE
  8
OUTLINE
  6
CONTINUOUS
 62
     3
 10
36.87006972324275
 20
25.899828688882739
 30
0.0
 11
36.505301695499952
 21
26.30593981623019
 31
0.0
  0
LINE
  8
OUTLINE
  6
CONTINUOUS
 62
     3
 10
37.003584088000032
 20
25.11343258200009
 30
0.0
 11
37.003584088000032
 21
25.579538940802191
 31
0.0
  0
ARC
  8
OUTLINE
  6
CONTINUOUS
 62
     3
 10
61.917360191499881
 20
20.180436896250061
 30
0.0
 40
2.591068441000135
 50
0.0
 51
90.0
  0
LINE
  8
OUTLINE
  6
CONTINUOUS
 62
     3
 10
64.508428632500056
 20
-20.180436896250061
 30
0.0
 11
64.508428632500056
 21
20.180364780038641
 31
0.0
  0
ARC
  8
OUTLINE
  6
CONTINUOUS
 62
     3
 10
61.917360191499881
 20
-20.180436896250061
 30
0.0
 40
2.5910684410000222
 50
270.0
 51
0.0
  0
LINE
  8
OUTLINE
  6
CONTINUOUS
 62
     3
 10
61.917360191499881
 20
22.771505337249891
 30
0.0
 11
39.196026615000051
 21
22.771505337249891
 31
0.0
  0
LINE
  8
OUTLINE
  6
CONTINUOUS
 62
     3
 10
61.917360191499881
 20
-22.771505337250119
 30
0.0
 11
39.196026615000051
 21
-22.771505337250119
 31
0.0
  0
LINE
  8
OUTLINE
  6
CONTINUOUS
 62
     3
 10
37.30255352349991
 20
23.329762470437341
 30
0.0
 11
38.099805351499867
 21
23.329762470437341
 31
0.0
  0
LINE
  8
OUTLINE
  6
CONTINUOUS
 62
     3
 10
37.30255352349991
 20
25.113186357649059
 30
0.0
 11
37.30255352349991
 21
23.329762470437341
 31
0.0
  0
LINE
  8
OUTLINE
  6
CONTINUOUS
 62
     3
 10
37.003584088000032
 20
25.11343258200009
 30
0.0
 11
37.30255352349991
 21
25.11343258200009
 31
0.0
  0
LINE
  8
OUTLINE
  6
CONTINUOUS
 62
     3
 10
38.697744222499978
 20
23.91755483999987
 30
0.0
 11
38.099805351499867
 21
23.91755483999987
 31
0.0
  0
LINE
  8
OUTLINE
  6
CONTINUOUS
 62
     3
 10
38.697744222499978
 20
-31.19247777049986
 30
0.0
 11
38.697744222499978
 21
23.91755483999987
 31
0.0
  0
ARC
  8
OUTLINE
  6
CONTINUOUS
 62
     3
 10
39.196026615000051
 20
23.269787729749851
 30
0.0
 40
0.4982823925
 50
180.0
 51
270.0
  0
LINE
  8
OUTLINE
  6
CONTINUOUS
 62
     3
 10
38.099805351499839
 20
23.329762470437341
 30
0.0
 11
38.099805351499867
 21
23.91755483651195
 31
0.0
  0
LINE
  8
OUTLINE
  6
CONTINUOUS
 62
     3
 10
36.505301695499952
 20
-31.19247777049986
 30
0.0
 11
38.697744222499978
 21
-31.19247777049986
 31
0.0
  0
ARC
  8
OUTLINE
  6
CONTINUOUS
 62
     3
 10
36.342940978364709
 20
25.49211953034353
 30
0.0
 40
0.6664018844762913
 50
7.5378556717525296
 51
37.72025634757911
  0
LINE
  8
OUTLINE
  6
CONTINUOUS
 62
     3
 10
-14.94847177499997
 20
-99.448240295830445
 30
0.0
 11
-14.94847177499997
 21
-99.439618646740939
 31
0.0
  0
LINE
  8
OUTLINE
  6
CONTINUOUS
 62
     3
 10
-14.751993559884911
 20
-99.436189106758633
 30
0.0
 11
-14.94847177499997
 21
-99.439618646740939
 31
0.0
  0
ARC
  8
OUTLINE
  6
CONTINUOUS
 62
     3
 10
-14.75912446585005
 20
-99.027659775396685
 30
0.0
 40
0.408591561849978
 50
271.00000000000819
 51
0.0
  0
LINE
  8
OUTLINE
  6
CONTINUOUS
 62
     3
 10
-14.35053290400009
 20
-99.027659775396685
 30
0.0
 11
-14.35053290400009
 21
-98.855012733085346
 31
0.0
  0
ARC
  8
OUTLINE
  6
CONTINUOUS
 62
     3
 10
-14.75912446585005
 20
-98.855012733085346
 30
0.0
 40
0.408591561849968
 50
0.0
 51
88.999999999988461
  0
LINE
  8
OUTLINE
  6
CONTINUOUS
 62
     3
 10
-14.751993559884911
 20
-98.44648340172337
 30
0.0
 11
-14.94847177499997
 21
-98.443053861741092
 31
0.0
  0
LINE
  8
OUTLINE
  6
CONTINUOUS
 62
     3
 10
-14.94847177499997
 20
-98.443053861741092
 30
0.0
 11
-14.94847177499997
 21
-95.131626003167042
 31
0.0
  0
ARC
  8
OUTLINE
  6
CONTINUOUS
 62
     3
 10
-14.450189382499961
 20
-95.131626003167042
 30
0.0
 40
0.4982823925002252
 50
119.6406397662401
 51
180.0
  0
ARC
  8
OUTLINE
  6
CONTINUOUS
 62
     3
 10
-17.439883737500001
 20
-95.149021106166288
 30
0.0
 40
0.4982823925
 50
0.0
 51
88.999999999998238
  0
LINE
  8
OUTLINE
  6
CONTINUOUS
 62
     3
 10
-16.941601344999981
 20
-95.149021106166288
 30
0.0
 11
-16.941601344999981
 21
-99.465711301289375
 31
0.0
  0
ARC
  8
OUTLINE
  6
CONTINUOUS
 62
     3
 10
-16.443318952499961
 20
-99.465711301289375
 30
0.0
 40
0.4982823925
 50
180.0
 51
270.0
  0
LINE
  8
OUTLINE
  6
CONTINUOUS
 62
     3
 10
-15.438057940684081
 20
-99.946446797530228
 30
0.0
 11
-16.443318952499961
 21
-99.963993693789519
 31
0.0
  0
ARC
  8
OUTLINE
  6
CONTINUOUS
 62
     3
 10
-15.446754167499989
 20
-99.448240295830445
 30
0.0
 40
0.4982823925000061
 50
271.00000000000182
 51
0.0
  0
LINE
  8
DETAIL
  6
CONTINUOUS
 62
     5
 10
18.9390214438647
 20
47.345500000000023
 30
0.0
 11
0.0
 21
47.345549538463331
 31
0.0
  0
LINE
  8
OUTLINE
  6
CONTINUOUS
 62
     3
 10
18.9390214438647
 20
47.345500000000023
 30
0.0
 11
0.0
 21
47.345549538463331
 31
0.0
  0
ARC
  8
DETAIL
  6
CONTINUOUS
 62
     5
 10
29.59797460828975
 20
7.744797136420857
 30
0.0
 40
0.8969083065000399
 50
91.000034288302018
 51
180.00003586879791
  0
ENDSEC
  0
EOF
