  0
SECTION
  2
HEADER
  9
$ACADVER
  1
AC1009
  9
$DWGCODEPAGE
  3
dos932
  9
$INSBASE
 10
0.0
 20
0.0
 30
0.0
  9
$EXTMIN
 10
-630.38175834853064
 20
-380.67625775080711
 30
-0.0015258207003583
  9
$EXTMAX
 10
853.34931556525225
 20
716.49170738702014
 30
0.0000000349246037
  9
$LIMMIN
 10
-2970.0
 20
-2100.0
  9
$LIMMAX
 10
2970.0
 20
2100.0
  9
$ORTHOMODE
 70
     1
  9
$REGENMODE
 70
     1
  9
$FILLMODE
 70
     1
  9
$QTEXTMODE
 70
     0
  9
$MIRRTEXT
 70
     0
  9
$LTSCALE
 40
20.0
  9
$ATTMODE
 70
     1
  9
$TEXTSIZE
 40
64.0
  9
$TRACEWID
 40
0.05
  9
$TEXTSTYLE
  7
STANDARD
  9
$CLAYER
  8
SIZE
  9
$CELTYPE
  6
CONTINUOUS
  9
$CECOLOR
 62
     7
  9
$DIMSCALE
 40
1.0
  9
$DIMASZ
 40
12.0
  9
$DIMEXO
 40
20.0
  9
$DIMDLI
 40
200.0
  9
$DIMRND
 40
0.0
  9
$DIMDLE
 40
0.0
  9
$DIMEXE
 40
20.0
  9
$DIMTP
 40
0.0
  9
$DIMTM
 40
0.0
  9
$DIMTXT
 40
64.0
  9
$DIMCEN
 40
0.09
  9
$DIMTSZ
 40
0.0
  9
$DIMTOL
 70
     0
  9
$DIMLIM
 70
     0
  9
$DIMTIH
 70
     0
  9
$DIMTOH
 70
     0
  9
$DIMSE1
 70
     0
  9
$DIMSE2
 70
     0
  9
$DIMTAD
 70
     1
  9
$DIMZIN
 70
     8
  9
$DIMBLK
  1

  9
$DIMASO
 70
     1
  9
$DIMSHO
 70
     0
  9
$DIMPOST
  1

  9
$DIMAPOST
  1

  9
$DIMALT
 70
     0
  9
$DIMALTD
 70
     2
  9
$DIMALTF
 40
25.399999999999999
  9
$DIMLFAC
 40
1.0
  9
$DIMTOFL
 70
     1
  9
$DIMTVP
 40
0.0
  9
$DIMTIX
 70
     1
  9
$DIMSOXD
 70
     0
  9
$DIMSAH
 70
     0
  9
$DIMBLK1
  1

  9
$DIMBLK2
  1

  9
$DIMSTYLE
  2
STANDARD
  9
$DIMCLRD
 70
     7
  9
$DIMCLRE
 70
     7
  9
$DIMCLRT
 70
     7
  9
$DIMTFAC
 40
1.0
  9
$DIMGAP
 40
25.0
  9
$LUNITS
 70
     2
  9
$LUPREC
 70
     4
  9
$SKETCHINC
 40
0.1
  9
$FILLETRAD
 40
3.0
  9
$AUNITS
 70
     1
  9
$AUPREC
 70
     3
  9
$MENU
  1
ACAD
  9
$ELEVATION
 40
0.0
  9
$PELEVATION
 40
0.0
  9
$THICKNESS
 40
0.0
  9
$LIMCHECK
 70
     0
  9
$CHAMFERA
 40
0.0
  9
$CHAMFERB
 40
0.0
  9
$SKPOLY
 70
     0
  9
$TDCREATE
 40
2453019.623009259
  9
$TDUPDATE
 40
2459356.649239016
  9
$TDINDWG
 40
1.7317289468
  9
$TDUSRTIMER
 40
1.7317289468
  9
$USRTIMER
 70
     1
  9
$ANGBASE
 50
0.0
  9
$ANGDIR
 70
     0
  9
$PDMODE
 70
     3
  9
$PDSIZE
 40
-2.0
  9
$PLINEWID
 40
0.0
  9
$SPLFRAME
 70
     0
  9
$SPLINETYPE
 70
     6
  9
$SPLINESEGS
 70
     8
  9
$SURFTAB1
 70
     6
  9
$SURFTAB2
 70
     6
  9
$SURFTYPE
 70
     6
  9
$SURFU
 70
     6
  9
$SURFV
 70
     6
  9
$UCSNAME
  2

  9
$UCSORG
 10
0.0
 20
0.0
 30
0.0
  9
$UCSXDIR
 10
1.0
 20
0.0
 30
0.0
  9
$UCSYDIR
 10
0.0
 20
1.0
 30
0.0
  9
$PUCSNAME
  2

  9
$PUCSORG
 10
0.0
 20
0.0
 30
0.0
  9
$PUCSXDIR
 10
1.0
 20
0.0
 30
0.0
  9
$PUCSYDIR
 10
0.0
 20
1.0
 30
0.0
  9
$USERI1
 70
     0
  9
$USERI2
 70
     0
  9
$USERI3
 70
     0
  9
$USERI4
 70
     0
  9
$USERI5
 70
     0
  9
$USERR1
 40
20.0
  9
$USERR2
 40
0.0
  9
$USERR3
 40
0.0
  9
$USERR4
 40
0.0
  9
$USERR5
 40
0.0
  9
$WORLDVIEW
 70
     1
  9
$SHADEDGE
 70
     3
  9
$SHADEDIF
 70
    70
  9
$TILEMODE
 70
     1
  9
$MAXACTVP
 70
    48
  9
$PINSBASE
 10
0.0
 20
0.0
 30
0.0
  9
$PLIMCHECK
 70
     0
  9
$PEXTMIN
 10
-100000000000000000000.0
 20
-100000000000000000000.0
 30
-100000000000000000000.0
  9
$PEXTMAX
 10
100000000000000000000.0
 20
100000000000000000000.0
 30
100000000000000000000.0
  9
$PLIMMIN
 10
0.0
 20
0.0
  9
$PLIMMAX
 10
12.0
 20
9.0
  9
$UNITMODE
 70
     0
  9
$VISRETAIN
 70
     0
  9
$PLINEGEN
 70
     0
  9
$PSLTSCALE
 70
     0
  9
$TREEDEPTH
 70
  3020
  9
$ATTDIA
 70
     0
  9
$ATTREQ
 70
     1
  9
$BLIPMODE
 70
     1
  9
$COORDS
 70
     1
  9
$DRAGMODE
 70
     2
  9
$OSMODE
 70
     0
  9
$HANDLING
 70
     0
  9
$HANDSEED
  5
240
  0
ENDSEC
  0
SECTION
  2
TABLES
  0
TABLE
  2
LTYPE
 70
     2
  0
LTYPE
  2
CONTINUOUS
 70
     0
  3
実線
 72
    65
 73
     0
 40
0.0
  0
LTYPE
  2
DASHDOT
 70
     0
  3
____ _ ____ _ ____ _ ____ _ ____ _ ____ _ ____
 72
    65
 73
     4
 40
5.5
 49
4.0
 49
-0.6
 49
0.3
 49
-0.6
  0
ENDTAB
  0
TABLE
  2
LAYER
 70
    12
  0
LAYER
  2
SIZE
 70
     0
 62
    30
  6
CONTINUOUS
  0
LAYER
  2
BASIS
 70
     0
 62
     6
  6
DASHDOT
  0
LAYER
  2
OUTLINE
 70
     0
 62
     3
  6
CONTINUOUS
  0
LAYER
  2
DETAIL
 70
     0
 62
     5
  6
CONTINUOUS
  0
LAYER
  2
ARRANGE
 70
     0
 62
     1
  6
CONTINUOUS
  0
LAYER
  2
ETC
 70
     0
 62
    61
  6
CONTINUOUS
  0
LAYER
  2
FIX
 70
     0
 62
    11
  6
CONTINUOUS
  0
LAYER
  2
NOTE
 70
     0
 62
     4
  6
CONTINUOUS
  0
LAYER
  2
0
 70
    64
 62
     7
  6
CONTINUOUS
  0
LAYER
  2
DEFPOINTS
 70
    64
 62
     7
  6
CONTINUOUS
  0
LAYER
  2
SERVICESPACE
 70
    64
 62
     2
  6
DASHDOT
  0
LAYER
  2
SYMBOLLINE
 70
    64
 62
    15
  6
CONTINUOUS
  0
ENDTAB
  0
TABLE
  2
STYLE
 70
     1
  0
STYLE
  2
STANDARD
 70
     0
 40
64.0
 41
0.9
 50
0.0
 71
     0
 42
64.0
  3
SIMPLEX.shx
  4
BIGFONT.shx
  0
ENDTAB
  0
TABLE
  2
APPID
 70
    20
  0
APPID
  2
ACAD
 70
     0
  0
APPID
  2
ACADANNOTATIVE
 70
     0
  0
APPID
  2
AUTOCAD_POSTSCRIPT_FIGURE
 70
     0
  0
APPID
  2
ACAD_EXEMPT_FROM_CAD_STANDARDS
 70
     0
  0
APPID
  2
ACAD_PSEXT
 70
     0
  0
APPID
  2
ACAUTHENVIRON
 70
     0
  0
APPID
  2
GENIUS_GENOENT_13
 70
     0
  0
APPID
  2
GENIUS_GENCFG_13
 70
     0
  0
APPID
  2
GENIUS_GENCFG0_13
 70
     0
  0
APPID
  2
GENIUS_GENCFG1_13
 70
     0
  0
APPID
  2
GENIUS_GENCFG2_13
 70
     0
  0
APPID
  2
GENIUS_GENCFG3_13
 70
     0
  0
APPID
  2
GENIUS_GENCFG4_13
 70
     0
  0
APPID
  2
GENIUS_GEVCFG0_13
 70
     0
  0
APPID
  2
CONTENTBLOCKICON
 70
     0
  0
APPID
  2
CONTENTBLOCKDESCRIPTION
 70
     0
  0
APPID
  2
ACAD_NAV_VCDISPLAY
 70
     0
  0
APPID
  2
ACAD_MLEADERVER
 70
     0
  0
APPID
  2
ACDBDYNAMICBLOCKTRUENAME
 70
     0
  0
APPID
  2
ACDBDYNAMICBLOCKGUID
 70
     0
  0
ENDTAB
  0
TABLE
  2
DIMSTYLE
 70
     1
  0
DIMSTYLE
  2
STANDARD
 70
     0
  3

  4

  5

  6

  7

 40
1.0
 41
12.0
 42
20.0
 43
200.0
 44
20.0
 45
0.0
 46
0.0
 47
0.0
 48
0.0
140
64.0
141
0.09
142
0.0
143
25.399999999999999
144
1.0
145
0.0
146
1.0
147
25.0
 71
     0
 72
     0
 73
     0
 74
     0
 75
     0
 76
     0
 77
     1
 78
     8
170
     0
171
     2
172
     1
173
     0
174
     1
175
     0
176
     7
177
     7
178
     7
  0
ENDTAB
  0
TABLE
  2
VIEW
 70
     1
  0
VIEW
  2
ALL
 70
     0
 40
4282.6198079999986
 10
0.0
 20
41.309904000000003
 41
5940.0
 11
0.0
 21
0.0
 31
1.0
 12
0.0
 22
0.0
 32
0.0
 42
50.0
 43
0.0
 44
0.0
 50
0.0
 71
     0
  0
ENDTAB
  0
TABLE
  2
UCS
 70
     0
  0
ENDTAB
  0
TABLE
  2
VPORT
 70
     1
  0
VPORT
  2
*ACTIVE
 70
     0
 10
0.0
 20
0.0
 11
1.0
 21
1.0
 12
111.48377860836089
 22
167.9077248181066
 13
0.0
 23
0.0
 14
1.0
 24
1.0
 15
0.0
 25
0.0
 16
0.0
 26
0.0
 36
1.0
 17
0.0
 27
0.0
 37
0.0
 40
957.66487836610031
 41
1.9148387096774191
 42
50.0
 43
0.0
 44
0.0
 50
0.0
 51
0.0
 71
     0
 72
  1000
 73
     1
 74
     3
 75
     0
 76
     0
 77
     0
 78
     0
  0
ENDTAB
  0
ENDSEC
  0
SECTION
  2
BLOCKS
  0
ENDSEC
  0
SECTION
  2
ENTITIES
  0
CIRCLE
  8
ARRANGE
  6
CONTINUOUS
 62
     1
 10
0.0
 20
0.0
 30
0.0
 40
40.0
  0
POINT
  8
ARRANGE
  6
CONTINUOUS
 62
     1
 10
0.0
 20
0.0
 30
0.0
  0
LINE
  8
BASIS
  6
DASHDOT
 62
     6
 10
0.0
 20
-109.2854010143142
 30
0.0
 11
0.0
 21
109.2854010143142
 31
0.0
  0
LINE
  8
BASIS
  6
DASHDOT
 62
     6
 10
95.967552833830439
 20
0.0
 30
0.0
 11
-95.967646960021909
 21
0.0
 31
0.0
  0
LINE
  8
SIZE
  6
CONTINUOUS
 62
    30
 10
79.999498601408263
 20
98.999786028261724
 30
0.0
 11
79.999498601408263
 21
225.21909118443881
 31
0.0
  0
LINE
  8
SIZE
  6
CONTINUOUS
 62
    30
 10
-80.000526793409207
 20
98.999786028261724
 30
0.0
 11
-80.000526793409207
 21
225.21909118443881
 31
0.0
  0
LINE
  8
SIZE
  6
CONTINUOUS
 62
    30
 10
91.999498601408277
 20
205.21909118443881
 30
0.0
 11
103.99949860140831
 21
205.21909118443881
 31
0.0
  0
LINE
  8
SIZE
  6
CONTINUOUS
 62
    30
 10
-92.000526793409193
 20
205.21909118443881
 30
0.0
 11
-104.00052679340919
 21
205.21909118443881
 31
0.0
  0
LINE
  8
SIZE
  6
CONTINUOUS
 62
    30
 10
79.999498601408263
 20
205.21909118443881
 30
0.0
 11
-80.000526793409207
 21
205.21909118443881
 31
0.0
  0
CIRCLE
  8
SIZE
  6
CONTINUOUS
 62
    30
 10
79.999498601408263
 20
205.21909118443881
 30
0.0
 40
6.0
  0
LINE
  8
SIZE
  6
CONTINUOUS
 62
    30
 10
79.999498601408263
 20
205.21909118443881
 30
0.0
 11
91.999498601408277
 21
205.21909118443881
 31
0.0
  0
CIRCLE
  8
SIZE
  6
CONTINUOUS
 62
    30
 10
-80.000526793409207
 20
205.21909118443881
 30
0.0
 40
6.0
  0
LINE
  8
SIZE
  6
CONTINUOUS
 62
    30
 10
-80.000526793409207
 20
205.21909118443881
 30
0.0
 11
-92.000526793409193
 21
205.21909118443881
 31
0.0
  0
TEXT
  8
SIZE
  6
CONTINUOUS
 62
    30
 10
-105.051942667429
 20
230.21909118443881
 30
0.0
 40
64.0
  1
□160
 41
0.9
 72
     1
 11
-0.0005140960004724
 21
230.21909118443881
 31
0.0
  0
LINE
  8
SIZE
  6
CONTINUOUS
 62
    30
 10
31.821736819155859
 20
-84.809464671383623
 30
0.0
 11
209.69965093549399
 21
-84.80946467138368
 31
0.0
  0
LINE
  8
SIZE
  6
CONTINUOUS
 62
    30
 10
98.838014496699998
 20
-80.150967782100054
 30
0.0
 11
209.69965093549399
 21
-80.150967782100068
 31
0.0
  0
LINE
  8
SIZE
  6
CONTINUOUS
 62
    30
 10
189.69965093549399
 20
-68.150967782100054
 30
0.0
 11
189.69965093549399
 21
-56.150967782100047
 31
0.0
  0
LINE
  8
SIZE
  6
CONTINUOUS
 62
    30
 10
189.69965093549399
 20
-96.80946467138368
 30
0.0
 11
189.69965093549391
 21
-197.20946467138361
 31
0.0
  0
LINE
  8
SIZE
  6
CONTINUOUS
 62
    30
 10
189.69965093549399
 20
-80.150967782100054
 30
0.0
 11
189.69965093549399
 21
-84.80946467138368
 31
0.0
  0
CIRCLE
  8
SIZE
  6
CONTINUOUS
 62
    30
 10
189.69965093549399
 20
-80.150967782100054
 30
0.0
 40
6.0
  0
LINE
  8
SIZE
  6
CONTINUOUS
 62
    30
 10
189.69965093549399
 20
-80.150967782100054
 30
0.0
 11
189.69965093549399
 21
-68.150967782100054
 31
0.0
  0
CIRCLE
  8
SIZE
  6
CONTINUOUS
 62
    30
 10
189.69965093549399
 20
-84.80946467138368
 30
0.0
 40
6.0
  0
LINE
  8
SIZE
  6
CONTINUOUS
 62
    30
 10
189.69965093549399
 20
-84.80946467138368
 30
0.0
 11
189.69965093549399
 21
-96.80946467138368
 31
0.0
  0
TEXT
  8
SIZE
  6
CONTINUOUS
 62
    30
 10
164.69965093549399
 20
-172.20946467138361
 30
0.0
 40
64.0
  1
5
 50
90.0
 41
0.9
 72
     1
 11
164.69965093549399
 21
-153.0094646713836
 31
0.0
  0
CIRCLE
  8
FIX
  6
CONTINUOUS
 62
    11
 10
69.965255095711427
 20
69.96525509561107
 30
0.0
 40
7.0441691683918863
  0
LINE
  8
NOTE
  6
CONTINUOUS
 62
     4
 10
69.965255095711427
 20
43.94343737316899
 30
0.0
 11
69.965255095711427
 21
95.98707281805315
 31
0.0
  0
LINE
  8
NOTE
  6
CONTINUOUS
 62
     4
 10
95.987072818153479
 20
69.96525509561107
 30
0.0
 11
43.943437373269319
 21
69.965255095611099
 31
0.0
  0
CIRCLE
  8
FIX
  6
CONTINUOUS
 62
    11
 10
69.999760096084287
 20
5.9999999952671894
 30
0.0
 40
7.0441691683918863
  0
LINE
  8
NOTE
  6
CONTINUOUS
 62
     4
 10
69.999760096084287
 20
-20.021817727174891
 30
0.0
 11
69.999760096084287
 21
32.021817717709268
 31
0.0
  0
LINE
  8
NOTE
  6
CONTINUOUS
 62
     4
 10
96.021577818526367
 20
5.9999999952671894
 30
0.0
 11
43.977942373642158
 21
5.9999999952671894
 31
0.0
  0
CIRCLE
  8
FIX
  6
CONTINUOUS
 62
    11
 10
-69.999999944784008
 20
5.9999999952671894
 30
0.0
 40
7.0441691683918863
  0
LINE
  8
NOTE
  6
CONTINUOUS
 62
     4
 10
-69.999999944784008
 20
-20.021817727174891
 30
0.0
 11
-69.999999944784008
 21
32.021817717709268
 31
0.0
  0
LINE
  8
NOTE
  6
CONTINUOUS
 62
     4
 10
-43.978182222341928
 20
5.9999999952671894
 30
0.0
 11
-96.021817667226088
 21
5.9999999952671894
 31
0.0
  0
CIRCLE
  8
FIX
  6
CONTINUOUS
 62
    11
 10
-69.999999944784008
 20
-69.999999944784008
 30
0.0
 40
7.0441691683918863
  0
LINE
  8
NOTE
  6
CONTINUOUS
 62
     4
 10
-69.999999944784008
 20
-96.021817667226088
 30
0.0
 11
-69.999999944784008
 21
-43.978182222341928
 31
0.0
  0
LINE
  8
NOTE
  6
CONTINUOUS
 62
     4
 10
-43.978182222341928
 20
-69.999999944784008
 30
0.0
 11
-96.021817667226088
 21
-69.999999944784008
 31
0.0
  0
LINE
  8
SIZE
  6
CONTINUOUS
 62
    30
 10
290.01312028767842
 20
182.71560678804769
 30
0.0
 11
50.341870613244822
 21
31.716652773571809
 31
0.0
  0
LINE
  8
SIZE
  6
CONTINUOUS
 62
    30
 10
-50.341870613244822
 20
-31.71665277357182
 30
0.0
 11
-60.494852921798397
 21
-38.113288627065288
 31
0.0
  0
TEXT
  8
SIZE
  6
CONTINUOUS
 62
    30
 10
120.471075892103
 20
105.4477956155212
 30
0.0
 40
64.0
  1
φ95
 50
32.211965945938573
 41
0.9
 72
     1
 11
194.03668484779399
 21
151.79599139969099
 31
0.0
  0
LINE
  8
SIZE
  6
CONTINUOUS
 62
    30
 10
-40.188888304691247
 20
-25.320016920078331
 30
0.0
 11
40.188888304691268
 21
25.320016920078331
 31
0.0
  0
CIRCLE
  8
SIZE
  6
CONTINUOUS
 62
    30
 10
-40.188888304691247
 20
-25.320016920078331
 30
0.0
 40
6.0
  0
LINE
  8
SIZE
  6
CONTINUOUS
 62
    30
 10
-40.188888304691247
 20
-25.320016920078331
 30
0.0
 11
-50.341870613244822
 21
-31.71665277357182
 31
0.0
  0
CIRCLE
  8
SIZE
  6
CONTINUOUS
 62
    30
 10
40.188888304691268
 20
25.320016920078331
 30
0.0
 40
6.0
  0
LINE
  8
SIZE
  6
CONTINUOUS
 62
    30
 10
40.188888304691268
 20
25.320016920078331
 30
0.0
 11
50.341870613244822
 21
31.716652773571809
 31
0.0
  0
LINE
  8
SIZE
  6
CONTINUOUS
 62
    30
 10
-358.36556349013489
 20
185.05827014158791
 30
0.0
 11
-31.09834831488585
 21
16.05903895275296
 31
0.0
  0
LINE
  8
SIZE
  6
CONTINUOUS
 62
    30
 10
31.09834831488585
 20
-16.05903895275296
 30
0.0
 11
41.76063916570385
 21
-21.564995165125399
 31
0.0
  0
TEXT
  8
SIZE
  6
CONTINUOUS
 62
    30
 10
-337.35460971022212
 20
202.3448562126743
 30
0.0
 40
64.0
  1
φ46
 50
332.68838507566318
 41
0.9
 72
     1
 11
-261.31724409981729
 21
163.07952276672651
 31
0.0
  0
LINE
  8
SIZE
  6
CONTINUOUS
 62
    30
 10
20.43605746406784
 20
-10.553082740380519
 30
0.0
 11
-20.43605746406784
 21
10.553082740380519
 31
0.0
  0
CIRCLE
  8
SIZE
  6
CONTINUOUS
 62
    30
 10
20.43605746406784
 20
-10.553082740380519
 30
0.0
 40
6.0
  0
LINE
  8
SIZE
  6
CONTINUOUS
 62
    30
 10
20.43605746406784
 20
-10.553082740380519
 30
0.0
 11
31.09834831488585
 21
-16.05903895275296
 31
0.0
  0
CIRCLE
  8
SIZE
  6
CONTINUOUS
 62
    30
 10
-20.43605746406784
 20
10.553082740380519
 30
0.0
 40
6.0
  0
LINE
  8
SIZE
  6
CONTINUOUS
 62
    30
 10
-20.43605746406784
 20
10.553082740380519
 30
0.0
 11
-31.09834831488585
 21
16.05903895275296
 31
0.0
  0
LINE
  8
SIZE
  6
CONTINUOUS
 62
    30
 10
69.999760096084287
 20
-40.021817727174891
 30
0.0
 11
69.999760096084259
 21
-380.45778241858909
 31
0.0
  0
LINE
  8
SIZE
  6
CONTINUOUS
 62
    30
 10
-69.999999944784008
 20
-116.0218176672261
 30
0.0
 11
-69.999999944784022
 21
-380.45778241858909
 31
0.0
  0
LINE
  8
SIZE
  6
CONTINUOUS
 62
    30
 10
57.999760096084287
 20
-360.45778241858909
 30
0.0
 11
-57.999999944784022
 21
-360.45778241858909
 31
0.0
  0
LINE
  8
SIZE
  6
CONTINUOUS
 62
    30
 10
-69.999999944784022
 20
-360.45778241858909
 30
0.0
 11
-269.14285708764118
 21
-360.45778241858909
 31
0.0
  0
CIRCLE
  8
SIZE
  6
CONTINUOUS
 62
    30
 10
69.999760096084287
 20
-360.45778241858909
 30
0.0
 40
6.0
  0
LINE
  8
SIZE
  6
CONTINUOUS
 62
    30
 10
69.999760096084287
 20
-360.45778241858909
 30
0.0
 11
57.999760096084287
 21
-360.45778241858909
 31
0.0
  0
CIRCLE
  8
SIZE
  6
CONTINUOUS
 62
    30
 10
-69.999999944784022
 20
-360.45778241858909
 30
0.0
 40
6.0
  0
LINE
  8
SIZE
  6
CONTINUOUS
 62
    30
 10
-69.999999944784022
 20
-360.45778241858909
 30
0.0
 11
-57.999999944784022
 21
-360.45778241858909
 31
0.0
  0
TEXT
  8
SIZE
  6
CONTINUOUS
 62
    30
 10
-244.1428570876412
 20
-335.45778241858898
 30
0.0
 40
64.0
  1
140
 41
0.9
 72
     1
 11
-175.57142851621259
 21
-335.45778241858898
 31
0.0
  0
LINE
  8
SIZE
  6
CONTINUOUS
 62
    30
 10
-115.9676469600219
 20
0.0000000000000284
 30
0.0
 11
-332.69440381092602
 21
0.0000000000000853
 31
0.0
  0
LINE
  8
SIZE
  6
CONTINUOUS
 62
    30
 10
-116.0218176672261
 20
-69.999999944784008
 30
0.0
 11
-332.69440381092602
 21
-69.999999944783951
 31
0.0
  0
LINE
  8
SIZE
  6
CONTINUOUS
 62
    30
 10
-312.69440381092602
 20
12.000000000000091
 30
0.0
 11
-312.69440381092602
 21
24.000000000000089
 31
0.0
  0
LINE
  8
SIZE
  6
CONTINUOUS
 62
    30
 10
-312.69440381092602
 20
-81.999999944783951
 30
0.0
 11
-312.69440381092602
 21
-93.999999944783951
 31
0.0
  0
LINE
  8
SIZE
  6
CONTINUOUS
 62
    30
 10
-312.69440381092602
 20
0.0000000000000853
 30
0.0
 11
-312.69440381092602
 21
-69.999999944783951
 31
0.0
  0
CIRCLE
  8
SIZE
  6
CONTINUOUS
 62
    30
 10
-312.69440381092602
 20
0.0000000000000853
 30
0.0
 40
6.0
  0
LINE
  8
SIZE
  6
CONTINUOUS
 62
    30
 10
-312.69440381092602
 20
0.0000000000000853
 30
0.0
 11
-312.69440381092602
 21
12.000000000000091
 31
0.0
  0
CIRCLE
  8
SIZE
  6
CONTINUOUS
 62
    30
 10
-312.69440381092602
 20
-69.999999944783951
 30
0.0
 40
6.0
  0
LINE
  8
SIZE
  6
CONTINUOUS
 62
    30
 10
-312.69440381092602
 20
-69.999999944783951
 30
0.0
 11
-312.69440381092602
 21
-81.999999944783951
 31
0.0
  0
TEXT
  8
SIZE
  6
CONTINUOUS
 62
    30
 10
-337.69440381092602
 20
-81.628571400963409
 30
0.0
 40
64.0
  1
70
 50
90.0
 41
0.9
 72
     1
 11
-337.69440381092602
 21
-34.99999997239199
 31
0.0
  0
LINE
  8
SIZE
  6
CONTINUOUS
 62
    30
 10
115.9675528338305
 20
0.0
 30
0.0
 11
344.51932685139172
 21
-0.0000000000000568
 31
0.0
  0
LINE
  8
SIZE
  6
CONTINUOUS
 62
    30
 10
115.98707281815349
 20
69.96525509561107
 30
0.0
 11
344.51932685139172
 21
69.965255095610985
 31
0.0
  0
LINE
  8
SIZE
  6
CONTINUOUS
 62
    30
 10
324.51932685139172
 20
81.965255095611013
 30
0.0
 11
324.51932685139172
 21
93.965255095610999
 31
0.0
  0
LINE
  8
SIZE
  6
CONTINUOUS
 62
    30
 10
324.51932685139172
 20
-12.00000000000006
 30
0.0
 11
324.51932685139172
 21
-167.25714285714301
 31
0.0
  0
LINE
  8
SIZE
  6
CONTINUOUS
 62
    30
 10
324.51932685139172
 20
69.965255095610985
 30
0.0
 11
324.51932685139172
 21
-0.0000000000000568
 31
0.0
  0
CIRCLE
  8
SIZE
  6
CONTINUOUS
 62
    30
 10
324.51932685139172
 20
69.965255095610985
 30
0.0
 40
6.0
  0
LINE
  8
SIZE
  6
CONTINUOUS
 62
    30
 10
324.51932685139172
 20
69.965255095610985
 30
0.0
 11
324.51932685139172
 21
81.965255095611013
 31
0.0
  0
CIRCLE
  8
SIZE
  6
CONTINUOUS
 62
    30
 10
324.51932685139172
 20
-0.0000000000000568
 30
0.0
 40
6.0
  0
LINE
  8
SIZE
  6
CONTINUOUS
 62
    30
 10
324.51932685139172
 20
-0.0000000000000568
 30
0.0
 11
324.51932685139172
 21
-12.00000000000006
 31
0.0
  0
TEXT
  8
SIZE
  6
CONTINUOUS
 62
    30
 10
299.51932685139172
 20
-142.2571428571429
 30
0.0
 40
64.0
  1
70
 50
90.0
 41
0.9
 72
     1
 11
299.51932685139172
 21
-95.628571428571433
 31
0.0
  0
LINE
  8
SIZE
  6
CONTINUOUS
 62
    30
 10
-116.0218176672261
 20
5.9999999952672169
 30
0.0
 11
-332.69440381092602
 21
5.9999999952672738
 31
0.0
  0
LINE
  8
SIZE
  6
CONTINUOUS
 62
    30
 10
-116.0218176672261
 20
0.0000000000000284
 30
0.0
 11
-332.69440381092602
 21
0.0000000000000853
 31
0.0
  0
LINE
  8
SIZE
  6
CONTINUOUS
 62
    30
 10
-312.69440381092602
 20
-11.99999999999994
 30
0.0
 11
-312.69440381092602
 21
-23.99999999999994
 31
0.0
  0
LINE
  8
SIZE
  6
CONTINUOUS
 62
    30
 10
-312.69440381092602
 20
17.99999999526727
 30
0.0
 11
-312.69440381092602
 21
115.6571428524101
 31
0.0
  0
LINE
  8
SIZE
  6
CONTINUOUS
 62
    30
 10
-312.69440381092602
 20
0.0000000000000853
 30
0.0
 11
-312.69440381092602
 21
5.9999999952672436
 31
0.0
  0
CIRCLE
  8
SIZE
  6
CONTINUOUS
 62
    30
 10
-312.69440381092602
 20
0.0000000000000853
 30
0.0
 40
6.0
  0
LINE
  8
SIZE
  6
CONTINUOUS
 62
    30
 10
-312.69440381092602
 20
0.0000000000000853
 30
0.0
 11
-312.69440381092602
 21
-11.99999999999994
 31
0.0
  0
CIRCLE
  8
SIZE
  6
CONTINUOUS
 62
    30
 10
-312.69440381092602
 20
5.9999999952672436
 30
0.0
 40
6.0
  0
LINE
  8
SIZE
  6
CONTINUOUS
 62
    30
 10
-312.69440381092602
 20
5.9999999952672436
 30
0.0
 11
-312.69440381092602
 21
17.999999995267249
 31
0.0
  0
TEXT
  8
SIZE
  6
CONTINUOUS
 62
    30
 10
-337.69440381092602
 20
54.999999995267217
 30
0.0
 40
64.0
  1
6
 50
90.0
 41
0.9
 72
     1
 11
-337.69440381092602
 21
72.828571423838639
 31
0.0
  0
CIRCLE
  8
FIX
  6
CONTINUOUS
 62
    11
 10
-61.063437823921049
 20
51.19999999999996
 30
0.0
 40
7.0441691683918863
  0
LINE
  8
NOTE
  6
CONTINUOUS
 62
     4
 10
-61.063437823921049
 20
25.17818227755788
 30
0.0
 11
-61.063437823921049
 21
77.221817722442012
 31
0.0
  0
LINE
  8
NOTE
  6
CONTINUOUS
 62
     4
 10
-87.085255546363072
 20
51.19999999999996
 30
0.0
 11
-35.041620101478941
 21
51.199999999999989
 31
0.0
  0
TEXT
  8
NOTE
  6
CONTINUOUS
 62
     4
 10
-257.05426863573081
 20
258.95852161724838
 30
0.0
 40
64.0
  1
EL
 41
0.9
 72
     2
 11
-172.02569720715931
 21
258.95852161724838
 31
0.0
  0
TEXT
  8
NOTE
  6
CONTINUOUS
 62
     4
 10
328.99549197537573
 20
160.39521061644791
 30
0.0
 40
64.0
  1
2-φ4×10
 41
0.9
  0
TEXT
  8
NOTE
  6
CONTINUOUS
 62
     4
 10
-630.02856705056456
 20
-204.1087589743465
 30
0.0
 40
64.0
  1
2-φ5×7
 41
0.9
 72
     2
 11
-272.35999562199322
 21
-204.1087589743465
 31
0.0
  0
LINE
  8
NOTE
  6
CONTINUOUS
 62
     4
 10
-62.525985792134662
 20
57.237023499264673
 30
0.0
 11
-61.063437823921049
 21
51.19999999999996
 31
0.0
  0
LINE
  8
NOTE
  6
CONTINUOUS
 62
     4
 10
-61.063437823921049
 20
51.19999999999996
 30
0.0
 11
-65.348560044913029
 21
55.696935272067037
 31
0.0
  0
LINE
  8
NOTE
  6
CONTINUOUS
 62
     4
 10
-61.063437823921049
 20
51.19999999999996
 30
0.0
 11
-66.811108013126642
 21
61.7339587713317
 31
0.0
  0
LINE
  8
NOTE
  6
CONTINUOUS
 62
     4
 10
-66.811108013126628
 20
61.733958771331743
 30
0.0
 11
-161.49097903950491
 21
235.25711250759809
 31
0.0
  0
LINE
  8
NOTE
  6
CONTINUOUS
 62
     4
 10
-161.49097903950491
 20
235.25711250759809
 30
0.0
 11
-258.51955046807632
 21
235.25711250759809
 31
0.0
  0
LINE
  8
NOTE
  6
CONTINUOUS
 62
     4
 10
-75.577858101882711
 20
-72.733532031533187
 30
0.0
 11
-69.999999944784008
 21
-69.999999944784008
 31
0.0
  0
LINE
  8
NOTE
  6
CONTINUOUS
 62
     4
 10
-69.999999944784008
 20
-69.999999944784008
 30
0.0
 11
-73.463792993999704
 21
-75.156242472265134
 31
0.0
  0
LINE
  8
NOTE
  6
CONTINUOUS
 62
     4
 10
-69.999999944784008
 20
-69.999999944784008
 30
0.0
 11
-79.041651151098435
 21
-77.889774559014299
 31
0.0
  0
LINE
  8
NOTE
  6
CONTINUOUS
 62
     4
 10
-79.041651151098435
 20
-77.889774559014299
 30
0.0
 11
-260.35999562199328
 21
-236.1087589743465
 31
0.0
  0
LINE
  8
NOTE
  6
CONTINUOUS
 62
     4
 10
-260.35999562199328
 20
-236.1087589743465
 30
0.0
 11
-629.16362039290846
 21
-236.1087589743465
 31
0.0
  0
LINE
  8
NOTE
  6
CONTINUOUS
 62
     4
 10
76.089964416309229
 20
7.2235325962061827
 30
0.0
 11
69.999999944784008
 21
5.9999999952671894
 31
0.0
  0
LINE
  8
NOTE
  6
CONTINUOUS
 62
     4
 10
69.999999944784008
 20
5.9999999952671894
 30
0.0
 11
74.662291399404694
 21
10.104599571616969
 31
0.0
  0
LINE
  8
NOTE
  6
CONTINUOUS
 62
     4
 10
69.999999944784008
 20
5.9999999952671894
 30
0.0
 11
80.752255870929957
 21
11.32813217255597
 31
0.0
  0
LINE
  8
NOTE
  6
CONTINUOUS
 62
     4
 10
80.752255870929957
 20
11.32813217255597
 30
0.0
 11
316.99549197537573
 21
128.39521061644791
 31
0.0
  0
LINE
  8
NOTE
  6
CONTINUOUS
 62
     4
 10
316.99549197537573
 20
128.39521061644791
 30
0.0
 11
734.5877909384003
 21
128.39521061644791
 31
0.0
  0
ARC
  8
OUTLINE
  6
CONTINUOUS
 62
     3
 10
-78.997991796700035
 20
78.998389872800004
 30
0.0
 40
1.0
 50
90.0
 51
180.0
  0
LINE
  8
OUTLINE
  6
CONTINUOUS
 62
     3
 10
78.991398075999982
 20
79.998389872800004
 30
0.0
 11
-78.997991796700035
 21
79.998389872800004
 31
0.0
  0
ARC
  8
OUTLINE
  6
CONTINUOUS
 62
     3
 10
78.991398075999982
 20
78.998389872800004
 30
0.0
 40
1.0
 50
0.0
 51
90.0
  0
LINE
  8
OUTLINE
  6
CONTINUOUS
 62
     3
 10
79.991398075999982
 20
-78.990999999999957
 30
0.0
 11
79.991398075999982
 21
78.998389872800004
 31
0.0
  0
ARC
  8
OUTLINE
  6
CONTINUOUS
 62
     3
 10
78.991398075999982
 20
-78.990999999999957
 30
0.0
 40
1.0
 50
270.0
 51
0.0
  0
LINE
  8
OUTLINE
  6
CONTINUOUS
 62
     3
 10
-79.997991796700035
 20
78.998389872800004
 30
0.0
 11
-79.997991796700035
 21
-78.990999999999957
 31
0.0
  0
LINE
  8
OUTLINE
  6
CONTINUOUS
 62
     3
 10
-78.997991796699921
 20
-79.990999999999957
 30
0.0
 11
78.991398075999982
 21
-79.990999999999957
 31
0.0
  0
ARC
  8
OUTLINE
  6
CONTINUOUS
 62
     3
 10
-78.997991796699921
 20
-78.990999999999957
 30
0.0
 40
1.000000000000014
 50
180.0
 51
270.0
  0
TEXT
  8
ETC
  6
CONTINUOUS
 62
    61
 10
296.40979076258878
 20
652.20964554544935
 30
0.0
 40
64.0
  1
V-08PLD8_3
 41
0.9
  0
TEXT
  8
ETC
  6
CONTINUOUS
 62
    61
 10
292.22379676258822
 20
534.25433553061816
 30
0.0
 40
64.0
  1
換気扇
 41
0.9
  0
TEXT
  8
ETC
  6
CONTINUOUS
 62
    61
 10
342.9251950111443
 20
426.10556264439288
 30
0.0
 40
40.0
  1
V-08PLD8
 41
0.9
  0
TEXT
  8
ETC
  6
CONTINUOUS
 62
    61
 10
342.9251950111443
 20
360.10556264439288
 30
0.0
 40
40.0
  1
V-08PFLD8
 41
0.9
  0
TEXT
  8
ETC
  6
CONTINUOUS
 62
    61
 10
342.9251950111443
 20
294.10556264439288
 30
0.0
 40
40.0
  1
V-08PD8
 41
0.9
  0
ARC
  8
DETAIL
  6
CONTINUOUS
 62
     5
 10
-78.990918378599986
 20
-78.990999999999957
 30
0.0
 40
1.0
 50
180.0
 51
270.0
  0
LINE
  8
DETAIL
  6
CONTINUOUS
 62
     5
 10
-79.990918378599986
 20
78.991316454599982
 30
0.0
 11
-79.990918378599986
 21
-78.990999999999957
 31
0.0
  0
ARC
  8
DETAIL
  6
CONTINUOUS
 62
     5
 10
-78.990918378599986
 20
78.991316454599982
 30
0.0
 40
1.0
 50
90.0
 51
180.0
  0
LINE
  8
DETAIL
  6
CONTINUOUS
 62
     5
 10
78.991398075999982
 20
79.991316454599982
 30
0.0
 11
-78.990918378599986
 21
79.991316454599982
 31
0.0
  0
ARC
  8
DETAIL
  6
CONTINUOUS
 62
     5
 10
78.991398075999982
 20
78.991316454599982
 30
0.0
 40
1.0
 50
0.0
 51
90.0
  0
LINE
  8
DETAIL
  6
CONTINUOUS
 62
     5
 10
79.991398075999982
 20
-78.990999999999957
 30
0.0
 11
79.991398075999982
 21
78.991316454599982
 31
0.0
  0
ARC
  8
DETAIL
  6
CONTINUOUS
 62
     5
 10
78.991398075999982
 20
-78.990999999999957
 30
0.0
 40
1.0
 50
270.0
 51
0.0
  0
LINE
  8
DETAIL
  6
CONTINUOUS
 62
     5
 10
-78.990918378599986
 20
-79.990999999999957
 30
0.0
 11
78.991398075999982
 21
-79.990999999999957
 31
0.0
  0
ARC
  8
DETAIL
  6
CONTINUOUS
 62
     5
 10
-12.5
 20
-83.799803696499993
 30
0.0
 40
1.0
 50
180.0
 51
270.0
  0
LINE
  8
DETAIL
  6
CONTINUOUS
 62
     5
 10
-12.5
 20
-84.799803696499993
 30
0.0
 11
12.5
 21
-84.799803696499993
 31
0.0
  0
ARC
  8
DETAIL
  6
CONTINUOUS
 62
     5
 10
12.5
 20
-83.799803696499993
 30
0.0
 40
1.0
 50
270.0
 51
0.0
  0
LINE
  8
DETAIL
  6
CONTINUOUS
 62
     5
 10
-13.5
 20
-79.990999999999957
 30
0.0
 11
-13.5
 21
-83.799803696499993
 31
0.0
  0
LINE
  8
DETAIL
  6
CONTINUOUS
 62
     5
 10
13.5
 20
-79.990999999999957
 30
0.0
 11
13.5
 21
-83.799803696499993
 31
0.0
  0
LINE
  8
DETAIL
  6
CONTINUOUS
 62
     5
 10
-50.399999999999856
 20
36.19999999999996
 30
0.0
 11
-71.599999999999909
 21
36.19999999999996
 31
0.0
  0
LINE
  8
DETAIL
  6
CONTINUOUS
 62
     5
 10
-50.399999999999856
 20
66.19999999999996
 30
0.0
 11
-71.599999999999909
 21
66.19999999999996
 31
0.0
  0
LINE
  8
DETAIL
  6
CONTINUOUS
 62
     5
 10
-71.599999999999909
 20
36.19999999999996
 30
0.0
 11
-71.599999999999909
 21
66.19999999999996
 31
0.0
  0
LINE
  8
DETAIL
  6
CONTINUOUS
 62
     5
 10
-59.599999999999888
 20
36.19999999999996
 30
0.0
 11
-59.599999999999888
 21
66.19999999999996
 31
0.0
  0
LINE
  8
DETAIL
  6
CONTINUOUS
 62
     5
 10
-62.399999999999856
 20
36.19999999999996
 30
0.0
 11
-62.399999999999856
 21
66.19999999999996
 31
0.0
  0
LINE
  8
DETAIL
  6
CONTINUOUS
 62
     5
 10
-50.399999999999856
 20
36.19999999999996
 30
0.0
 11
-50.399999999999856
 21
66.19999999999996
 31
0.0
  0
LINE
  8
DETAIL
  6
CONTINUOUS
 62
     5
 10
81.000785113343227
 20
59.087443438299942
 30
0.0
 11
79.994717782099983
 21
59.301289651067783
 31
0.0
  0
LINE
  8
DETAIL
  6
CONTINUOUS
 62
     5
 10
79.994717782099983
 20
45.216347013662471
 30
0.0
 11
81.000785113343227
 21
59.087443438299942
 31
0.0
  0
ARC
  8
DETAIL
  6
CONTINUOUS
 62
     5
 10
-70.0
 20
0.0
 30
0.0
 40
2.0
 50
180.0
 51
0.0
  0
ARC
  8
DETAIL
  6
CONTINUOUS
 62
     5
 10
-70.0
 20
6.0000000000000568
 30
0.0
 40
2.0
 50
0.0
 51
180.0
  0
LINE
  8
DETAIL
  6
CONTINUOUS
 62
     5
 10
-72.0
 20
0.0
 30
0.0
 11
-72.0
 21
6.0000000000000568
 31
0.0
  0
LINE
  8
DETAIL
  6
CONTINUOUS
 62
     5
 10
-68.0
 20
6.0000000000000568
 30
0.0
 11
-68.0
 21
0.0
 31
0.0
  0
ARC
  8
DETAIL
  6
CONTINUOUS
 62
     5
 10
-70.741851630299934
 20
-69.327638068000027
 30
0.0
 40
2.49999999999994
 50
45.000000000007468
 51
225.0000000000075
  0
ARC
  8
DETAIL
  6
CONTINUOUS
 62
     5
 10
-69.327638067899898
 20
-70.741851630399978
 30
0.0
 40
2.50000000000002
 50
225.0000000000075
 51
45.000000000007468
  0
LINE
  8
DETAIL
  6
CONTINUOUS
 62
     5
 10
-71.095405020899989
 20
-72.509618583399941
 30
0.0
 11
-72.509618583299925
 21
-71.095405020999891
 31
0.0
  0
LINE
  8
DETAIL
  6
CONTINUOUS
 62
     5
 10
-68.974084677399901
 20
-67.559871114999936
 30
0.0
 11
-67.559871114999964
 21
-68.974084677399858
 31
0.0
  0
ARC
  8
DETAIL
  6
CONTINUOUS
 62
     5
 10
70.0
 20
6.0000000000000568
 30
0.0
 40
1.999999999999944
 50
0.0
 51
180.0
  0
ARC
  8
DETAIL
  6
CONTINUOUS
 62
     5
 10
70.0
 20
0.0
 30
0.0
 40
2.0
 50
180.0
 51
0.0
  0
LINE
  8
DETAIL
  6
CONTINUOUS
 62
     5
 10
68.0
 20
0.0
 30
0.0
 11
68.0
 21
6.0000000000000568
 31
0.0
  0
LINE
  8
DETAIL
  6
CONTINUOUS
 62
     5
 10
72.0
 20
6.0000000000000568
 30
0.0
 11
72.0
 21
0.0
 31
0.0
  0
ARC
  8
DETAIL
  6
CONTINUOUS
 62
     5
 10
68.551041588500084
 20
68.551041588400096
 30
0.0
 40
2.49999999999994
 50
134.9999999999925
 51
314.99999999999261
  0
ARC
  8
DETAIL
  6
CONTINUOUS
 62
     5
 10
69.96525515090002
 20
69.965255150800033
 30
0.0
 40
2.49999999999994
 50
314.99999999999261
 51
134.9999999999925
  0
LINE
  8
DETAIL
  6
CONTINUOUS
 62
     5
 10
66.783274635499993
 20
70.318808541400045
 30
0.0
 11
68.197488197900043
 21
71.733022103800096
 31
0.0
  0
LINE
  8
DETAIL
  6
CONTINUOUS
 62
     5
 10
71.733022103800053
 20
68.197488197799998
 30
0.0
 11
70.318808541500175
 21
66.783274635499993
 31
0.0
  0
CIRCLE
  8
DETAIL
  6
CONTINUOUS
 62
     5
 10
0.0
 20
0.0
 30
0.0
 40
23.0
  0
CIRCLE
  8
DETAIL
  6
CONTINUOUS
 62
     5
 10
0.0
 20
0.0
 30
0.0
 40
47.5
  0
ARC
  8
OUTLINE
  6
CONTINUOUS
 62
     3
 10
12.5
 20
-83.799803696499993
 30
0.0
 40
1.0
 50
270.0
 51
0.0
  0
LINE
  8
OUTLINE
  6
CONTINUOUS
 62
     3
 10
12.5
 20
-84.799803696499993
 30
0.0
 11
-12.5
 21
-84.799803696499993
 31
0.0
  0
ARC
  8
OUTLINE
  6
CONTINUOUS
 62
     3
 10
-12.5
 20
-83.799803696499993
 30
0.0
 40
1.0
 50
180.0
 51
270.0
  0
LINE
  8
OUTLINE
  6
CONTINUOUS
 62
     3
 10
13.5
 20
-79.990999999999985
 30
0.0
 11
13.5
 21
-83.799803696499993
 31
0.0
  0
LINE
  8
OUTLINE
  6
CONTINUOUS
 62
     3
 10
-13.5
 20
-79.990999999999985
 30
0.0
 11
-13.5
 21
-83.799803696499993
 31
0.0
  0
ENDSEC
  0
EOF
