  0
SECTION
  2
HEADER
  9
$ACADVER
  1
AC1009
  9
$DWGCODEPAGE
  3
dos932
  9
$INSBASE
 10
0.0
 20
0.0
 30
0.0
  9
$EXTMIN
 10
-541.10410931881597
 20
-257.94981717824697
 30
-0.0007672145918178
  9
$EXTMAX
 10
751.83564357207433
 20
691.49781087354859
 30
50.316261977476088
  9
$LIMMIN
 10
-2970.0
 20
-2100.0
  9
$LIMMAX
 10
2970.0
 20
2100.0
  9
$ORTHOMODE
 70
     1
  9
$REGENMODE
 70
     1
  9
$FILLMODE
 70
     1
  9
$QTEXTMODE
 70
     0
  9
$MIRRTEXT
 70
     0
  9
$LTSCALE
 40
20.0
  9
$ATTMODE
 70
     1
  9
$TEXTSIZE
 40
64.0
  9
$TRACEWID
 40
0.05
  9
$TEXTSTYLE
  7
STANDARD
  9
$CLAYER
  8
SIZE
  9
$CELTYPE
  6
CONTINUOUS
  9
$CECOLOR
 62
     7
  9
$DIMSCALE
 40
1.0
  9
$DIMASZ
 40
12.0
  9
$DIMEXO
 40
20.0
  9
$DIMDLI
 40
200.0
  9
$DIMRND
 40
0.0
  9
$DIMDLE
 40
0.0
  9
$DIMEXE
 40
20.0
  9
$DIMTP
 40
0.0
  9
$DIMTM
 40
0.0
  9
$DIMTXT
 40
64.0
  9
$DIMCEN
 40
0.09
  9
$DIMTSZ
 40
0.0
  9
$DIMTOL
 70
     0
  9
$DIMLIM
 70
     0
  9
$DIMTIH
 70
     0
  9
$DIMTOH
 70
     0
  9
$DIMSE1
 70
     0
  9
$DIMSE2
 70
     0
  9
$DIMTAD
 70
     1
  9
$DIMZIN
 70
     8
  9
$DIMBLK
  1

  9
$DIMASO
 70
     1
  9
$DIMSHO
 70
     0
  9
$DIMPOST
  1

  9
$DIMAPOST
  1

  9
$DIMALT
 70
     0
  9
$DIMALTD
 70
     2
  9
$DIMALTF
 40
25.399999999999999
  9
$DIMLFAC
 40
1.0
  9
$DIMTOFL
 70
     1
  9
$DIMTVP
 40
0.0
  9
$DIMTIX
 70
     1
  9
$DIMSOXD
 70
     0
  9
$DIMSAH
 70
     0
  9
$DIMBLK1
  1

  9
$DIMBLK2
  1

  9
$DIMSTYLE
  2
STANDARD
  9
$DIMCLRD
 70
     7
  9
$DIMCLRE
 70
     7
  9
$DIMCLRT
 70
     7
  9
$DIMTFAC
 40
1.0
  9
$DIMGAP
 40
25.0
  9
$LUNITS
 70
     2
  9
$LUPREC
 70
     4
  9
$SKETCHINC
 40
0.1
  9
$FILLETRAD
 40
3.0
  9
$AUNITS
 70
     1
  9
$AUPREC
 70
     3
  9
$MENU
  1
ACAD
  9
$ELEVATION
 40
0.0
  9
$PELEVATION
 40
0.0
  9
$THICKNESS
 40
0.0
  9
$LIMCHECK
 70
     0
  9
$CHAMFERA
 40
0.0
  9
$CHAMFERB
 40
0.0
  9
$SKPOLY
 70
     0
  9
$TDCREATE
 40
2453019.62301037
  9
$TDUPDATE
 40
2459356.650145116
  9
$TDINDWG
 40
1.7279557986
  9
$TDUSRTIMER
 40
1.7279557986
  9
$USRTIMER
 70
     1
  9
$ANGBASE
 50
0.0
  9
$ANGDIR
 70
     0
  9
$PDMODE
 70
     3
  9
$PDSIZE
 40
-2.0
  9
$PLINEWID
 40
0.0
  9
$SPLFRAME
 70
     0
  9
$SPLINETYPE
 70
     6
  9
$SPLINESEGS
 70
     8
  9
$SURFTAB1
 70
     6
  9
$SURFTAB2
 70
     6
  9
$SURFTYPE
 70
     6
  9
$SURFU
 70
     6
  9
$SURFV
 70
     6
  9
$UCSNAME
  2

  9
$UCSORG
 10
0.0
 20
0.0
 30
0.0
  9
$UCSXDIR
 10
1.0
 20
0.0
 30
0.0
  9
$UCSYDIR
 10
0.0
 20
1.0
 30
0.0
  9
$PUCSNAME
  2

  9
$PUCSORG
 10
0.0
 20
0.0
 30
0.0
  9
$PUCSXDIR
 10
1.0
 20
0.0
 30
0.0
  9
$PUCSYDIR
 10
0.0
 20
1.0
 30
0.0
  9
$USERI1
 70
     0
  9
$USERI2
 70
     0
  9
$USERI3
 70
     0
  9
$USERI4
 70
     0
  9
$USERI5
 70
     0
  9
$USERR1
 40
20.0
  9
$USERR2
 40
0.0
  9
$USERR3
 40
0.0
  9
$USERR4
 40
0.0
  9
$USERR5
 40
0.0
  9
$WORLDVIEW
 70
     1
  9
$SHADEDGE
 70
     3
  9
$SHADEDIF
 70
    70
  9
$TILEMODE
 70
     1
  9
$MAXACTVP
 70
    48
  9
$PINSBASE
 10
0.0
 20
0.0
 30
0.0
  9
$PLIMCHECK
 70
     0
  9
$PEXTMIN
 10
-100000000000000000000.0
 20
-100000000000000000000.0
 30
-100000000000000000000.0
  9
$PEXTMAX
 10
100000000000000000000.0
 20
100000000000000000000.0
 30
100000000000000000000.0
  9
$PLIMMIN
 10
0.0
 20
0.0
  9
$PLIMMAX
 10
12.0
 20
9.0
  9
$UNITMODE
 70
     0
  9
$VISRETAIN
 70
     0
  9
$PLINEGEN
 70
     0
  9
$PSLTSCALE
 70
     0
  9
$TREEDEPTH
 70
  3020
  9
$ATTDIA
 70
     0
  9
$ATTREQ
 70
     1
  9
$BLIPMODE
 70
     1
  9
$COORDS
 70
     1
  9
$DRAGMODE
 70
     2
  9
$OSMODE
 70
     0
  9
$HANDLING
 70
     0
  9
$HANDSEED
  5
F065
  0
ENDSEC
  0
SECTION
  2
TABLES
  0
TABLE
  2
LTYPE
 70
     2
  0
LTYPE
  2
CONTINUOUS
 70
     0
  3
実線
 72
    65
 73
     0
 40
0.0
  0
LTYPE
  2
DASHDOT
 70
     0
  3
____ _ ____ _ ____ _ ____ _ ____ _ ____ _ ____
 72
    65
 73
     4
 40
5.5
 49
4.0
 49
-0.6
 49
0.3
 49
-0.6
  0
ENDTAB
  0
TABLE
  2
LAYER
 70
    12
  0
LAYER
  2
0
 70
     0
 62
     7
  6
CONTINUOUS
  0
LAYER
  2
BASIS
 70
     0
 62
     6
  6
DASHDOT
  0
LAYER
  2
OUTLINE
 70
     0
 62
     3
  6
CONTINUOUS
  0
LAYER
  2
DETAIL
 70
     0
 62
     5
  6
CONTINUOUS
  0
LAYER
  2
SIZE
 70
     0
 62
    30
  6
CONTINUOUS
  0
LAYER
  2
ARRANGE
 70
     0
 62
     1
  6
CONTINUOUS
  0
LAYER
  2
ETC
 70
     0
 62
    61
  6
CONTINUOUS
  0
LAYER
  2
FIX
 70
     0
 62
    11
  6
CONTINUOUS
  0
LAYER
  2
NOTE
 70
     0
 62
     4
  6
CONTINUOUS
  0
LAYER
  2
DEFPOINTS
 70
    64
 62
     7
  6
CONTINUOUS
  0
LAYER
  2
SERVICESPACE
 70
    64
 62
     2
  6
DASHDOT
  0
LAYER
  2
SYMBOLLINE
 70
    64
 62
    15
  6
CONTINUOUS
  0
ENDTAB
  0
TABLE
  2
STYLE
 70
     1
  0
STYLE
  2
STANDARD
 70
     0
 40
64.0
 41
0.9
 50
0.0
 71
     0
 42
64.0
  3
SIMPLEX.shx
  4
BIGFONT.shx
  0
ENDTAB
  0
TABLE
  2
APPID
 70
    19
  0
APPID
  2
ACAD
 70
     0
  0
APPID
  2
AUTOCAD_POSTSCRIPT_FIGURE
 70
     0
  0
APPID
  2
ACAD_EXEMPT_FROM_CAD_STANDARDS
 70
     0
  0
APPID
  2
ACAD_PSEXT
 70
     0
  0
APPID
  2
ACAUTHENVIRON
 70
     0
  0
APPID
  2
GENIUS_GENOENT_13
 70
     0
  0
APPID
  2
GENIUS_GENCFG_13
 70
     0
  0
APPID
  2
GENIUS_GENCFG0_13
 70
     0
  0
APPID
  2
GENIUS_GENCFG1_13
 70
     0
  0
APPID
  2
GENIUS_GENCFG2_13
 70
     0
  0
APPID
  2
GENIUS_GENCFG3_13
 70
     0
  0
APPID
  2
GENIUS_GENCFG4_13
 70
     0
  0
APPID
  2
GENIUS_GEVCFG0_13
 70
     0
  0
APPID
  2
CONTENTBLOCKICON
 70
     0
  0
APPID
  2
CONTENTBLOCKDESCRIPTION
 70
     0
  0
APPID
  2
ACAD_NAV_VCDISPLAY
 70
     0
  0
APPID
  2
ACAD_MLEADERVER
 70
     0
  0
APPID
  2
ACDBDYNAMICBLOCKTRUENAME
 70
     0
  0
APPID
  2
ACDBDYNAMICBLOCKGUID
 70
     0
  0
ENDTAB
  0
TABLE
  2
DIMSTYLE
 70
     1
  0
DIMSTYLE
  2
STANDARD
 70
     0
  3

  4

  5
_ORIGIN
  6

  7

 40
1.0
 41
12.0
 42
20.0
 43
200.0
 44
20.0
 45
0.0
 46
0.0
 47
0.0
 48
0.0
140
64.0
141
0.09
142
0.0
143
25.399999999999999
144
1.0
145
0.0
146
1.0
147
25.0
 71
     0
 72
     0
 73
     0
 74
     0
 75
     0
 76
     0
 77
     1
 78
     8
170
     0
171
     2
172
     1
173
     0
174
     1
175
     0
176
     7
177
     7
178
     7
  0
ENDTAB
  0
TABLE
  2
VIEW
 70
     1
  0
VIEW
  2
ALL
 70
     0
 40
4282.6198079999986
 10
0.0
 20
41.309904000000003
 41
5940.0
 11
0.0
 21
0.0
 31
1.0
 12
0.0
 22
0.0
 32
0.0
 42
50.0
 43
0.0
 44
0.0
 50
0.0
 71
     0
  0
ENDTAB
  0
TABLE
  2
UCS
 70
     0
  0
ENDTAB
  0
TABLE
  2
VPORT
 70
     1
  0
VPORT
  2
*ACTIVE
 70
     0
 10
0.0
 20
0.0
 11
1.0
 21
1.0
 12
105.36576712662929
 22
216.77399684765081
 13
0.0
 23
0.0
 14
1.0
 24
1.0
 15
0.0
 25
0.0
 16
0.0
 26
0.0
 36
1.0
 17
0.0
 27
0.0
 37
0.0
 40
955.81264008342782
 41
1.767337807606264
 42
50.0
 43
0.0
 44
0.0
 50
0.0
 51
0.0
 71
     0
 72
  1000
 73
     1
 74
     3
 75
     0
 76
     0
 77
     0
 78
     0
  0
ENDTAB
  0
ENDSEC
  0
SECTION
  2
BLOCKS
  0
BLOCK
  8
0
  2
_ORIGIN
 70
     0
 10
0.0
 20
0.0
 30
0.0
  3
_ORIGIN
  1
_ORIGIN
  0
CIRCLE
  8
SIZE
  6
CONTINUOUS
 62
    30
 10
0.0
 20
0.0
 30
0.0
 40
0.5
  0
LINE
  8
SIZE
  6
CONTINUOUS
 62
    30
 10
0.0
 20
0.0
 30
0.0
 11
-1.0
 21
0.0
 31
0.0
  0
ENDBLK
  8
0
  0
ENDSEC
  0
SECTION
  2
ENTITIES
  0
CIRCLE
  8
ARRANGE
  6
CONTINUOUS
 62
     1
 10
0.0
 20
0.0
 30
0.0
 40
40.0
  0
POINT
  8
ARRANGE
  6
CONTINUOUS
 62
     1
 10
0.0
 20
0.0
 30
0.0
 39
50.0
  0
LINE
  8
BASIS
  6
DASHDOT
 62
     6
 39
50.0
 10
0.0
 20
-109.2854010143142
 30
0.0
 11
0.0
 21
140.2112066659206
 31
0.0
  0
LINE
  8
BASIS
  6
DASHDOT
 62
     6
 39
50.0
 10
95.967552833830496
 20
0.0
 30
0.0
 11
-95.967646960021966
 21
0.0
 31
0.0
  0
CIRCLE
  8
FIX
  6
CONTINUOUS
 62
    11
 39
50.315494059942047
 10
69.945735111388331
 20
0.0
 30
0.0
 40
7.0441691683918863
  0
LINE
  8
NOTE
  6
CONTINUOUS
 62
     4
 10
69.945735111388331
 20
-26.021817722442051
 30
0.0
 11
69.945735111388331
 21
26.021817722442051
 31
0.0
  0
LINE
  8
NOTE
  6
CONTINUOUS
 62
     4
 10
95.967552833830496
 20
0.0
 30
0.0
 11
43.923917388946393
 21
0.0
 31
0.0
  0
CIRCLE
  8
FIX
  6
CONTINUOUS
 62
    11
 39
50.315494059942047
 10
-69.945829237579801
 20
0.0
 30
0.0
 40
7.0441691683918863
  0
LINE
  8
NOTE
  6
CONTINUOUS
 62
     4
 10
-69.945829237579801
 20
-26.021817722442051
 30
0.0
 11
-69.945829237579801
 21
26.021817722442051
 31
0.0
  0
LINE
  8
NOTE
  6
CONTINUOUS
 62
     4
 10
-43.924011515137863
 20
0.0
 30
0.0
 11
-95.967646960021966
 21
0.0
 31
0.0
  0
LINE
  8
SIZE
  6
CONTINUOUS
 62
    30
 10
-80.000047214889264
 20
-20.508782678081499
 30
0.0
 11
-80.000047214889264
 21
-225.12943962455171
 31
0.0
  0
LINE
  8
SIZE
  6
CONTINUOUS
 62
    30
 10
79.999953088695293
 20
-20.50878267810106
 30
0.0
 11
79.999953088695065
 21
-225.12943962455171
 31
0.0
  0
LINE
  8
SIZE
  6
CONTINUOUS
 62
    30
 10
-68.000047214889264
 20
-205.12943962455171
 30
0.0
 11
67.999953088695065
 21
-205.12943962455171
 31
0.0
  0
LINE
  8
SIZE
  6
CONTINUOUS
 62
    30
 10
79.999953088695065
 20
-205.12943962455171
 30
0.0
 11
344.42281023155238
 21
-205.12943962455171
 31
0.0
  0
CIRCLE
  8
SIZE
  6
CONTINUOUS
 62
    30
 10
-80.000047214889264
 20
-205.12943962455171
 30
0.0
 40
6.0
  0
LINE
  8
SIZE
  6
CONTINUOUS
 62
    30
 10
-80.000047214889264
 20
-205.12943962455171
 30
0.0
 11
-68.000047214889264
 21
-205.12943962455171
 31
0.0
  0
CIRCLE
  8
SIZE
  6
CONTINUOUS
 62
    30
 10
79.999953088695065
 20
-205.12943962455171
 30
0.0
 40
6.0
  0
LINE
  8
SIZE
  6
CONTINUOUS
 62
    30
 10
79.999953088695065
 20
-205.12943962455171
 30
0.0
 11
67.999953088695065
 21
-205.12943962455171
 31
0.0
  0
TEXT
  8
SIZE
  6
CONTINUOUS
 62
    30
 10
113.159953088695
 20
-180.12943962455179
 30
0.0
 40
64.0
  1
□160
 41
0.9
 72
     1
 11
218.21138166012361
 21
-180.12943962455179
 31
0.0
  0
LINE
  8
SIZE
  6
CONTINUOUS
 62
    30
 10
-69.945829237579801
 20
46.021817722442051
 30
0.0
 11
-69.945829237579801
 21
609.72019390188098
 31
0.0
  0
LINE
  8
SIZE
  6
CONTINUOUS
 62
    30
 10
69.945735111388331
 20
46.021817722442051
 30
0.0
 11
69.945735111388331
 21
609.72019390188098
 31
0.0
  0
LINE
  8
SIZE
  6
CONTINUOUS
 62
    30
 10
-57.945829237579801
 20
589.72019390188098
 30
0.0
 11
57.945735111388331
 21
589.72019390188098
 31
0.0
  0
CIRCLE
  8
SIZE
  6
CONTINUOUS
 62
    30
 10
-69.945829237579801
 20
589.72019390188098
 30
0.0
 40
6.0
  0
LINE
  8
SIZE
  6
CONTINUOUS
 62
    30
 10
-69.945829237579801
 20
589.72019390188098
 30
0.0
 11
-57.945829237579801
 21
589.72019390188098
 31
0.0
  0
CIRCLE
  8
SIZE
  6
CONTINUOUS
 62
    30
 10
69.945735111388331
 20
589.72019390188098
 30
0.0
 40
6.0
  0
LINE
  8
SIZE
  6
CONTINUOUS
 62
    30
 10
69.945735111388331
 20
589.72019390188098
 30
0.0
 11
57.945735111388331
 21
589.72019390188098
 31
0.0
  0
TEXT
  8
SIZE
  6
CONTINUOUS
 62
    30
 10
-68.571475634524305
 20
614.72019390188098
 30
0.0
 40
64.0
  1
140
 41
0.9
 72
     1
 11
-0.0000470630957352
 21
614.72019390188098
 31
0.0
  0
LINE
  8
SIZE
  6
CONTINUOUS
 62
    30
 10
47.500402876777123
 20
57.453834890777443
 30
0.0
 11
47.500402876777123
 21
472.52845964063499
 31
0.0
  0
LINE
  8
SIZE
  6
CONTINUOUS
 62
    30
 10
-47.500402876777123
 20
57.453834890777443
 30
0.0
 11
-47.500402876777123
 21
472.52845964063499
 31
0.0
  0
LINE
  8
SIZE
  6
CONTINUOUS
 62
    30
 10
35.500402876777123
 20
452.52845964063499
 30
0.0
 11
-35.500402876777123
 21
452.52845964063499
 31
0.0
  0
LINE
  8
SIZE
  6
CONTINUOUS
 62
    30
 10
-47.500402876777123
 20
452.52845964063499
 30
0.0
 11
-276.52836754254048
 21
452.52845964063499
 31
0.0
  0
CIRCLE
  8
SIZE
  6
CONTINUOUS
 62
    30
 10
47.500402876777123
 20
452.52845964063499
 30
0.0
 40
6.0
  0
LINE
  8
SIZE
  6
CONTINUOUS
 62
    30
 10
47.500402876777123
 20
452.52845964063499
 30
0.0
 11
35.500402876777123
 21
452.52845964063499
 31
0.0
  0
CIRCLE
  8
SIZE
  6
CONTINUOUS
 62
    30
 10
-47.500402876777123
 20
452.52845964063499
 30
0.0
 40
6.0
  0
LINE
  8
SIZE
  6
CONTINUOUS
 62
    30
 10
-47.500402876777123
 20
452.52845964063499
 30
0.0
 11
-35.500402876777123
 21
452.52845964063499
 31
0.0
  0
TEXT
  8
SIZE
  6
CONTINUOUS
 62
    30
 10
-261.67693897111201
 20
488.19512630730168
 30
0.0
 40
64.0
  1
φ95
 41
0.9
 72
     1
 11
-174.72836754254061
 21
488.19512630730168
 31
0.0
  0
LINE
  8
SIZE
  6
CONTINUOUS
 62
    30
 10
-27.881657312999781
 20
146.06980962759991
 30
0.0
 11
-27.881657312999781
 21
317.44215147637902
 31
0.0
  0
LINE
  8
SIZE
  6
CONTINUOUS
 62
    30
 10
27.881657312999781
 20
146.06980962759991
 30
0.0
 11
27.881657312999781
 21
317.44215147637902
 31
0.0
  0
LINE
  8
SIZE
  6
CONTINUOUS
 62
    30
 10
39.881657312999778
 20
297.44215147637902
 30
0.0
 11
51.881657312999778
 21
297.44215147637902
 31
0.0
  0
LINE
  8
SIZE
  6
CONTINUOUS
 62
    30
 10
-39.881657312999778
 20
297.44215147637902
 30
0.0
 11
-267.69913302809658
 21
297.44215147637902
 31
0.0
  0
LINE
  8
SIZE
  6
CONTINUOUS
 62
    30
 10
27.881657312999781
 20
297.44215147637902
 30
0.0
 11
-27.881657312999781
 21
297.44215147637902
 31
0.0
  0
CIRCLE
  8
SIZE
  6
CONTINUOUS
 62
    30
 10
27.881657312999781
 20
297.44215147637902
 30
0.0
 40
6.0
  0
LINE
  8
SIZE
  6
CONTINUOUS
 62
    30
 10
27.881657312999781
 20
297.44215147637902
 30
0.0
 11
39.881657312999778
 21
297.44215147637902
 31
0.0
  0
CIRCLE
  8
SIZE
  6
CONTINUOUS
 62
    30
 10
-27.881657312999781
 20
297.44215147637902
 30
0.0
 40
6.0
  0
LINE
  8
SIZE
  6
CONTINUOUS
 62
    30
 10
-27.881657312999781
 20
297.44215147637902
 30
0.0
 11
-39.881657312999778
 21
297.44215147637902
 31
0.0
  0
TEXT
  8
SIZE
  6
CONTINUOUS
 62
    30
 10
-252.84770445666791
 20
333.10881814304571
 30
0.0
 40
64.0
  1
φ56
 41
0.9
 72
     1
 11
-167.27056159952511
 21
333.10881814304571
 31
0.0
  0
LINE
  8
SIZE
  6
CONTINUOUS
 62
    30
 10
-20.000000089302379
 20
-29.999999999996358
 30
0.0
 11
-166.01928072223561
 21
-29.999999999996358
 31
0.0
  0
LINE
  8
SIZE
  6
CONTINUOUS
 62
    30
 10
-115.96764696002199
 20
0.0
 30
0.0
 11
-166.01928072223561
 21
0.0
 31
0.0
  0
LINE
  8
SIZE
  6
CONTINUOUS
 62
    30
 10
-146.01928072223561
 20
12.0
 30
0.0
 11
-146.01928072223561
 21
24.0
 31
0.0
  0
LINE
  8
SIZE
  6
CONTINUOUS
 62
    30
 10
-146.01928072223561
 20
-41.999999999996362
 30
0.0
 11
-146.01928072223561
 21
-257.89999999999998
 31
0.0
  0
LINE
  8
SIZE
  6
CONTINUOUS
 62
    30
 10
-146.01928072223561
 20
0.0
 30
0.0
 11
-146.01928072223561
 21
-29.999999999996358
 31
0.0
  0
CIRCLE
  8
SIZE
  6
CONTINUOUS
 62
    30
 10
-146.01928072223561
 20
0.0
 30
0.0
 40
6.0
  0
LINE
  8
SIZE
  6
CONTINUOUS
 62
    30
 10
-146.01928072223561
 20
0.0
 30
0.0
 11
-146.01928072223561
 21
12.0
 31
0.0
  0
CIRCLE
  8
SIZE
  6
CONTINUOUS
 62
    30
 10
-146.01928072223561
 20
-29.999999999996358
 30
0.0
 40
6.0
  0
LINE
  8
SIZE
  6
CONTINUOUS
 62
    30
 10
-146.01928072223561
 20
-29.999999999996358
 30
0.0
 11
-146.01928072223561
 21
-41.999999999996362
 31
0.0
  0
TEXT
  8
SIZE
  6
CONTINUOUS
 62
    30
 10
-171.01928072223561
 20
-232.90000000000001
 30
0.0
 40
64.0
  1
30
 50
90.0
 41
0.9
 72
     1
 11
-171.01928072223561
 21
-186.2714285714286
 31
0.0
  0
LINE
  8
SIZE
  6
CONTINUOUS
 62
    30
 10
-115.96764696002199
 20
0.0
 30
0.0
 11
-283.84631854910282
 21
0.0000000000001137
 31
0.0
  0
LINE
  8
SIZE
  6
CONTINUOUS
 62
    30
 10
-63.499952204999772
 20
61.5
 30
0.0
 11
-283.84631854910282
 21
61.500000000000107
 31
0.0
  0
LINE
  8
SIZE
  6
CONTINUOUS
 62
    30
 10
-263.84631854910282
 20
73.500000000000114
 30
0.0
 11
-263.84631854910282
 21
85.500000000000114
 31
0.0
  0
LINE
  8
SIZE
  6
CONTINUOUS
 62
    30
 10
-263.84631854910282
 20
-11.99999999999989
 30
0.0
 11
-263.84631854910282
 21
-244.05714285714279
 31
0.0
  0
LINE
  8
SIZE
  6
CONTINUOUS
 62
    30
 10
-263.84631854910282
 20
61.500000000000107
 30
0.0
 11
-263.84631854910282
 21
0.0000000000001137
 31
0.0
  0
CIRCLE
  8
SIZE
  6
CONTINUOUS
 62
    30
 10
-263.84631854910282
 20
61.500000000000107
 30
0.0
 40
6.0
  0
LINE
  8
SIZE
  6
CONTINUOUS
 62
    30
 10
-263.84631854910282
 20
61.500000000000107
 30
0.0
 11
-263.84631854910282
 21
73.500000000000114
 31
0.0
  0
CIRCLE
  8
SIZE
  6
CONTINUOUS
 62
    30
 10
-263.84631854910282
 20
0.0000000000001137
 30
0.0
 40
6.0
  0
LINE
  8
SIZE
  6
CONTINUOUS
 62
    30
 10
-263.84631854910282
 20
0.0000000000001137
 30
0.0
 11
-263.84631854910282
 21
-11.99999999999989
 31
0.0
  0
TEXT
  8
SIZE
  6
CONTINUOUS
 62
    30
 10
-288.84631854910282
 20
-219.05714285714291
 30
0.0
 40
64.0
  1
61.5
 50
90.0
 41
0.9
 72
     1
 11
-288.84631854910282
 21
-136.7714285714286
 31
0.0
  0
LINE
  8
SIZE
  6
CONTINUOUS
 62
    30
 10
-115.96764696002199
 20
0.0
 30
0.0
 11
-404.80900189023851
 21
0.0000000000001137
 31
0.0
  0
LINE
  8
SIZE
  6
CONTINUOUS
 62
    30
 10
-43.882181445199883
 20
130.0
 30
0.0
 11
-404.80900189023828
 21
130.00000000000011
 31
0.0
  0
LINE
  8
SIZE
  6
CONTINUOUS
 62
    30
 10
-384.80900189023851
 20
118.0000000000001
 30
0.0
 11
-384.80900189023851
 21
12.00000000000011
 31
0.0
  0
LINE
  8
SIZE
  6
CONTINUOUS
 62
    30
 10
-384.80900189023851
 20
0.0000000000001137
 30
0.0
 11
-384.80900189023851
 21
-218.46736135373669
 31
0.0
  0
CIRCLE
  8
SIZE
  6
CONTINUOUS
 62
    30
 10
-384.80900189023828
 20
130.00000000000011
 30
0.0
 40
6.0
  0
LINE
  8
SIZE
  6
CONTINUOUS
 62
    30
 10
-384.80900189023828
 20
130.00000000000011
 30
0.0
 11
-384.80900189023828
 21
118.0000000000001
 31
0.0
  0
CIRCLE
  8
SIZE
  6
CONTINUOUS
 62
    30
 10
-384.80900189023851
 20
0.0000000000001137
 30
0.0
 40
6.0
  0
LINE
  8
SIZE
  6
CONTINUOUS
 62
    30
 10
-384.80900189023851
 20
0.0000000000001137
 30
0.0
 11
-384.80900189023851
 21
12.00000000000011
 31
0.0
  0
TEXT
  8
SIZE
  6
CONTINUOUS
 62
    30
 10
-409.80900189023851
 20
-193.46736135373669
 30
0.0
 40
64.0
  1
130
 50
90.0
 41
0.9
 72
     1
 11
-409.80900189023851
 21
-124.89593278230809
 31
0.0
  0
TEXT
  8
NOTE
  6
CONTINUOUS
 62
     4
 10
142.25035519483211
 20
57.077251435147453
 30
0.0
 40
64.0
  1
2-φ4×10
 41
0.9
  0
TEXT
  8
NOTE
  6
CONTINUOUS
 62
     4
 10
-540.73771773540921
 20
177.40600858049311
 30
0.0
 40
64.0
  1
2-φ5×7
 41
0.9
  0
TEXT
  8
NOTE
  6
CONTINUOUS
 62
     4
 10
149.43456816008529
 20
220.72169738660611
 30
0.0
 40
64.0
  1
EL
 41
0.9
  0
LINE
  8
NOTE
  6
CONTINUOUS
 62
     4
 10
-72.099484790491942
 20
5.826359673879665
 30
0.0
 11
-69.945829237579801
 21
0.0
 31
0.0
  0
LINE
  8
NOTE
  6
CONTINUOUS
 62
     4
 10
-69.945829237579801
 20
0.0
 30
0.0
 11
-74.724135475318462
 21
3.9689405120748229
 31
0.0
  0
LINE
  8
NOTE
  6
CONTINUOUS
 62
     4
 10
-69.945829237579801
 20
0.0
 30
0.0
 11
-76.877791028230376
 21
9.7953001859544884
 31
0.0
  0
LINE
  8
NOTE
  6
CONTINUOUS
 62
     4
 10
-76.877791028230376
 20
9.7953001859544884
 30
0.0
 11
-178.2599538322097
 21
152.20536933482441
 31
0.0
  0
LINE
  8
NOTE
  6
CONTINUOUS
 62
     4
 10
-178.2599538322097
 20
152.20536933482441
 30
0.0
 11
-540.73771773540921
 21
152.20536933482441
 31
0.0
  0
LINE
  8
NOTE
  6
CONTINUOUS
 62
     4
 10
65.648774163424832
 20
11.097725531963871
 30
0.0
 11
137.43456816008529
 21
188.72169738660611
 31
0.0
  0
LINE
  8
NOTE
  6
CONTINUOUS
 62
     4
 10
137.43456816008529
 20
188.72169738660611
 30
0.0
 11
234.46313958865679
 21
188.72169738660611
 31
0.0
  0
LINE
  8
NOTE
  6
CONTINUOUS
 62
     4
 10
76.10311955087127
 20
0.8193388520101053
 30
0.0
 11
69.945735111388331
 21
0.0
 31
0.0
  0
LINE
  8
NOTE
  6
CONTINUOUS
 62
     4
 10
69.945735111388331
 20
0.0
 30
0.0
 11
74.868511322141558
 21
3.7882678982408611
 31
0.0
  0
LINE
  8
NOTE
  6
CONTINUOUS
 62
     4
 10
69.945735111388331
 20
0.0
 30
0.0
 11
81.025895761624497
 21
4.6076067502510796
 31
0.0
  0
LINE
  8
NOTE
  6
CONTINUOUS
 62
     4
 10
81.025895761624497
 20
4.6076067502510796
 30
0.0
 11
130.25035519483211
 21
25.077251435147449
 31
0.0
  0
LINE
  8
NOTE
  6
CONTINUOUS
 62
     4
 10
130.25035519483211
 20
25.077251435147449
 30
0.0
 11
535.34347267427074
 21
25.077251435147449
 31
0.0
  0
CIRCLE
  8
FIX
  6
CONTINUOUS
 62
    11
 39
50.315494059942047
 10
61.083635828478243
 20
0.0
 30
0.0
 40
7.0441691683918863
  0
LINE
  8
NOTE
  6
CONTINUOUS
 62
     4
 10
61.083635828478243
 20
-26.021817722442051
 30
0.0
 11
61.083635828478243
 21
26.021817722442169
 31
0.0
  0
LINE
  8
NOTE
  6
CONTINUOUS
 62
     4
 10
87.105453550920174
 20
0.0
 30
0.0
 11
35.061818106036299
 21
0.0
 31
0.0
  0
LINE
  8
NOTE
  6
CONTINUOUS
 62
     4
 10
64.853022774096416
 20
4.9372483575574506
 30
0.0
 11
61.083635828478243
 21
0.0
 31
0.0
  0
LINE
  8
NOTE
  6
CONTINUOUS
 62
     4
 10
61.083635828478243
 20
0.0
 30
0.0
 11
61.879387217806652
 21
6.1604771744064237
 31
0.0
  0
LINE
  8
NOTE
  6
CONTINUOUS
 62
     4
 10
61.083635828478243
 20
0.0
 30
0.0
 11
65.648774163424832
 21
11.097725531963871
 31
0.0
  0
ARC
  8
DETAIL
  6
CONTINUOUS
 62
     5
 10
-40.224926606891593
 20
55.437113749305809
 30
0.0
 40
7.0000000000000124
 50
116.87604462994391
 51
165.84859300457501
  0
LINE
  8
DETAIL
  6
CONTINUOUS
 62
     5
 10
-42.127120270288742
 20
37.453834890777443
 30
0.0
 11
-42.127120270288742
 21
50.299999999941519
 31
0.0
  0
LINE
  8
DETAIL
  6
CONTINUOUS
 62
     5
 10
-26.379010463712799
 20
50.299999999941519
 30
0.0
 11
-42.630907050918722
 21
50.299999999941519
 31
0.0
  0
ARC
  8
DETAIL
  6
CONTINUOUS
 62
     5
 10
-0.0000000053840218
 20
9969.9999987012961
 30
0.0
 40
9999.9999987012907
 50
269.55018409006613
 51
270.44981590995712
  0
LINE
  8
DETAIL
  6
CONTINUOUS
 62
     5
 10
26.18127404509778
 20
-27.81693616169991
 30
0.0
 11
52.362550927497978
 21
-27.71409232639985
 31
0.0
  0
LINE
  8
DETAIL
  6
CONTINUOUS
 62
     5
 10
52.362550927497978
 20
-27.71409232639985
 30
0.0
 11
79.519240639980808
 21
-27.542685287899989
 31
0.0
  0
LINE
  8
DETAIL
  6
CONTINUOUS
 62
     5
 10
79.498877095600164
 20
-28.709311964000111
 30
0.0
 11
79.991120151124505
 21
-0.5087262032195667
 31
0.0
  0
ARC
  8
DETAIL
  6
CONTINUOUS
 62
     5
 10
78.499029400400104
 20
-28.691859557500042
 30
0.0
 40
1.000000000000056
 50
270.44981590980211
 51
358.99999999999818
  0
LINE
  8
DETAIL
  6
CONTINUOUS
 62
     5
 10
-0.0000000893023753
 20
-27.85121727849992
 30
0.0
 11
26.18127404509778
 21
-27.81693616169991
 31
0.0
  0
LINE
  8
DETAIL
  6
CONTINUOUS
 62
     5
 10
-52.362551026802073
 20
-27.7140923259999
 30
0.0
 11
-26.18127420390238
 21
-27.816936161399781
 31
0.0
  0
LINE
  8
DETAIL
  6
CONTINUOUS
 62
     5
 10
-26.18127420390238
 20
-27.816936161399781
 30
0.0
 11
-0.0000000893023753
 21
-27.85121727849992
 31
0.0
  0
LINE
  8
DETAIL
  6
CONTINUOUS
 62
     5
 10
-79.519240640082671
 20
-27.542685287499811
 30
0.0
 11
-52.362551026802073
 21
-27.7140923259999
 31
0.0
  0
LINE
  8
DETAIL
  6
CONTINUOUS
 62
     5
 10
-79.498877095700209
 20
-28.709311964000111
 30
0.0
 11
-79.991120151099949
 21
-0.5087262032000126
 31
0.0
  0
ARC
  8
DETAIL
  6
CONTINUOUS
 62
     5
 10
-79.491187319099936
 20
-0.5
 30
0.0
 40
0.500000000000002
 50
90.001029543201426
 51
180.99998203380861
  0
ARC
  8
DETAIL
  6
CONTINUOUS
 62
     5
 10
-78.499029400500149
 20
-28.691859557500042
 30
0.0
 40
1.000000000000014
 50
181.00000000000179
 51
269.54824701919603
  0
ARC
  8
DETAIL
  6
CONTINUOUS
 62
     5
 10
79.491196303546531
 20
-0.5
 30
0.0
 40
0.4999999999999939
 50
358.99999999989399
 51
90.0
  0
LINE
  8
DETAIL
  6
CONTINUOUS
 62
     5
 10
-79.491196303600191
 20
0.0
 30
0.0
 11
79.491196303546531
 21
0.0
 31
0.0
  0
LINE
  8
DETAIL
  6
CONTINUOUS
 62
     5
 10
-14.305841842754029
 20
59.299999999916047
 30
0.0
 11
-25.82048452331583
 21
59.299999999916047
 31
0.0
  0
LINE
  8
DETAIL
  6
CONTINUOUS
 62
     5
 10
-12.94134258873328
 20
37.453834890777443
 30
0.0
 11
-14.03510846002291
 21
54.950100376528333
 31
0.0
  0
LINE
  8
DETAIL
  6
CONTINUOUS
 62
     5
 10
-14.03510846002291
 20
54.950100376528333
 30
0.0
 11
-14.305841842754029
 21
59.299999999916047
 31
0.0
  0
LINE
  8
DETAIL
  6
CONTINUOUS
 62
     5
 10
-40.406908635448872
 20
50.295585670641458
 30
0.0
 11
-40.309370541048793
 21
50.299998691941482
 31
0.0
  0
LINE
  8
DETAIL
  6
CONTINUOUS
 62
     5
 10
-40.307317182048791
 20
50.299999999941292
 30
0.0
 11
-40.309370540549033
 21
50.299998370541289
 31
0.0
  0
LINE
  8
DETAIL
  6
CONTINUOUS
 62
     5
 10
-29.462316400479271
 20
50.299999999941292
 30
0.0
 11
-29.688144822566979
 21
37.453834890777443
 31
0.0
  0
LINE
  8
DETAIL
  6
CONTINUOUS
 62
     5
 10
-25.82048452331583
 20
59.299999999916047
 30
0.0
 11
-27.176223402392221
 21
37.453834890777443
 31
0.0
  0
ARC
  8
DETAIL
  6
CONTINUOUS
 62
     5
 10
4825.5665076074274
 20
-17.44933104151448
 30
0.0
 40
4870.8609351748901
 50
179.12069152242549
 51
179.35416215994559
  0
ARC
  8
DETAIL
  6
CONTINUOUS
 62
     5
 10
-46.653971591031222
 20
56.799999999923102
 30
0.0
 40
0.499999999998636
 50
90.0
 51
179.02224891588941
  0
LINE
  8
DETAIL
  6
CONTINUOUS
 62
     5
 10
-29.117936833480599
 20
55.499999964026763
 30
0.0
 11
-29.107018549380431
 21
54.989274757228259
 31
0.0
  0
LINE
  8
DETAIL
  6
CONTINUOUS
 62
     5
 10
-28.607132606181949
 20
54.499999999929742
 30
0.0
 11
-26.11836502486085
 21
54.499999999929742
 31
0.0
  0
LINE
  8
DETAIL
  6
CONTINUOUS
 62
     5
 10
-14.0070537244228
 20
54.499999999929742
 30
0.0
 11
14.25
 21
54.499999999929742
 31
0.0
  0
LINE
  8
DETAIL
  6
CONTINUOUS
 62
     5
 10
-29.11793683438054
 20
55.499999999926793
 30
0.0
 11
-26.056744395688838
 21
55.499999999926793
 31
0.0
  0
LINE
  8
DETAIL
  6
CONTINUOUS
 62
     5
 10
-14.069333660222579
 20
55.499999999926793
 30
0.0
 11
14.25
 21
55.499999999926793
 31
0.0
  0
LINE
  8
DETAIL
  6
CONTINUOUS
 62
     5
 10
-39.672309231950749
 20
57.299999999921738
 30
0.0
 11
-39.648795221497039
 21
59.5
 31
0.0
  0
ARC
  8
DETAIL
  6
CONTINUOUS
 62
     5
 10
-28.607132606181949
 20
54.99999999992815
 30
0.0
 40
0.499999999998626
 50
181.2246682385065
 51
269.99999999989569
  0
LINE
  8
DETAIL
  6
CONTINUOUS
 62
     5
 10
-39.672309231950749
 20
57.299999999921738
 30
0.0
 11
-46.653971590731089
 21
57.299999999921738
 31
0.0
  0
LINE
  8
DETAIL
  6
CONTINUOUS
 62
     5
 10
-26.965066047288929
 20
55.499999999926793
 30
0.0
 11
-26.947610982367681
 21
54.499999999929742
 31
0.0
  0
LINE
  8
DETAIL
  6
CONTINUOUS
 62
     5
 10
-47.153898789529649
 20
56.8085320737232
 30
0.0
 11
-47.827257542156786
 21
0.0
 31
0.0
  0
LINE
  8
DETAIL
  6
CONTINUOUS
 62
     5
 10
-47.383312475763809
 20
37.453834890777451
 30
0.0
 11
47.383312475763809
 21
37.453834890777451
 31
0.0
  0
LINE
  8
DETAIL
  6
CONTINUOUS
 62
     5
 10
-26.965066047288929
 20
55.499999999926793
 30
0.0
 11
-26.895245787575728
 21
59.5
 31
0.0
  0
LINE
  8
DETAIL
  6
CONTINUOUS
 62
     5
 10
-29.160692835900139
 20
55.500000035700168
 30
0.0
 11
-29.075180831683159
 21
59.5
 31
0.0
  0
ARC
  8
DETAIL
  6
CONTINUOUS
 62
     5
 10
-33.947787133400197
 20
65.0
 30
0.0
 40
1.00000000000001
 50
270.00069121539678
 51
358.99902813810633
  0
LINE
  8
DETAIL
  6
CONTINUOUS
 62
     5
 10
-35.991120151199993
 20
62.508726201200027
 30
0.0
 11
-35.973665086200072
 21
63.508726200999938
 31
0.0
  0
ARC
  8
DETAIL
  6
CONTINUOUS
 62
     5
 10
-35.473741238599807
 20
63.5
 30
0.0
 40
0.5
 50
90.0
 51
179.0000002379046
  0
ARC
  8
DETAIL
  6
CONTINUOUS
 62
     5
 10
-35.491196303600191
 20
62.5
 30
0.0
 40
0.499999999986594
 50
178.99999999568541
 51
269.9999871960008
  0
LINE
  8
DETAIL
  6
CONTINUOUS
 62
     5
 10
-32.94793973420019
 20
64.982530633800025
 30
0.0
 11
-32.87732460999996
 21
69.028068387599888
 31
0.0
  0
LINE
  8
DETAIL
  6
CONTINUOUS
 62
     5
 10
35.473741238599807
 20
64.0
 30
0.0
 11
-35.473741238599807
 21
64.0
 31
0.0
  0
LINE
  8
DETAIL
  6
CONTINUOUS
 62
     5
 10
35.529166818800149
 20
62.0
 30
0.0
 11
-35.491196303600191
 21
62.0
 31
0.0
  0
LINE
  8
DETAIL
  6
CONTINUOUS
 62
     5
 10
-31.877519560200199
 20
70.0
 30
0.0
 11
31.87751938209772
 21
69.999999999998522
 31
0.0
  0
LINE
  8
DETAIL
  6
CONTINUOUS
 62
     5
 10
23.88329807460013
 20
130.0
 30
0.0
 11
-23.88218144519988
 21
130.0
 31
0.0
  0
ARC
  8
DETAIL
  6
CONTINUOUS
 62
     5
 10
-31.8775176342001
 20
69.000003404200015
 30
0.0
 40
0.999996595800034
 50
90.000100147494976
 51
178.39468745880359
  0
LINE
  8
DETAIL
  6
CONTINUOUS
 62
     5
 10
-28.860359480753232
 20
70.0
 30
0.0
 11
-27.881657313000229
 21
126.06980962759989
 31
0.0
  0
ARC
  8
DETAIL
  6
CONTINUOUS
 62
     5
 10
-23.88226653260017
 20
126.0
 30
0.0
 40
4.0
 50
89.999998803497519
 51
178.9999999719065
  0
LINE
  8
DETAIL
  6
CONTINUOUS
 62
     5
 10
-43.499952205000227
 20
61.5
 30
0.0
 11
43.499965203000102
 21
61.5
 31
0.0
  0
LINE
  8
DETAIL
  6
CONTINUOUS
 62
     5
 10
-43.573632885999807
 20
61.42512463980006
 30
0.0
 11
-43.573452825590721
 21
61.425765964072532
 31
0.0
  0
LINE
  8
DETAIL
  6
CONTINUOUS
 62
     5
 10
-43.573452825590721
 20
61.425765964072532
 30
0.0
 11
-43.573270815320939
 21
61.426413015938351
 31
0.0
  0
LINE
  8
DETAIL
  6
CONTINUOUS
 62
     5
 10
-43.573270815320939
 20
61.426413015938351
 30
0.0
 11
-43.573086699399937
 21
61.427065549093868
 31
0.0
  0
LINE
  8
DETAIL
  6
CONTINUOUS
 62
     5
 10
-43.573086699399937
 20
61.427065549093868
 30
0.0
 11
-43.57290749831418
 21
61.42769942164341
 31
0.0
  0
LINE
  8
DETAIL
  6
CONTINUOUS
 62
     5
 10
-43.57290749831418
 20
61.42769942164341
 30
0.0
 11
-43.57273500733254
 21
61.428308655056071
 31
0.0
  0
LINE
  8
DETAIL
  6
CONTINUOUS
 62
     5
 10
-43.57273500733254
 20
61.428308655056071
 30
0.0
 11
-43.572542944564702
 21
61.428983819848327
 31
0.0
  0
LINE
  8
DETAIL
  6
CONTINUOUS
 62
     5
 10
-43.572542944564702
 20
61.428983819848327
 30
0.0
 11
-43.572324291918903
 21
61.429749048648318
 31
0.0
  0
LINE
  8
DETAIL
  6
CONTINUOUS
 62
     5
 10
-43.572324291918903
 20
61.429749048648318
 30
0.0
 11
-43.572177163656761
 21
61.430266173487333
 31
0.0
  0
LINE
  8
DETAIL
  6
CONTINUOUS
 62
     5
 10
-43.572177163656761
 20
61.430266173487333
 30
0.0
 11
-43.572127844064198
 21
61.430444614582711
 31
0.0
  0
LINE
  8
DETAIL
  6
CONTINUOUS
 62
     5
 10
-43.572127844064198
 20
61.430444614582711
 30
0.0
 11
-43.571810165175982
 21
61.431546445494398
 31
0.0
  0
LINE
  8
DETAIL
  6
CONTINUOUS
 62
     5
 10
-43.571810165175982
 20
61.431546445494398
 30
0.0
 11
-43.571810165175982
 21
61.431546445494398
 31
0.0
  0
LINE
  8
DETAIL
  6
CONTINUOUS
 62
     5
 10
-43.571810165175982
 20
61.431546445494398
 30
0.0
 11
-43.570911950600482
 21
61.434637025226273
 31
0.0
  0
LINE
  8
DETAIL
  6
CONTINUOUS
 62
     5
 10
-43.570911950600482
 20
61.434637025226273
 30
0.0
 11
-43.56972944249128
 21
61.438642201214861
 31
0.0
  0
LINE
  8
DETAIL
  6
CONTINUOUS
 62
     5
 10
-43.56972944249128
 20
61.438642201214861
 30
0.0
 11
-43.56972944249128
 21
61.438642201214861
 31
0.0
  0
LINE
  8
DETAIL
  6
CONTINUOUS
 62
     5
 10
-43.56972944249128
 20
61.438642201214861
 30
0.0
 11
-43.568613818120873
 21
61.44229323068248
 31
0.0
  0
LINE
  8
DETAIL
  6
CONTINUOUS
 62
     5
 10
-43.568613818120873
 20
61.44229323068248
 30
0.0
 11
-43.567527576693458
 21
61.445682521560002
 31
0.0
  0
LINE
  8
DETAIL
  6
CONTINUOUS
 62
     5
 10
-43.567527576693458
 20
61.445682521560002
 30
0.0
 11
-43.566363092707888
 21
61.449151652497683
 31
0.0
  0
LINE
  8
DETAIL
  6
CONTINUOUS
 62
     5
 10
-43.566363092707888
 20
61.449151652497683
 30
0.0
 11
-43.565120919919991
 21
61.452677734315102
 31
0.0
  0
LINE
  8
DETAIL
  6
CONTINUOUS
 62
     5
 10
-43.565120919919991
 20
61.452677734315102
 30
0.0
 11
-43.565120919919991
 21
61.452677734315102
 31
0.0
  0
LINE
  8
DETAIL
  6
CONTINUOUS
 62
     5
 10
-43.565120919919991
 20
61.452677734315102
 30
0.0
 11
-43.563817647161613
 21
61.456170941028397
 31
0.0
  0
LINE
  8
DETAIL
  6
CONTINUOUS
 62
     5
 10
-43.563817647161613
 20
61.456170941028397
 30
0.0
 11
-43.562425824309678
 21
61.459638167266348
 31
0.0
  0
LINE
  8
DETAIL
  6
CONTINUOUS
 62
     5
 10
-43.562425824309678
 20
61.459638167266348
 30
0.0
 11
-43.562425824309678
 21
61.459638167266348
 31
0.0
  0
LINE
  8
DETAIL
  6
CONTINUOUS
 62
     5
 10
-43.562425824309678
 20
61.459638167266348
 30
0.0
 11
-43.560923985643512
 21
61.46310488415611
 31
0.0
  0
LINE
  8
DETAIL
  6
CONTINUOUS
 62
     5
 10
-43.560923985643512
 20
61.46310488415611
 30
0.0
 11
-43.559358642000007
 21
61.466574148199918
 31
0.0
  0
LINE
  8
DETAIL
  6
CONTINUOUS
 62
     5
 10
-43.96508987019979
 20
59.5
 30
0.0
 11
-43.991273743799873
 21
61.000073110999892
 31
0.0
  0
LINE
  8
DETAIL
  6
CONTINUOUS
 62
     5
 10
-43.499996992200067
 20
61.5
 30
0.0
 11
-43.991273743799873
 21
61.000073110999892
 31
0.0
  0
LINE
  8
DETAIL
  6
CONTINUOUS
 62
     5
 10
43.965017504000123
 20
59.5
 30
0.0
 11
-43.965020177000042
 21
59.5
 31
0.0
  0
LINE
  8
DETAIL
  6
CONTINUOUS
 62
     5
 10
-28.704814704653931
 20
78.91115425286489
 30
0.0
 11
-43.543635319408168
 21
61.5
 31
0.0
  0
LINE
  8
DETAIL
  6
CONTINUOUS
 62
     5
 39
50.0
 10
-39.423593026212757
 20
50.299999999941519
 30
0.0
 11
-37.963231073199722
 21
37.453834890777443
 31
0.0
  0
LINE
  8
DETAIL
  6
CONTINUOUS
 62
     5
 39
50.0
 10
-42.630907050918722
 20
50.299999999941519
 30
0.0
 11
-44.260067748738038
 21
48.813089803245703
 31
0.0
  0
LINE
  8
DETAIL
  6
CONTINUOUS
 62
     5
 39
50.0
 10
-44.260067748738038
 20
48.813089803245703
 30
0.0
 11
-44.260067748738038
 21
37.453834890777443
 31
0.0
  0
ARC
  8
DETAIL
  6
CONTINUOUS
 62
     5
 10
40.224926606891593
 20
55.437113749305809
 30
0.0
 40
7.0000000000000124
 50
14.15140699542504
 51
63.123955370056109
  0
LINE
  8
DETAIL
  6
CONTINUOUS
 62
     5
 10
42.127120270288742
 20
37.453834890777443
 30
0.0
 11
42.127120270288742
 21
50.299999999941519
 31
0.0
  0
LINE
  8
DETAIL
  6
CONTINUOUS
 62
     5
 10
26.379010463712799
 20
50.299999999941519
 30
0.0
 11
42.630907050918722
 21
50.299999999941519
 31
0.0
  0
LINE
  8
DETAIL
  6
CONTINUOUS
 62
     5
 10
14.305841842754029
 20
59.299999999916047
 30
0.0
 11
25.82048452331583
 21
59.299999999916047
 31
0.0
  0
LINE
  8
DETAIL
  6
CONTINUOUS
 62
     5
 10
12.94134258873328
 20
37.453834890777443
 30
0.0
 11
14.03510846002291
 21
54.950100376528333
 31
0.0
  0
LINE
  8
DETAIL
  6
CONTINUOUS
 62
     5
 10
14.03510846002291
 20
54.950100376528333
 30
0.0
 11
14.305841842754029
 21
59.299999999916047
 31
0.0
  0
LINE
  8
DETAIL
  6
CONTINUOUS
 62
     5
 10
40.406908635448872
 20
50.295585670641458
 30
0.0
 11
40.309370541048793
 21
50.299998691941482
 31
0.0
  0
LINE
  8
DETAIL
  6
CONTINUOUS
 62
     5
 10
40.307317182048791
 20
50.299999999941292
 30
0.0
 11
40.309370540549033
 21
50.299998370541289
 31
0.0
  0
LINE
  8
DETAIL
  6
CONTINUOUS
 62
     5
 10
29.462316400479271
 20
50.299999999941292
 30
0.0
 11
29.688144822566979
 21
37.453834890777443
 31
0.0
  0
LINE
  8
DETAIL
  6
CONTINUOUS
 62
     5
 10
25.82048452331583
 20
59.299999999916047
 30
0.0
 11
27.176223402392221
 21
37.453834890777443
 31
0.0
  0
LINE
  8
DETAIL
  6
CONTINUOUS
 62
     5
 10
39.672309231950749
 20
57.299999999921738
 30
0.0
 11
46.653955003231196
 21
57.299999999921738
 31
0.0
  0
ARC
  8
DETAIL
  6
CONTINUOUS
 62
     5
 10
-4825.5665076074274
 20
-17.44933104151448
 30
0.0
 40
4870.8609351748901
 50
0.6458378400543671
 51
0.8793084775745201
  0
ARC
  8
DETAIL
  6
CONTINUOUS
 62
     5
 10
46.653971591031222
 20
56.799999999923102
 30
0.0
 40
0.499999999998636
 50
0.9777510841106442
 51
90.0
  0
LINE
  8
DETAIL
  6
CONTINUOUS
 62
     5
 10
29.117936833480599
 20
55.499999964026763
 30
0.0
 11
29.107018549380431
 21
54.989274757228259
 31
0.0
  0
LINE
  8
DETAIL
  6
CONTINUOUS
 62
     5
 10
28.607132606181949
 20
54.499999999929742
 30
0.0
 11
26.11836502486085
 21
54.499999999929742
 31
0.0
  0
LINE
  8
DETAIL
  6
CONTINUOUS
 62
     5
 10
29.11793683438054
 20
55.499999999926793
 30
0.0
 11
26.056744395688838
 21
55.499999999926793
 31
0.0
  0
LINE
  8
DETAIL
  6
CONTINUOUS
 62
     5
 10
39.672309231950749
 20
57.299999999921738
 30
0.0
 11
39.648795221497039
 21
59.5
 31
0.0
  0
ARC
  8
DETAIL
  6
CONTINUOUS
 62
     5
 10
28.607132606181949
 20
54.99999999992815
 30
0.0
 40
0.499999999998626
 50
270.00000000010431
 51
358.77533176149348
  0
LINE
  8
DETAIL
  6
CONTINUOUS
 62
     5
 10
26.965066047288929
 20
55.499999999926793
 30
0.0
 11
26.947610982367681
 21
54.499999999929742
 31
0.0
  0
LINE
  8
DETAIL
  6
CONTINUOUS
 62
     5
 10
26.965066047288929
 20
55.499999999926793
 30
0.0
 11
26.895245787575728
 21
59.5
 31
0.0
  0
LINE
  8
DETAIL
  6
CONTINUOUS
 62
     5
 10
29.160692835900139
 20
55.500000035700168
 30
0.0
 11
29.075180831683159
 21
59.5
 31
0.0
  0
ARC
  8
DETAIL
  6
CONTINUOUS
 62
     5
 10
33.947787133400197
 20
65.0
 30
0.0
 40
1.00000000000001
 50
181.00097186189379
 51
269.99930878460322
  0
LINE
  8
DETAIL
  6
CONTINUOUS
 62
     5
 10
35.991120151199993
 20
62.508726201200027
 30
0.0
 11
35.973665086200072
 21
63.508726200999938
 31
0.0
  0
ARC
  8
DETAIL
  6
CONTINUOUS
 62
     5
 10
35.473741238599807
 20
63.5
 30
0.0
 40
0.5
 50
0.9999997620953904
 51
90.0
  0
ARC
  8
DETAIL
  6
CONTINUOUS
 62
     5
 10
35.491196303600191
 20
62.5
 30
0.0
 40
0.499999999986594
 50
270.0000128039992
 51
1.0000000043145889
  0
LINE
  8
DETAIL
  6
CONTINUOUS
 62
     5
 10
32.94793973420019
 20
64.982530633800025
 30
0.0
 11
32.87732460999996
 21
69.028068387599888
 31
0.0
  0
ARC
  8
DETAIL
  6
CONTINUOUS
 62
     5
 10
31.8775176342001
 20
69.000003404200015
 30
0.0
 40
0.999996595800034
 50
1.6053125411963489
 51
89.999899852505024
  0
LINE
  8
DETAIL
  6
CONTINUOUS
 62
     5
 10
28.860359480753232
 20
70.0
 30
0.0
 11
27.881657313000229
 21
126.06980962759989
 31
0.0
  0
ARC
  8
DETAIL
  6
CONTINUOUS
 62
     5
 10
23.88226653260017
 20
126.0
 30
0.0
 40
4.0
 50
1.000000028093526
 51
90.000001196502481
  0
LINE
  8
DETAIL
  6
CONTINUOUS
 62
     5
 10
43.573632885999807
 20
61.42512463980006
 30
0.0
 11
43.573452825590721
 21
61.425765964072532
 31
0.0
  0
LINE
  8
DETAIL
  6
CONTINUOUS
 62
     5
 10
43.573452825590721
 20
61.425765964072532
 30
0.0
 11
43.573270815320939
 21
61.426413015938351
 31
0.0
  0
LINE
  8
DETAIL
  6
CONTINUOUS
 62
     5
 10
43.573270815320939
 20
61.426413015938351
 30
0.0
 11
43.573270815320939
 21
61.426413015938351
 31
0.0
  0
LINE
  8
DETAIL
  6
CONTINUOUS
 62
     5
 10
43.573270815320939
 20
61.426413015938351
 30
0.0
 11
43.573086699399937
 21
61.427065549093868
 31
0.0
  0
LINE
  8
DETAIL
  6
CONTINUOUS
 62
     5
 10
43.573086699399937
 20
61.427065549093868
 30
0.0
 11
43.57290749831418
 21
61.42769942164341
 31
0.0
  0
LINE
  8
DETAIL
  6
CONTINUOUS
 62
     5
 10
43.57290749831418
 20
61.42769942164341
 30
0.0
 11
43.57273500733254
 21
61.428308655056071
 31
0.0
  0
LINE
  8
DETAIL
  6
CONTINUOUS
 62
     5
 10
43.57273500733254
 20
61.428308655056071
 30
0.0
 11
43.572542944564702
 21
61.428983819848327
 31
0.0
  0
LINE
  8
DETAIL
  6
CONTINUOUS
 62
     5
 10
43.572542944564702
 20
61.428983819848327
 30
0.0
 11
43.572324291918903
 21
61.429749048648318
 31
0.0
  0
LINE
  8
DETAIL
  6
CONTINUOUS
 62
     5
 10
43.572324291918903
 20
61.429749048648318
 30
0.0
 11
43.572177163656761
 21
61.430266173487333
 31
0.0
  0
LINE
  8
DETAIL
  6
CONTINUOUS
 62
     5
 10
43.572177163656761
 20
61.430266173487333
 30
0.0
 11
43.572127844064198
 21
61.430444614582711
 31
0.0
  0
LINE
  8
DETAIL
  6
CONTINUOUS
 62
     5
 10
43.572127844064198
 20
61.430444614582711
 30
0.0
 11
43.571810165175982
 21
61.431546445494398
 31
0.0
  0
LINE
  8
DETAIL
  6
CONTINUOUS
 62
     5
 10
43.571810165175982
 20
61.431546445494398
 30
0.0
 11
43.570911950600482
 21
61.434637025226273
 31
0.0
  0
LINE
  8
DETAIL
  6
CONTINUOUS
 62
     5
 10
43.570911950600482
 20
61.434637025226273
 30
0.0
 11
43.56972944249128
 21
61.438642201214861
 31
0.0
  0
LINE
  8
DETAIL
  6
CONTINUOUS
 62
     5
 10
43.56972944249128
 20
61.438642201214861
 30
0.0
 11
43.56972944249128
 21
61.438642201214861
 31
0.0
  0
LINE
  8
DETAIL
  6
CONTINUOUS
 62
     5
 10
43.56972944249128
 20
61.438642201214861
 30
0.0
 11
43.568613818120873
 21
61.44229323068248
 31
0.0
  0
LINE
  8
DETAIL
  6
CONTINUOUS
 62
     5
 10
43.568613818120873
 20
61.44229323068248
 30
0.0
 11
43.567527576693458
 21
61.445682521560002
 31
0.0
  0
LINE
  8
DETAIL
  6
CONTINUOUS
 62
     5
 10
43.567527576693458
 20
61.445682521560002
 30
0.0
 11
43.567527576693458
 21
61.445682521560002
 31
0.0
  0
LINE
  8
DETAIL
  6
CONTINUOUS
 62
     5
 10
43.567527576693458
 20
61.445682521560002
 30
0.0
 11
43.566363092707888
 21
61.449151652497683
 31
0.0
  0
LINE
  8
DETAIL
  6
CONTINUOUS
 62
     5
 10
43.566363092707888
 20
61.449151652497683
 30
0.0
 11
43.565120919919991
 21
61.452677734315102
 31
0.0
  0
LINE
  8
DETAIL
  6
CONTINUOUS
 62
     5
 10
43.565120919919991
 20
61.452677734315102
 30
0.0
 11
43.563817647161613
 21
61.456170941028397
 31
0.0
  0
LINE
  8
DETAIL
  6
CONTINUOUS
 62
     5
 10
43.563817647161613
 20
61.456170941028397
 30
0.0
 11
43.562425824309678
 21
61.459638167266348
 31
0.0
  0
LINE
  8
DETAIL
  6
CONTINUOUS
 62
     5
 10
43.562425824309678
 20
61.459638167266348
 30
0.0
 11
43.562425824309678
 21
61.459638167266348
 31
0.0
  0
LINE
  8
DETAIL
  6
CONTINUOUS
 62
     5
 10
43.562425824309678
 20
61.459638167266348
 30
0.0
 11
43.560923985643512
 21
61.46310488415611
 31
0.0
  0
LINE
  8
DETAIL
  6
CONTINUOUS
 62
     5
 10
43.560923985643512
 20
61.46310488415611
 30
0.0
 11
43.559358642000007
 21
61.466574148199918
 31
0.0
  0
LINE
  8
DETAIL
  6
CONTINUOUS
 62
     5
 10
43.96508987019979
 20
59.5
 30
0.0
 11
43.991273743799873
 21
61.000073110999892
 31
0.0
  0
LINE
  8
DETAIL
  6
CONTINUOUS
 62
     5
 10
43.499996992200067
 20
61.5
 30
0.0
 11
43.991273743799873
 21
61.000073110999892
 31
0.0
  0
LINE
  8
DETAIL
  6
CONTINUOUS
 62
     5
 10
28.704814704653931
 20
78.91115425286489
 30
0.0
 11
43.543635319408168
 21
61.5
 31
0.0
  0
LINE
  8
DETAIL
  6
CONTINUOUS
 62
     5
 39
50.0
 10
39.423593026212757
 20
50.299999999941519
 30
0.0
 11
37.963231073199722
 21
37.453834890777443
 31
0.0
  0
LINE
  8
DETAIL
  6
CONTINUOUS
 62
     5
 39
50.0
 10
42.630907050918722
 20
50.299999999941519
 30
0.0
 11
44.260067748738038
 21
48.813089803245703
 31
0.0
  0
LINE
  8
DETAIL
  6
CONTINUOUS
 62
     5
 39
50.0
 10
44.260067748738038
 20
48.813089803245703
 30
0.0
 11
44.260067748738038
 21
37.453834890777443
 31
0.0
  0
ARC
  8
OUTLINE
  6
CONTINUOUS
 62
     3
 10
-40.224926606891593
 20
55.437113749305809
 30
0.0
 40
7.0000000000000124
 50
116.87604462994391
 51
165.84859300457501
  0
ARC
  8
OUTLINE
  6
CONTINUOUS
 62
     3
 10
-0.0000000053840218
 20
9969.9999987012961
 30
0.0
 40
9999.9999987012907
 50
269.55018409006613
 51
270.44981590995712
  0
LINE
  8
OUTLINE
  6
CONTINUOUS
 62
     3
 10
79.498877095600164
 20
-28.709311964000111
 30
0.0
 11
79.991120151124505
 21
-0.5087262032195667
 31
0.0
  0
ARC
  8
OUTLINE
  6
CONTINUOUS
 62
     3
 10
78.499029400400104
 20
-28.691859557500042
 30
0.0
 40
1.000000000000056
 50
270.44981590980211
 51
358.99999999999818
  0
LINE
  8
OUTLINE
  6
CONTINUOUS
 62
     3
 10
-79.498877095700209
 20
-28.709311964000111
 30
0.0
 11
-79.991120151099949
 21
-0.5087262032000126
 31
0.0
  0
ARC
  8
OUTLINE
  6
CONTINUOUS
 62
     3
 10
-79.491187319099936
 20
-0.5
 30
0.0
 40
0.500000000000002
 50
90.001029543201426
 51
180.99998203380861
  0
ARC
  8
OUTLINE
  6
CONTINUOUS
 62
     3
 10
-78.499029400500149
 20
-28.691859557500042
 30
0.0
 40
1.000000000000014
 50
181.00000000000179
 51
269.54824701919603
  0
ARC
  8
OUTLINE
  6
CONTINUOUS
 62
     3
 10
79.491196303546531
 20
-0.5
 30
0.0
 40
0.4999999999999939
 50
358.99999999989399
 51
90.0
  0
LINE
  8
OUTLINE
  6
CONTINUOUS
 62
     3
 10
-79.491196303600191
 20
0.0
 30
0.0
 11
79.491196303546531
 21
0.0
 31
0.0
  0
ARC
  8
OUTLINE
  6
CONTINUOUS
 62
     3
 10
-46.653971591031222
 20
56.799999999923102
 30
0.0
 40
0.499999999998636
 50
90.0
 51
179.02224891588941
  0
LINE
  8
OUTLINE
  6
CONTINUOUS
 62
     3
 10
23.88329807460013
 20
130.0
 30
0.0
 11
-23.88218144519988
 21
130.0
 31
0.0
  0
LINE
  8
OUTLINE
  6
CONTINUOUS
 62
     3
 10
-28.704814704653842
 20
78.911154252864989
 30
0.0
 11
-27.881657313000229
 21
126.06980962759989
 31
0.0
  0
ARC
  8
OUTLINE
  6
CONTINUOUS
 62
     3
 10
-23.88226653260017
 20
126.0
 30
0.0
 40
4.0
 50
89.999998803497519
 51
178.9999999719065
  0
LINE
  8
OUTLINE
  6
CONTINUOUS
 62
     3
 10
-43.573632885999807
 20
61.42512463980006
 30
0.0
 11
-43.573452825590721
 21
61.425765964072532
 31
0.0
  0
LINE
  8
OUTLINE
  6
CONTINUOUS
 62
     3
 10
-43.573452825590721
 20
61.425765964072532
 30
0.0
 11
-43.573270815320939
 21
61.426413015938351
 31
0.0
  0
LINE
  8
OUTLINE
  6
CONTINUOUS
 62
     3
 10
-43.573270815320939
 20
61.426413015938351
 30
0.0
 11
-43.573086699399937
 21
61.427065549093868
 31
0.0
  0
LINE
  8
OUTLINE
  6
CONTINUOUS
 62
     3
 10
-43.573086699399937
 20
61.427065549093868
 30
0.0
 11
-43.57290749831418
 21
61.42769942164341
 31
0.0
  0
LINE
  8
OUTLINE
  6
CONTINUOUS
 62
     3
 10
-43.57290749831418
 20
61.42769942164341
 30
0.0
 11
-43.57273500733254
 21
61.428308655056071
 31
0.0
  0
LINE
  8
OUTLINE
  6
CONTINUOUS
 62
     3
 10
-43.57273500733254
 20
61.428308655056071
 30
0.0
 11
-43.572542944564702
 21
61.428983819848327
 31
0.0
  0
LINE
  8
OUTLINE
  6
CONTINUOUS
 62
     3
 10
-43.572542944564702
 20
61.428983819848327
 30
0.0
 11
-43.572324291918903
 21
61.429749048648318
 31
0.0
  0
LINE
  8
OUTLINE
  6
CONTINUOUS
 62
     3
 10
-43.572324291918903
 20
61.429749048648318
 30
0.0
 11
-43.572177163656761
 21
61.430266173487333
 31
0.0
  0
LINE
  8
OUTLINE
  6
CONTINUOUS
 62
     3
 10
-43.572177163656761
 20
61.430266173487333
 30
0.0
 11
-43.572127844064198
 21
61.430444614582711
 31
0.0
  0
LINE
  8
OUTLINE
  6
CONTINUOUS
 62
     3
 10
-43.572127844064198
 20
61.430444614582711
 30
0.0
 11
-43.571810165175982
 21
61.431546445494398
 31
0.0
  0
LINE
  8
OUTLINE
  6
CONTINUOUS
 62
     3
 10
-43.571810165175982
 20
61.431546445494398
 30
0.0
 11
-43.571810165175982
 21
61.431546445494398
 31
0.0
  0
LINE
  8
OUTLINE
  6
CONTINUOUS
 62
     3
 10
-43.571810165175982
 20
61.431546445494398
 30
0.0
 11
-43.570911950600482
 21
61.434637025226273
 31
0.0
  0
LINE
  8
OUTLINE
  6
CONTINUOUS
 62
     3
 10
-43.570911950600482
 20
61.434637025226273
 30
0.0
 11
-43.56972944249128
 21
61.438642201214861
 31
0.0
  0
LINE
  8
OUTLINE
  6
CONTINUOUS
 62
     3
 10
-43.56972944249128
 20
61.438642201214861
 30
0.0
 11
-43.56972944249128
 21
61.438642201214861
 31
0.0
  0
LINE
  8
OUTLINE
  6
CONTINUOUS
 62
     3
 10
-43.56972944249128
 20
61.438642201214861
 30
0.0
 11
-43.568613818120873
 21
61.44229323068248
 31
0.0
  0
LINE
  8
OUTLINE
  6
CONTINUOUS
 62
     3
 10
-43.568613818120873
 20
61.44229323068248
 30
0.0
 11
-43.567527576693458
 21
61.445682521560002
 31
0.0
  0
LINE
  8
OUTLINE
  6
CONTINUOUS
 62
     3
 10
-43.567527576693458
 20
61.445682521560002
 30
0.0
 11
-43.567527576693458
 21
61.445682521560002
 31
0.0
  0
LINE
  8
OUTLINE
  6
CONTINUOUS
 62
     3
 10
-43.567527576693458
 20
61.445682521560002
 30
0.0
 11
-43.566363092707888
 21
61.449151652497683
 31
0.0
  0
LINE
  8
OUTLINE
  6
CONTINUOUS
 62
     3
 10
-43.566363092707888
 20
61.449151652497683
 30
0.0
 11
-43.565120919919991
 21
61.452677734315102
 31
0.0
  0
LINE
  8
OUTLINE
  6
CONTINUOUS
 62
     3
 10
-43.565120919919991
 20
61.452677734315102
 30
0.0
 11
-43.563817647161613
 21
61.456170941028397
 31
0.0
  0
LINE
  8
OUTLINE
  6
CONTINUOUS
 62
     3
 10
-43.563817647161613
 20
61.456170941028397
 30
0.0
 11
-43.562425824309678
 21
61.459638167266348
 31
0.0
  0
LINE
  8
OUTLINE
  6
CONTINUOUS
 62
     3
 10
-43.562425824309678
 20
61.459638167266348
 30
0.0
 11
-43.562425824309678
 21
61.459638167266348
 31
0.0
  0
LINE
  8
OUTLINE
  6
CONTINUOUS
 62
     3
 10
-43.562425824309678
 20
61.459638167266348
 30
0.0
 11
-43.560923985643512
 21
61.46310488415611
 31
0.0
  0
LINE
  8
OUTLINE
  6
CONTINUOUS
 62
     3
 10
-43.560923985643512
 20
61.46310488415611
 30
0.0
 11
-43.559358642000007
 21
61.466574148199918
 31
0.0
  0
LINE
  8
OUTLINE
  6
CONTINUOUS
 62
     3
 10
-43.499996992200067
 20
61.5
 30
0.0
 11
-43.991273743799873
 21
61.000073110999892
 31
0.0
  0
LINE
  8
OUTLINE
  6
CONTINUOUS
 62
     3
 10
-28.704814704653931
 20
78.91115425286489
 30
0.0
 11
-43.543635319408168
 21
61.5
 31
0.0
  0
ARC
  8
OUTLINE
  6
CONTINUOUS
 62
     3
 10
40.224926606891593
 20
55.437113749305809
 30
0.0
 40
7.0000000000000124
 50
14.15140699542504
 51
63.123955370056109
  0
ARC
  8
OUTLINE
  6
CONTINUOUS
 62
     3
 10
46.653971591031222
 20
56.799999999923102
 30
0.0
 40
0.499999999998636
 50
0.9777510841106442
 51
90.0
  0
LINE
  8
OUTLINE
  6
CONTINUOUS
 62
     3
 10
28.704814704653842
 20
78.911154252864989
 30
0.0
 11
27.881657313000229
 21
126.06980962759989
 31
0.0
  0
ARC
  8
OUTLINE
  6
CONTINUOUS
 62
     3
 10
23.88226653260017
 20
126.0
 30
0.0
 40
4.0
 50
1.000000028093526
 51
90.000001196502481
  0
LINE
  8
OUTLINE
  6
CONTINUOUS
 62
     3
 10
43.573632885999807
 20
61.42512463980006
 30
0.0
 11
43.573452825590721
 21
61.425765964072532
 31
0.0
  0
LINE
  8
OUTLINE
  6
CONTINUOUS
 62
     3
 10
43.573452825590721
 20
61.425765964072532
 30
0.0
 11
43.573270815320939
 21
61.426413015938351
 31
0.0
  0
LINE
  8
OUTLINE
  6
CONTINUOUS
 62
     3
 10
43.573270815320939
 20
61.426413015938351
 30
0.0
 11
43.573086699399937
 21
61.427065549093868
 31
0.0
  0
LINE
  8
OUTLINE
  6
CONTINUOUS
 62
     3
 10
43.573086699399937
 20
61.427065549093868
 30
0.0
 11
43.57290749831418
 21
61.42769942164341
 31
0.0
  0
LINE
  8
OUTLINE
  6
CONTINUOUS
 62
     3
 10
43.57290749831418
 20
61.42769942164341
 30
0.0
 11
43.57273500733254
 21
61.428308655056071
 31
0.0
  0
LINE
  8
OUTLINE
  6
CONTINUOUS
 62
     3
 10
43.57273500733254
 20
61.428308655056071
 30
0.0
 11
43.572542944564702
 21
61.428983819848327
 31
0.0
  0
LINE
  8
OUTLINE
  6
CONTINUOUS
 62
     3
 10
43.572542944564702
 20
61.428983819848327
 30
0.0
 11
43.572324291918903
 21
61.429749048648318
 31
0.0
  0
LINE
  8
OUTLINE
  6
CONTINUOUS
 62
     3
 10
43.572324291918903
 20
61.429749048648318
 30
0.0
 11
43.572177163656761
 21
61.430266173487333
 31
0.0
  0
LINE
  8
OUTLINE
  6
CONTINUOUS
 62
     3
 10
43.572177163656761
 20
61.430266173487333
 30
0.0
 11
43.572127844064198
 21
61.430444614582711
 31
0.0
  0
LINE
  8
OUTLINE
  6
CONTINUOUS
 62
     3
 10
43.572127844064198
 20
61.430444614582711
 30
0.0
 11
43.571810165175982
 21
61.431546445494398
 31
0.0
  0
LINE
  8
OUTLINE
  6
CONTINUOUS
 62
     3
 10
43.571810165175982
 20
61.431546445494398
 30
0.0
 11
43.571810165175982
 21
61.431546445494398
 31
0.0
  0
LINE
  8
OUTLINE
  6
CONTINUOUS
 62
     3
 10
43.571810165175982
 20
61.431546445494398
 30
0.0
 11
43.570911950600482
 21
61.434637025226273
 31
0.0
  0
LINE
  8
OUTLINE
  6
CONTINUOUS
 62
     3
 10
43.570911950600482
 20
61.434637025226273
 30
0.0
 11
43.56972944249128
 21
61.438642201214861
 31
0.0
  0
LINE
  8
OUTLINE
  6
CONTINUOUS
 62
     3
 10
43.56972944249128
 20
61.438642201214861
 30
0.0
 11
43.56972944249128
 21
61.438642201214861
 31
0.0
  0
LINE
  8
OUTLINE
  6
CONTINUOUS
 62
     3
 10
43.56972944249128
 20
61.438642201214861
 30
0.0
 11
43.568613818120873
 21
61.44229323068248
 31
0.0
  0
LINE
  8
OUTLINE
  6
CONTINUOUS
 62
     3
 10
43.568613818120873
 20
61.44229323068248
 30
0.0
 11
43.567527576693458
 21
61.445682521560002
 31
0.0
  0
LINE
  8
OUTLINE
  6
CONTINUOUS
 62
     3
 10
43.567527576693458
 20
61.445682521560002
 30
0.0
 11
43.567527576693458
 21
61.445682521560002
 31
0.0
  0
LINE
  8
OUTLINE
  6
CONTINUOUS
 62
     3
 10
43.567527576693458
 20
61.445682521560002
 30
0.0
 11
43.566363092707888
 21
61.449151652497683
 31
0.0
  0
LINE
  8
OUTLINE
  6
CONTINUOUS
 62
     3
 10
43.566363092707888
 20
61.449151652497683
 30
0.0
 11
43.565120919919991
 21
61.452677734315102
 31
0.0
  0
LINE
  8
OUTLINE
  6
CONTINUOUS
 62
     3
 10
43.565120919919991
 20
61.452677734315102
 30
0.0
 11
43.563817647161613
 21
61.456170941028397
 31
0.0
  0
LINE
  8
OUTLINE
  6
CONTINUOUS
 62
     3
 10
43.563817647161613
 20
61.456170941028397
 30
0.0
 11
43.562425824309678
 21
61.459638167266348
 31
0.0
  0
LINE
  8
OUTLINE
  6
CONTINUOUS
 62
     3
 10
43.562425824309678
 20
61.459638167266348
 30
0.0
 11
43.562425824309678
 21
61.459638167266348
 31
0.0
  0
LINE
  8
OUTLINE
  6
CONTINUOUS
 62
     3
 10
43.562425824309678
 20
61.459638167266348
 30
0.0
 11
43.560923985643512
 21
61.46310488415611
 31
0.0
  0
LINE
  8
OUTLINE
  6
CONTINUOUS
 62
     3
 10
43.560923985643512
 20
61.46310488415611
 30
0.0
 11
43.559358642000007
 21
61.466574148199918
 31
0.0
  0
LINE
  8
OUTLINE
  6
CONTINUOUS
 62
     3
 10
43.499996992200067
 20
61.5
 30
0.0
 11
43.991273743799873
 21
61.000073110999892
 31
0.0
  0
LINE
  8
OUTLINE
  6
CONTINUOUS
 62
     3
 10
28.704814704653931
 20
78.91115425286489
 30
0.0
 11
43.543635319408168
 21
61.5
 31
0.0
  0
LINE
  8
DETAIL
  6
CONTINUOUS
 62
     5
 10
47.153898789529649
 20
56.8085320737232
 30
0.0
 11
47.827257542156786
 21
0.0
 31
0.0
  0
LINE
  8
OUTLINE
  6
CONTINUOUS
 62
     3
 10
47.153898789529649
 20
56.8085320737232
 30
0.0
 11
47.827257542156786
 21
0.0
 31
0.0
  0
LINE
  8
OUTLINE
  6
CONTINUOUS
 62
     3
 10
-47.153898789529649
 20
56.8085320737232
 30
0.0
 11
-47.827257542156786
 21
0.0
 31
0.0
  0
TEXT
  8
ETC
  6
CONTINUOUS
 62
    61
 10
205.8862224663967
 20
627.48387787751267
 30
0.0
 40
64.0
  1
V-08PND8_1
 41
0.9
  0
TEXT
  8
ETC
  6
CONTINUOUS
 62
    61
 10
201.70022846639631
 20
509.52856786268131
 30
0.0
 40
64.0
  1
換気扇
 41
0.9
  0
TEXT
  8
ETC
  6
CONTINUOUS
 62
    61
 10
252.4016267149523
 20
401.3797949764562
 30
0.0
 40
40.0
  1
V-08PND8
 41
0.9
  0
ENDSEC
  0
EOF
