  0
SECTION
  2
HEADER
  9
$ACADVER
  1
AC1009
  9
$DWGCODEPAGE
  3
dos932
  9
$INSBASE
 10
0.0
 20
0.0
 30
0.0
  9
$EXTMIN
 10
-244.26725594590971
 20
-511.09312801982009
 30
-0.0007672145918178
  9
$EXTMAX
 10
1143.8415644385859
 20
655.60913895677004
 30
50.316261977476088
  9
$LIMMIN
 10
-2970.0
 20
-2100.0
  9
$LIMMAX
 10
2970.0
 20
2100.0
  9
$ORTHOMODE
 70
     1
  9
$REGENMODE
 70
     1
  9
$FILLMODE
 70
     1
  9
$QTEXTMODE
 70
     0
  9
$MIRRTEXT
 70
     0
  9
$LTSCALE
 40
20.0
  9
$ATTMODE
 70
     1
  9
$TEXTSIZE
 40
64.0
  9
$TRACEWID
 40
0.05
  9
$TEXTSTYLE
  7
STANDARD
  9
$CLAYER
  8
SIZE
  9
$CELTYPE
  6
CONTINUOUS
  9
$CECOLOR
 62
     7
  9
$DIMSCALE
 40
1.0
  9
$DIMASZ
 40
12.0
  9
$DIMEXO
 40
20.0
  9
$DIMDLI
 40
200.0
  9
$DIMRND
 40
0.0
  9
$DIMDLE
 40
0.0
  9
$DIMEXE
 40
20.0
  9
$DIMTP
 40
0.0
  9
$DIMTM
 40
0.0
  9
$DIMTXT
 40
64.0
  9
$DIMCEN
 40
0.09
  9
$DIMTSZ
 40
0.0
  9
$DIMTOL
 70
     0
  9
$DIMLIM
 70
     0
  9
$DIMTIH
 70
     0
  9
$DIMTOH
 70
     0
  9
$DIMSE1
 70
     0
  9
$DIMSE2
 70
     0
  9
$DIMTAD
 70
     1
  9
$DIMZIN
 70
     8
  9
$DIMBLK
  1

  9
$DIMASO
 70
     1
  9
$DIMSHO
 70
     0
  9
$DIMPOST
  1

  9
$DIMAPOST
  1

  9
$DIMALT
 70
     0
  9
$DIMALTD
 70
     2
  9
$DIMALTF
 40
25.399999999999999
  9
$DIMLFAC
 40
1.0
  9
$DIMTOFL
 70
     1
  9
$DIMTVP
 40
0.0
  9
$DIMTIX
 70
     1
  9
$DIMSOXD
 70
     0
  9
$DIMSAH
 70
     0
  9
$DIMBLK1
  1

  9
$DIMBLK2
  1

  9
$DIMSTYLE
  2
STANDARD
  9
$DIMCLRD
 70
     7
  9
$DIMCLRE
 70
     7
  9
$DIMCLRT
 70
     7
  9
$DIMTFAC
 40
1.0
  9
$DIMGAP
 40
25.0
  9
$LUNITS
 70
     2
  9
$LUPREC
 70
     4
  9
$SKETCHINC
 40
0.1
  9
$FILLETRAD
 40
3.0
  9
$AUNITS
 70
     1
  9
$AUPREC
 70
     3
  9
$MENU
  1
ACAD
  9
$ELEVATION
 40
0.0
  9
$PELEVATION
 40
0.0
  9
$THICKNESS
 40
0.0
  9
$LIMCHECK
 70
     0
  9
$CHAMFERA
 40
0.0
  9
$CHAMFERB
 40
0.0
  9
$SKPOLY
 70
     0
  9
$TDCREATE
 40
2453019.62301037
  9
$TDUPDATE
 40
2459356.650355197
  9
$TDINDWG
 40
1.7299928356
  9
$TDUSRTIMER
 40
1.7299928356
  9
$USRTIMER
 70
     1
  9
$ANGBASE
 50
0.0
  9
$ANGDIR
 70
     0
  9
$PDMODE
 70
     3
  9
$PDSIZE
 40
-2.0
  9
$PLINEWID
 40
0.0
  9
$SPLFRAME
 70
     0
  9
$SPLINETYPE
 70
     6
  9
$SPLINESEGS
 70
     8
  9
$SURFTAB1
 70
     6
  9
$SURFTAB2
 70
     6
  9
$SURFTYPE
 70
     6
  9
$SURFU
 70
     6
  9
$SURFV
 70
     6
  9
$UCSNAME
  2

  9
$UCSORG
 10
0.0
 20
0.0
 30
0.0
  9
$UCSXDIR
 10
1.0
 20
0.0
 30
0.0
  9
$UCSYDIR
 10
0.0
 20
1.0
 30
0.0
  9
$PUCSNAME
  2

  9
$PUCSORG
 10
0.0
 20
0.0
 30
0.0
  9
$PUCSXDIR
 10
1.0
 20
0.0
 30
0.0
  9
$PUCSYDIR
 10
0.0
 20
1.0
 30
0.0
  9
$USERI1
 70
     0
  9
$USERI2
 70
     0
  9
$USERI3
 70
     0
  9
$USERI4
 70
     0
  9
$USERI5
 70
     0
  9
$USERR1
 40
20.0
  9
$USERR2
 40
0.0
  9
$USERR3
 40
0.0
  9
$USERR4
 40
0.0
  9
$USERR5
 40
0.0
  9
$WORLDVIEW
 70
     1
  9
$SHADEDGE
 70
     3
  9
$SHADEDIF
 70
    70
  9
$TILEMODE
 70
     1
  9
$MAXACTVP
 70
    48
  9
$PINSBASE
 10
0.0
 20
0.0
 30
0.0
  9
$PLIMCHECK
 70
     0
  9
$PEXTMIN
 10
-100000000000000000000.0
 20
-100000000000000000000.0
 30
-100000000000000000000.0
  9
$PEXTMAX
 10
100000000000000000000.0
 20
100000000000000000000.0
 30
100000000000000000000.0
  9
$PLIMMIN
 10
0.0
 20
0.0
  9
$PLIMMAX
 10
12.0
 20
9.0
  9
$UNITMODE
 70
     0
  9
$VISRETAIN
 70
     0
  9
$PLINEGEN
 70
     0
  9
$PSLTSCALE
 70
     0
  9
$TREEDEPTH
 70
  3020
  9
$ATTDIA
 70
     0
  9
$ATTREQ
 70
     1
  9
$BLIPMODE
 70
     1
  9
$COORDS
 70
     1
  9
$DRAGMODE
 70
     2
  9
$OSMODE
 70
     0
  9
$HANDLING
 70
     0
  9
$HANDSEED
  5
F6B1
  0
ENDSEC
  0
SECTION
  2
TABLES
  0
TABLE
  2
LTYPE
 70
     2
  0
LTYPE
  2
CONTINUOUS
 70
     0
  3
実線
 72
    65
 73
     0
 40
0.0
  0
LTYPE
  2
DASHDOT
 70
     0
  3
____ _ ____ _ ____ _ ____ _ ____ _ ____ _ ____
 72
    65
 73
     4
 40
5.5
 49
4.0
 49
-0.6
 49
0.3
 49
-0.6
  0
ENDTAB
  0
TABLE
  2
LAYER
 70
    12
  0
LAYER
  2
0
 70
     0
 62
     7
  6
CONTINUOUS
  0
LAYER
  2
BASIS
 70
     0
 62
     6
  6
DASHDOT
  0
LAYER
  2
OUTLINE
 70
     0
 62
     3
  6
CONTINUOUS
  0
LAYER
  2
DETAIL
 70
     0
 62
     5
  6
CONTINUOUS
  0
LAYER
  2
SIZE
 70
     0
 62
    30
  6
CONTINUOUS
  0
LAYER
  2
ARRANGE
 70
     0
 62
     1
  6
CONTINUOUS
  0
LAYER
  2
ETC
 70
     0
 62
    61
  6
CONTINUOUS
  0
LAYER
  2
FIX
 70
     0
 62
    11
  6
CONTINUOUS
  0
LAYER
  2
NOTE
 70
     0
 62
     4
  6
CONTINUOUS
  0
LAYER
  2
DEFPOINTS
 70
    64
 62
     7
  6
CONTINUOUS
  0
LAYER
  2
SERVICESPACE
 70
    64
 62
     2
  6
DASHDOT
  0
LAYER
  2
SYMBOLLINE
 70
    64
 62
    15
  6
CONTINUOUS
  0
ENDTAB
  0
TABLE
  2
STYLE
 70
     1
  0
STYLE
  2
STANDARD
 70
     0
 40
64.0
 41
0.9
 50
0.0
 71
     0
 42
64.0
  3
SIMPLEX.shx
  4
BIGFONT.shx
  0
ENDTAB
  0
TABLE
  2
APPID
 70
    19
  0
APPID
  2
ACAD
 70
     0
  0
APPID
  2
AUTOCAD_POSTSCRIPT_FIGURE
 70
     0
  0
APPID
  2
ACAD_EXEMPT_FROM_CAD_STANDARDS
 70
     0
  0
APPID
  2
ACAD_PSEXT
 70
     0
  0
APPID
  2
ACAUTHENVIRON
 70
     0
  0
APPID
  2
GENIUS_GENOENT_13
 70
     0
  0
APPID
  2
GENIUS_GENCFG_13
 70
     0
  0
APPID
  2
GENIUS_GENCFG0_13
 70
     0
  0
APPID
  2
GENIUS_GENCFG1_13
 70
     0
  0
APPID
  2
GENIUS_GENCFG2_13
 70
     0
  0
APPID
  2
GENIUS_GENCFG3_13
 70
     0
  0
APPID
  2
GENIUS_GENCFG4_13
 70
     0
  0
APPID
  2
GENIUS_GEVCFG0_13
 70
     0
  0
APPID
  2
CONTENTBLOCKICON
 70
     0
  0
APPID
  2
CONTENTBLOCKDESCRIPTION
 70
     0
  0
APPID
  2
ACAD_NAV_VCDISPLAY
 70
     0
  0
APPID
  2
ACAD_MLEADERVER
 70
     0
  0
APPID
  2
ACDBDYNAMICBLOCKTRUENAME
 70
     0
  0
APPID
  2
ACDBDYNAMICBLOCKGUID
 70
     0
  0
ENDTAB
  0
TABLE
  2
DIMSTYLE
 70
     1
  0
DIMSTYLE
  2
STANDARD
 70
     0
  3

  4

  5
_ORIGIN
  6

  7

 40
1.0
 41
12.0
 42
20.0
 43
200.0
 44
20.0
 45
0.0
 46
0.0
 47
0.0
 48
0.0
140
64.0
141
0.09
142
0.0
143
25.399999999999999
144
1.0
145
0.0
146
1.0
147
25.0
 71
     0
 72
     0
 73
     0
 74
     0
 75
     0
 76
     0
 77
     1
 78
     8
170
     0
171
     2
172
     1
173
     0
174
     1
175
     0
176
     7
177
     7
178
     7
  0
ENDTAB
  0
TABLE
  2
VIEW
 70
     1
  0
VIEW
  2
ALL
 70
     0
 40
4282.6198079999986
 10
0.0
 20
41.309904000000003
 41
5940.0
 11
0.0
 21
0.0
 31
1.0
 12
0.0
 22
0.0
 32
0.0
 42
50.0
 43
0.0
 44
0.0
 50
0.0
 71
     0
  0
ENDTAB
  0
TABLE
  2
UCS
 70
     0
  0
ENDTAB
  0
TABLE
  2
VPORT
 70
     1
  0
VPORT
  2
*ACTIVE
 70
     0
 10
0.0
 20
0.0
 11
1.0
 21
1.0
 12
449.78715424633822
 22
72.258005468474948
 13
0.0
 23
0.0
 14
1.0
 24
1.0
 15
0.0
 25
0.0
 16
0.0
 26
0.0
 36
1.0
 17
0.0
 27
0.0
 37
0.0
 40
745.3960684948355
 41
2.2504409171075839
 42
50.0
 43
0.0
 44
0.0
 50
0.0
 51
0.0
 71
     0
 72
  1000
 73
     1
 74
     3
 75
     0
 76
     0
 77
     0
 78
     0
  0
ENDTAB
  0
ENDSEC
  0
SECTION
  2
BLOCKS
  0
BLOCK
  8
0
  2
_ORIGIN
 70
     0
 10
0.0
 20
0.0
 30
0.0
  3
_ORIGIN
  1
_ORIGIN
  0
CIRCLE
  8
SIZE
  6
CONTINUOUS
 62
    30
 10
0.0
 20
0.0
 30
0.0
 40
0.5
  0
LINE
  8
SIZE
  6
CONTINUOUS
 62
    30
 10
0.0
 20
0.0
 30
0.0
 11
-1.0
 21
0.0
 31
0.0
  0
ENDBLK
  8
0
  0
ENDSEC
  0
SECTION
  2
ENTITIES
  0
TEXT
  8
ETC
  6
CONTINUOUS
 62
    61
 10
570.36393716837165
 20
591.48649198520252
 30
0.0
 40
64.0
  1
V-08PND8_4
 41
0.9
  0
TEXT
  8
ETC
  6
CONTINUOUS
 62
    61
 10
566.17794316837126
 20
473.53118197037111
 30
0.0
 40
64.0
  1
換気扇
 41
0.9
  0
CIRCLE
  8
ARRANGE
  6
CONTINUOUS
 62
     1
 10
0.0
 20
0.0
 30
0.0
 40
40.0
  0
POINT
  8
ARRANGE
  6
CONTINUOUS
 62
     1
 10
0.0
 20
0.0
 30
0.0
 39
50.0
  0
LINE
  8
BASIS
  6
DASHDOT
 62
     6
 39
50.0
 10
0.0
 20
-109.2854010143142
 30
0.0
 11
0.0
 21
128.0459278491858
 31
0.0
  0
LINE
  8
BASIS
  6
DASHDOT
 62
     6
 39
50.0
 10
144.5615624067409
 20
0.0
 30
0.0
 11
-95.967646960021909
 21
0.0
 31
0.0
  0
TEXT
  8
ETC
  6
CONTINUOUS
 62
    61
 10
616.87934141692722
 20
365.38240908414582
 30
0.0
 40
40.0
  1
V-08PND8
 41
0.9
  0
CIRCLE
  8
FIX
  6
CONTINUOUS
 62
    11
 39
50.315494059942047
 10
0.0
 20
69.965255095611042
 30
0.0
 40
7.0441691683918863
  0
LINE
  8
NOTE
  6
CONTINUOUS
 62
     4
 10
0.0
 20
43.94343737316899
 30
0.0
 11
0.0
 21
95.987072818053093
 31
0.0
  0
LINE
  8
NOTE
  6
CONTINUOUS
 62
     4
 10
26.021817722442051
 20
69.965255095611042
 30
0.0
 11
-26.021817722442108
 21
69.965255095611042
 31
0.0
  0
CIRCLE
  8
FIX
  6
CONTINUOUS
 62
    11
 39
50.315494059942047
 10
0.0
 20
5.9999999952671601
 30
0.0
 40
7.0441691683918863
  0
LINE
  8
NOTE
  6
CONTINUOUS
 62
     4
 10
0.0
 20
-20.021817727174891
 30
0.0
 11
0.0
 21
32.021817717709268
 31
0.0
  0
LINE
  8
NOTE
  6
CONTINUOUS
 62
     4
 10
26.021817722442051
 20
5.9999999952671601
 30
0.0
 11
-26.021817722442051
 21
5.9999999952672169
 31
0.0
  0
CIRCLE
  8
FIX
  6
CONTINUOUS
 62
    11
 39
50.315494059942047
 10
0.0
 20
-69.999999944784179
 30
0.0
 40
7.0441691683918863
  0
LINE
  8
NOTE
  6
CONTINUOUS
 62
     4
 10
0.0
 20
-96.021817667226287
 30
0.0
 11
0.0
 21
-43.978182222342127
 31
0.0
  0
LINE
  8
NOTE
  6
CONTINUOUS
 62
     4
 10
26.021817722442051
 20
-69.999999944784179
 30
0.0
 11
-26.021817722442051
 21
-69.999999944784179
 31
0.0
  0
LINE
  8
SIZE
  6
CONTINUOUS
 62
    30
 10
-29.999999999996358
 20
20.0
 30
0.0
 11
-29.999999999996358
 21
328.42618669078172
 31
0.0
  0
LINE
  8
SIZE
  6
CONTINUOUS
 62
    30
 10
0.0
 20
148.0459278491858
 30
0.0
 11
0.0
 21
328.42618669078172
 31
0.0
  0
LINE
  8
SIZE
  6
CONTINUOUS
 62
    30
 10
-41.999999999996362
 20
308.42618669078172
 30
0.0
 11
-53.999999999996362
 21
308.42618669078172
 31
0.0
  0
LINE
  8
SIZE
  6
CONTINUOUS
 62
    30
 10
12.0
 20
308.42618669078172
 30
0.0
 11
24.0
 21
308.42618669078172
 31
0.0
  0
LINE
  8
SIZE
  6
CONTINUOUS
 62
    30
 10
-29.999999999996358
 20
308.42618669078172
 30
0.0
 11
0.0
 21
308.42618669078172
 31
0.0
  0
CIRCLE
  8
SIZE
  6
CONTINUOUS
 62
    30
 10
-29.999999999996358
 20
308.42618669078172
 30
0.0
 40
6.0
  0
LINE
  8
SIZE
  6
CONTINUOUS
 62
    30
 10
-29.999999999996358
 20
308.42618669078172
 30
0.0
 11
-41.999999999996362
 21
308.42618669078172
 31
0.0
  0
CIRCLE
  8
SIZE
  6
CONTINUOUS
 62
    30
 10
0.0
 20
308.42618669078172
 30
0.0
 40
6.0
  0
LINE
  8
SIZE
  6
CONTINUOUS
 62
    30
 10
0.0
 20
308.42618669078172
 30
0.0
 11
12.0
 21
308.42618669078172
 31
0.0
  0
TEXT
  8
SIZE
  6
CONTINUOUS
 62
    30
 10
-61.6285714285696
 20
333.42618669078172
 30
0.0
 40
64.0
  1
30
 41
0.9
 72
     1
 11
-14.999999999998179
 21
333.42618669078172
 31
0.0
  0
LINE
  8
SIZE
  6
CONTINUOUS
 62
    30
 10
-20.508726203200009
 20
79.991120151099949
 30
0.0
 11
-157.34873157624361
 21
79.991120151099949
 31
0.0
  0
LINE
  8
SIZE
  6
CONTINUOUS
 62
    30
 10
-20.50872620321962
 20
-79.991120151124505
 30
0.0
 11
-157.34873157624361
 21
-79.991120151124449
 31
0.0
  0
LINE
  8
SIZE
  6
CONTINUOUS
 62
    30
 10
-137.34873157624361
 20
91.991120151099949
 30
0.0
 11
-137.34873157624361
 21
103.99112015109991
 31
0.0
  0
LINE
  8
SIZE
  6
CONTINUOUS
 62
    30
 10
-137.34873157624361
 20
-91.991120151124505
 30
0.0
 11
-137.34873157624361
 21
-103.99112015112451
 31
0.0
  0
LINE
  8
SIZE
  6
CONTINUOUS
 62
    30
 10
-137.34873157624361
 20
79.991120151099949
 30
0.0
 11
-137.34873157624361
 21
-79.991120151124449
 31
0.0
  0
CIRCLE
  8
SIZE
  6
CONTINUOUS
 62
    30
 10
-137.34873157624361
 20
79.991120151099949
 30
0.0
 40
6.0
  0
LINE
  8
SIZE
  6
CONTINUOUS
 62
    30
 10
-137.34873157624361
 20
79.991120151099949
 30
0.0
 11
-137.34873157624361
 21
91.991120151099949
 31
0.0
  0
CIRCLE
  8
SIZE
  6
CONTINUOUS
 62
    30
 10
-137.34873157624361
 20
-79.991120151124449
 30
0.0
 40
6.0
  0
LINE
  8
SIZE
  6
CONTINUOUS
 62
    30
 10
-137.34873157624361
 20
-79.991120151124449
 30
0.0
 11
-137.34873157624361
 21
-91.991120151124505
 31
0.0
  0
TEXT
  8
SIZE
  6
CONTINUOUS
 62
    30
 10
-162.34873157624361
 20
-105.05142857144089
 30
0.0
 40
64.0
  1
□160
 50
90.0
 41
0.9
 72
     1
 11
-162.34873157624361
 21
-0.0000000000122782
 31
0.0
  0
LINE
  8
SIZE
  6
CONTINUOUS
 62
    30
 10
46.021817722442051
 20
69.965255095611042
 30
0.0
 11
575.1592456340104
 21
69.965255095610928
 31
0.0
  0
LINE
  8
SIZE
  6
CONTINUOUS
 62
    30
 10
164.5615624067409
 20
0.0
 30
0.0
 11
575.1592456340104
 21
-0.0000000000001137
 31
0.0
  0
LINE
  8
SIZE
  6
CONTINUOUS
 62
    30
 10
555.1592456340104
 20
-12.00000000000011
 30
0.0
 11
555.1592456340104
 21
-24.00000000000011
 31
0.0
  0
LINE
  8
SIZE
  6
CONTINUOUS
 62
    30
 10
555.1592456340104
 20
81.965255095610928
 30
0.0
 11
555.1592456340104
 21
242.08631854346461
 31
0.0
  0
LINE
  8
SIZE
  6
CONTINUOUS
 62
    30
 10
555.1592456340104
 20
-0.0000000000001137
 30
0.0
 11
555.1592456340104
 21
69.965255095610928
 31
0.0
  0
CIRCLE
  8
SIZE
  6
CONTINUOUS
 62
    30
 10
555.1592456340104
 20
-0.0000000000001137
 30
0.0
 40
6.0
  0
LINE
  8
SIZE
  6
CONTINUOUS
 62
    30
 10
555.1592456340104
 20
-0.0000000000001137
 30
0.0
 11
555.1592456340104
 21
-12.00000000000011
 31
0.0
  0
CIRCLE
  8
SIZE
  6
CONTINUOUS
 62
    30
 10
555.1592456340104
 20
69.965255095610928
 30
0.0
 40
6.0
  0
LINE
  8
SIZE
  6
CONTINUOUS
 62
    30
 10
555.1592456340104
 20
69.965255095610928
 30
0.0
 11
555.1592456340104
 21
81.965255095610928
 31
0.0
  0
TEXT
  8
SIZE
  6
CONTINUOUS
 62
    30
 10
530.1592456340104
 20
123.8291756863218
 30
0.0
 40
64.0
  1
70
 50
90.0
 41
0.9
 72
     1
 11
530.1592456340104
 21
170.45774711489321
 31
0.0
  0
LINE
  8
SIZE
  6
CONTINUOUS
 62
    30
 10
164.5615624067409
 20
0.0
 30
0.0
 11
187.1591489740899
 21
0.0
 31
0.0
  0
LINE
  8
SIZE
  6
CONTINUOUS
 62
    30
 10
46.021817722442051
 20
5.9999999952671601
 30
0.0
 11
187.1591489740899
 21
5.9999999952671601
 31
0.0
  0
LINE
  8
SIZE
  6
CONTINUOUS
 62
    30
 10
167.1591489740899
 20
-12.0
 30
0.0
 11
167.1591489740899
 21
-24.0
 31
0.0
  0
LINE
  8
SIZE
  6
CONTINUOUS
 62
    30
 10
167.1591489740899
 20
17.9999999952671
 30
0.0
 11
167.15914897408999
 21
170.41916868416109
 31
0.0
  0
LINE
  8
SIZE
  6
CONTINUOUS
 62
    30
 10
167.1591489740899
 20
0.0
 30
0.0
 11
167.1591489740899
 21
5.9999999952671601
 31
0.0
  0
CIRCLE
  8
SIZE
  6
CONTINUOUS
 62
    30
 10
167.1591489740899
 20
0.0
 30
0.0
 40
6.0
  0
LINE
  8
SIZE
  6
CONTINUOUS
 62
    30
 10
167.1591489740899
 20
0.0
 30
0.0
 11
167.1591489740899
 21
-12.0
 31
0.0
  0
CIRCLE
  8
SIZE
  6
CONTINUOUS
 62
    30
 10
167.1591489740899
 20
5.9999999952671601
 30
0.0
 40
6.0
  0
LINE
  8
SIZE
  6
CONTINUOUS
 62
    30
 10
167.1591489740899
 20
5.9999999952671601
 30
0.0
 11
167.1591489740899
 21
17.9999999952671
 31
0.0
  0
TEXT
  8
SIZE
  6
CONTINUOUS
 62
    30
 10
142.1591489740899
 20
109.76202582701831
 30
0.0
 40
64.0
  1
6
 50
90.0
 41
0.9
 72
     1
 11
142.1591489740899
 21
127.5905972555897
 31
0.0
  0
LINE
  8
SIZE
  6
CONTINUOUS
 62
    30
 10
164.5615624067409
 20
0.0
 30
0.0
 11
575.1592456340104
 21
-0.0000000000001137
 31
0.0
  0
LINE
  8
SIZE
  6
CONTINUOUS
 62
    30
 10
46.021817722442051
 20
-69.999999944784236
 30
0.0
 11
575.1592456340104
 21
-69.999999944784349
 31
0.0
  0
LINE
  8
SIZE
  6
CONTINUOUS
 62
    30
 10
555.1592456340104
 20
11.99999999999989
 30
0.0
 11
555.1592456340104
 21
23.99999999999989
 31
0.0
  0
LINE
  8
SIZE
  6
CONTINUOUS
 62
    30
 10
555.1592456340104
 20
-81.999999944784349
 30
0.0
 11
555.15924563401029
 21
-260.66450131800468
 31
0.0
  0
LINE
  8
SIZE
  6
CONTINUOUS
 62
    30
 10
555.1592456340104
 20
-0.0000000000001137
 30
0.0
 11
555.1592456340104
 21
-69.999999944784349
 31
0.0
  0
CIRCLE
  8
SIZE
  6
CONTINUOUS
 62
    30
 10
555.1592456340104
 20
-0.0000000000001137
 30
0.0
 40
6.0
  0
LINE
  8
SIZE
  6
CONTINUOUS
 62
    30
 10
555.1592456340104
 20
-0.0000000000001137
 30
0.0
 11
555.1592456340104
 21
11.99999999999989
 31
0.0
  0
CIRCLE
  8
SIZE
  6
CONTINUOUS
 62
    30
 10
555.1592456340104
 20
-69.999999944784349
 30
0.0
 40
6.0
  0
LINE
  8
SIZE
  6
CONTINUOUS
 62
    30
 10
555.1592456340104
 20
-69.999999944784349
 30
0.0
 11
555.1592456340104
 21
-81.999999944784349
 31
0.0
  0
TEXT
  8
SIZE
  6
CONTINUOUS
 62
    30
 10
530.1592456340104
 20
-235.6645013180046
 30
0.0
 40
64.0
  1
70
 50
90.0
 41
0.9
 72
     1
 11
530.1592456340104
 21
-189.03592988943311
 31
0.0
  0
LINE
  8
SIZE
  6
CONTINUOUS
 62
    30
 10
19.491273796699939
 20
-79.991120151099949
 30
0.0
 11
274.61211562470322
 21
-79.991120151100006
 31
0.0
  0
LINE
  8
SIZE
  6
CONTINUOUS
 62
    30
 10
3.5000000000007958
 20
-85.026182597299794
 30
0.0
 11
274.61211562470322
 21
-85.026182597299851
 31
0.0
  0
LINE
  8
SIZE
  6
CONTINUOUS
 62
    30
 10
254.61211562470311
 20
-67.991120151100006
 30
0.0
 11
254.61211562470319
 21
-55.991120151100013
 31
0.0
  0
LINE
  8
SIZE
  6
CONTINUOUS
 62
    30
 10
254.61211562470311
 20
-97.026182597299851
 30
0.0
 11
254.61211562470311
 21
-207.71048652160539
 31
0.0
  0
LINE
  8
SIZE
  6
CONTINUOUS
 62
    30
 10
254.61211562470311
 20
-79.991120151100006
 30
0.0
 11
254.61211562470311
 21
-85.026182597299851
 31
0.0
  0
CIRCLE
  8
SIZE
  6
CONTINUOUS
 62
    30
 10
254.61211562470311
 20
-79.991120151100006
 30
0.0
 40
6.0
  0
LINE
  8
SIZE
  6
CONTINUOUS
 62
    30
 10
254.61211562470311
 20
-79.991120151100006
 30
0.0
 11
254.61211562470311
 21
-67.991120151100006
 31
0.0
  0
CIRCLE
  8
SIZE
  6
CONTINUOUS
 62
    30
 10
254.61211562470311
 20
-85.026182597299851
 30
0.0
 40
6.0
  0
LINE
  8
SIZE
  6
CONTINUOUS
 62
    30
 10
254.61211562470311
 20
-85.026182597299851
 30
0.0
 11
254.61211562470311
 21
-97.026182597299851
 31
0.0
  0
TEXT
  8
SIZE
  6
CONTINUOUS
 62
    30
 10
229.61211562470319
 20
-182.7104865216053
 30
0.0
 40
64.0
  1
5
 50
90.0
 41
0.9
 72
     1
 11
229.61211562470319
 21
-163.51048652160529
 31
0.0
  0
LINE
  8
SIZE
  6
CONTINUOUS
 62
    30
 10
57.453834890777443
 20
-47.500402876532462
 30
0.0
 11
452.25014154010307
 21
-47.500402876532583
 31
0.0
  0
LINE
  8
SIZE
  6
CONTINUOUS
 62
    30
 10
57.453834890777443
 20
47.500402876777123
 30
0.0
 11
452.25014154010307
 21
47.500402876777002
 31
0.0
  0
LINE
  8
SIZE
  6
CONTINUOUS
 62
    30
 10
432.25014154010307
 20
-35.500402876532583
 30
0.0
 11
432.25014154010307
 21
35.500402876777002
 31
0.0
  0
LINE
  8
SIZE
  6
CONTINUOUS
 62
    30
 10
432.25014154010307
 20
47.500402876777002
 30
0.0
 11
432.25014154010307
 21
270.95049571111508
 31
0.0
  0
CIRCLE
  8
SIZE
  6
CONTINUOUS
 62
    30
 10
432.25014154010307
 20
-47.500402876532583
 30
0.0
 40
6.0
  0
LINE
  8
SIZE
  6
CONTINUOUS
 62
    30
 10
432.25014154010307
 20
-47.500402876532583
 30
0.0
 11
432.25014154010307
 21
-35.500402876532583
 31
0.0
  0
CIRCLE
  8
SIZE
  6
CONTINUOUS
 62
    30
 10
432.25014154010307
 20
47.500402876777002
 30
0.0
 40
6.0
  0
LINE
  8
SIZE
  6
CONTINUOUS
 62
    30
 10
432.25014154010307
 20
47.500402876777002
 30
0.0
 11
432.25014154010307
 21
35.500402876777002
 31
0.0
  0
TEXT
  8
SIZE
  6
CONTINUOUS
 62
    30
 10
396.58347487343627
 20
82.201924282543686
 30
0.0
 40
64.0
  1
φ95
 50
90.0
 41
0.9
 72
     1
 11
396.58347487343627
 21
169.1504957111151
 31
0.0
  0
LINE
  8
SIZE
  6
CONTINUOUS
 62
    30
 10
146.0698096334136
 20
-27.881657312891889
 30
0.0
 11
309.72787987941678
 21
-27.881657312891949
 31
0.0
  0
LINE
  8
SIZE
  6
CONTINUOUS
 62
    30
 10
146.06980962759991
 20
27.881657312999781
 30
0.0
 11
309.72787987941678
 21
27.881657312999781
 31
0.0
  0
LINE
  8
SIZE
  6
CONTINUOUS
 62
    30
 10
289.72787987941678
 20
-39.881657312891953
 30
0.0
 11
289.72787987941678
 21
-51.881657312891953
 31
0.0
  0
LINE
  8
SIZE
  6
CONTINUOUS
 62
    30
 10
289.72787987941678
 20
39.881657312999778
 30
0.0
 11
289.72787987941689
 21
264.35006830833743
 31
0.0
  0
LINE
  8
SIZE
  6
CONTINUOUS
 62
    30
 10
289.72787987941678
 20
-27.881657312891949
 30
0.0
 11
289.72787987941678
 21
27.881657312999781
 31
0.0
  0
CIRCLE
  8
SIZE
  6
CONTINUOUS
 62
    30
 10
289.72787987941678
 20
-27.881657312891949
 30
0.0
 40
6.0
  0
LINE
  8
SIZE
  6
CONTINUOUS
 62
    30
 10
289.72787987941678
 20
-27.881657312891949
 30
0.0
 11
289.72787987941678
 21
-39.881657312891953
 31
0.0
  0
CIRCLE
  8
SIZE
  6
CONTINUOUS
 62
    30
 10
289.72787987941678
 20
27.881657312999781
 30
0.0
 40
6.0
  0
LINE
  8
SIZE
  6
CONTINUOUS
 62
    30
 10
289.72787987941678
 20
27.881657312999781
 30
0.0
 11
289.72787987941678
 21
39.881657312999778
 31
0.0
  0
TEXT
  8
SIZE
  6
CONTINUOUS
 62
    30
 10
254.0612132127502
 20
78.344354022623136
 30
0.0
 40
64.0
  1
φ56
 50
90.0
 41
0.9
 72
     1
 11
254.0612132127502
 21
163.92149687976601
 31
0.0
  0
LINE
  8
SIZE
  6
CONTINUOUS
 62
    30
 10
0.0
 20
-129.2854010143142
 30
0.0
 11
0.0
 21
-275.67477456083429
 31
0.0
  0
LINE
  8
SIZE
  6
CONTINUOUS
 62
    30
 10
61.5
 20
-63.499996992000433
 30
0.0
 11
61.5
 21
-275.67477456083429
 31
0.0
  0
LINE
  8
SIZE
  6
CONTINUOUS
 62
    30
 10
73.5
 20
-255.67477456083429
 30
0.0
 11
85.5
 21
-255.67477456083429
 31
0.0
  0
LINE
  8
SIZE
  6
CONTINUOUS
 62
    30
 10
-12.0
 20
-255.67477456083429
 30
0.0
 11
-244.05714285714291
 21
-255.67477456083429
 31
0.0
  0
LINE
  8
SIZE
  6
CONTINUOUS
 62
    30
 10
61.5
 20
-255.67477456083429
 30
0.0
 11
0.0
 21
-255.67477456083429
 31
0.0
  0
CIRCLE
  8
SIZE
  6
CONTINUOUS
 62
    30
 10
61.5
 20
-255.67477456083429
 30
0.0
 40
6.0
  0
LINE
  8
SIZE
  6
CONTINUOUS
 62
    30
 10
61.5
 20
-255.67477456083429
 30
0.0
 11
73.5
 21
-255.67477456083429
 31
0.0
  0
CIRCLE
  8
SIZE
  6
CONTINUOUS
 62
    30
 10
0.0
 20
-255.67477456083429
 30
0.0
 40
6.0
  0
LINE
  8
SIZE
  6
CONTINUOUS
 62
    30
 10
0.0
 20
-255.67477456083429
 30
0.0
 11
-12.0
 21
-255.67477456083429
 31
0.0
  0
TEXT
  8
SIZE
  6
CONTINUOUS
 62
    30
 10
-219.05714285714291
 20
-230.67477456083429
 30
0.0
 40
64.0
  1
61.5
 41
0.9
 72
     1
 11
-136.7714285714286
 21
-230.67477456083429
 31
0.0
  0
LINE
  8
SIZE
  6
CONTINUOUS
 62
    30
 10
0.0
 20
-129.2854010143142
 30
0.0
 11
0.0
 21
-384.11544475201208
 31
0.0
  0
LINE
  8
SIZE
  6
CONTINUOUS
 62
    30
 10
129.99999282063749
 20
-43.874687954119914
 30
0.0
 11
129.99999282063749
 21
-384.11544475201208
 31
0.0
  0
LINE
  8
SIZE
  6
CONTINUOUS
 62
    30
 10
117.9999928206375
 20
-364.11544475201208
 30
0.0
 11
12.0
 21
-364.11544475201208
 31
0.0
  0
LINE
  8
SIZE
  6
CONTINUOUS
 62
    30
 10
0.0
 20
-364.11544475201208
 30
0.0
 11
-218.34285714285721
 21
-364.11544475201208
 31
0.0
  0
CIRCLE
  8
SIZE
  6
CONTINUOUS
 62
    30
 10
129.99999282063749
 20
-364.11544475201208
 30
0.0
 40
6.0
  0
LINE
  8
SIZE
  6
CONTINUOUS
 62
    30
 10
129.99999282063749
 20
-364.11544475201208
 30
0.0
 11
117.9999928206375
 21
-364.11544475201208
 31
0.0
  0
CIRCLE
  8
SIZE
  6
CONTINUOUS
 62
    30
 10
0.0
 20
-364.11544475201208
 30
0.0
 40
6.0
  0
LINE
  8
SIZE
  6
CONTINUOUS
 62
    30
 10
0.0
 20
-364.11544475201208
 30
0.0
 11
12.0
 21
-364.11544475201208
 31
0.0
  0
TEXT
  8
SIZE
  6
CONTINUOUS
 62
    30
 10
-193.34285714285721
 20
-339.11544475201208
 30
0.0
 40
64.0
  1
130
 41
0.9
 72
     1
 11
-124.7714285714286
 21
-339.11544475201208
 31
0.0
  0
TEXT
  8
NOTE
  6
CONTINUOUS
 62
     4
 10
118.71172883204871
 20
458.8859053258866
 30
0.0
 40
64.0
  1
EL
 41
0.9
  0
TEXT
  8
NOTE
  6
CONTINUOUS
 62
     4
 10
133.5838435930423
 20
329.17552443105842
 30
0.0
 40
64.0
  1
2-φ4×10
 41
0.9
  0
TEXT
  8
NOTE
  6
CONTINUOUS
 62
     4
 10
209.68400097732089
 20
-454.41915202917369
 30
0.0
 40
64.0
  1
2-φ5×7
 41
0.9
  0
LINE
  8
NOTE
  6
CONTINUOUS
 62
     4
 10
3.1082140012345012
 20
65.123231046238857
 30
0.0
 11
107.4805600201113
 21
429.72792746570371
 31
0.0
  0
LINE
  8
NOTE
  6
CONTINUOUS
 62
     4
 10
107.4805600201113
 20
429.72792746570371
 30
0.0
 11
204.50913144868261
 21
429.72792746570371
 31
0.0
  0
LINE
  8
NOTE
  6
CONTINUOUS
 62
     4
 10
3.795922132967974
 20
10.916876488575101
 30
0.0
 11
0.0
 21
5.9999999952672169
 31
0.0
  0
LINE
  8
NOTE
  6
CONTINUOUS
 62
     4
 10
0.0
 20
5.9999999952672169
 30
0.0
 11
0.8289174743850936
 21
12.15610226136539
 31
0.0
  0
LINE
  8
NOTE
  6
CONTINUOUS
 62
     4
 10
0.0
 20
5.9999999952672169
 30
0.0
 11
4.6248396073531239
 21
17.072978754673269
 31
0.0
  0
LINE
  8
NOTE
  6
CONTINUOUS
 62
     4
 10
4.6248396073531239
 20
17.072978754673269
 30
0.0
 11
121.5838435930423
 21
297.17552443105842
 31
0.0
  0
LINE
  8
NOTE
  6
CONTINUOUS
 62
     4
 10
121.5838435930423
 20
297.17552443105842
 30
0.0
 11
533.1019699121789
 21
297.17552443105842
 31
0.0
  0
LINE
  8
NOTE
  6
CONTINUOUS
 62
     4
 10
0.9944408093056723
 20
-76.131540270574078
 30
0.0
 11
0.0
 21
-69.999999944784179
 31
0.0
  0
LINE
  8
NOTE
  6
CONTINUOUS
 62
     4
 10
0.0
 20
-69.999999944784179
 30
0.0
 11
3.9269884190022708
 21
-74.812843308848926
 31
0.0
  0
LINE
  8
NOTE
  6
CONTINUOUS
 62
     4
 10
0.0
 20
-69.999999944784179
 30
0.0
 11
4.921429228307943
 21
-80.944383634638825
 31
0.0
  0
LINE
  8
NOTE
  6
CONTINUOUS
 62
     4
 10
4.921429228307943
 20
-80.944383634638825
 30
0.0
 11
197.68400097732089
 21
-510.92769145700203
 31
0.0
  0
LINE
  8
NOTE
  6
CONTINUOUS
 62
     4
 10
197.68400097732089
 20
-510.92769145700203
 30
0.0
 11
572.86540968630618
 21
-510.92769145700203
 31
0.0
  0
LINE
  8
NOTE
  6
CONTINUOUS
 62
     4
 10
0.0
 20
27.510942853512571
 30
0.0
 11
0.0
 21
79.554578298396791
 31
0.0
  0
LINE
  8
NOTE
  6
CONTINUOUS
 62
     4
 10
-26.021817722442051
 20
53.532760575954633
 30
0.0
 11
26.021817722442169
 21
53.53276057595474
 31
0.0
  0
LINE
  8
NOTE
  6
CONTINUOUS
 62
     4
 10
3.106940281873563
 20
58.911572840281337
 30
0.0
 11
0.0
 21
53.53276057595474
 31
0.0
  0
LINE
  8
NOTE
  6
CONTINUOUS
 62
     4
 10
0.0
 20
53.53276057595474
 30
0.0
 11
0.0012737193609382
 21
59.744418781912152
 31
0.0
  0
LINE
  8
NOTE
  6
CONTINUOUS
 62
     4
 10
0.0
 20
53.53276057595474
 30
0.0
 11
3.1082140012345012
 21
65.123231046238857
 31
0.0
  0
CIRCLE
  8
FIX
  6
CONTINUOUS
 62
    11
 39
50.315494059942047
 10
0.0
 20
53.53276057595474
 30
0.0
 40
7.0441691683918863
  0
LINE
  8
DETAIL
  6
CONTINUOUS
 62
     5
 10
37.453834890777671
 20
50.453368287983267
 30
0.0
 11
0.0
 21
50.827371777314063
 31
0.0
  0
LINE
  8
DETAIL
  6
CONTINUOUS
 62
     5
 10
50.019159528306318
 20
48.270817271827127
 30
0.0
 11
37.453834890777671
 21
50.453368287983267
 31
0.0
  0
ARC
  8
DETAIL
  6
CONTINUOUS
 62
     5
 10
55.437113749305809
 20
40.224926606891593
 30
0.0
 40
7.0000000000000124
 50
26.876044629944641
 51
75.848593004571796
  0
ARC
  8
DETAIL
  6
CONTINUOUS
 62
     5
 10
48.64689696957862
 20
18.24232963109489
 30
0.0
 40
29.999999999999972
 50
74.538151925047018
 51
85.578678910659875
  0
ARC
  8
DETAIL
  6
CONTINUOUS
 62
     5
 10
51.730498940625687
 20
58.123295001608767
 30
0.0
 40
9.9999999999999609
 50
260.14624466805179
 51
265.57867891065979
  0
LINE
  8
DETAIL
  6
CONTINUOUS
 62
     5
 10
37.453834890777443
 20
42.127120270288742
 30
0.0
 11
50.299999999941519
 21
42.127120270288742
 31
0.0
  0
LINE
  8
DETAIL
  6
CONTINUOUS
 62
     5
 10
50.299999999941519
 20
26.379010463712799
 30
0.0
 11
50.299999999941519
 21
42.630907050918722
 31
0.0
  0
ARC
  8
DETAIL
  6
CONTINUOUS
 62
     5
 10
9969.9999987006813
 20
0.0000000053818432
 30
0.0
 40
9999.9999987006759
 50
179.5501840900661
 51
180.44981590995721
  0
LINE
  8
DETAIL
  6
CONTINUOUS
 62
     5
 10
-27.81693616169991
 20
-26.18127404509778
 30
0.0
 11
-27.71409232639985
 21
-52.362550927497978
 31
0.0
  0
LINE
  8
DETAIL
  6
CONTINUOUS
 62
     5
 10
-27.71409232639985
 20
-52.362550927497978
 30
0.0
 11
-27.542685287899989
 21
-79.519240639980808
 31
0.0
  0
LINE
  8
DETAIL
  6
CONTINUOUS
 62
     5
 10
-28.709311964000111
 20
-79.498877095600164
 30
0.0
 11
-0.5087262032195667
 21
-79.991120151124505
 31
0.0
  0
ARC
  8
DETAIL
  6
CONTINUOUS
 62
     5
 10
-28.691859557500042
 20
-78.499029400400104
 30
0.0
 40
1.000000000000056
 50
180.44981590980211
 51
268.99999999999818
  0
LINE
  8
DETAIL
  6
CONTINUOUS
 62
     5
 10
-27.85121727849992
 20
0.0000000893023753
 30
0.0
 11
-27.81693616169991
 21
-26.18127404509778
 31
0.0
  0
LINE
  8
DETAIL
  6
CONTINUOUS
 62
     5
 10
-27.7140923259999
 20
52.362551026802073
 30
0.0
 11
-27.816936161399781
 21
26.18127420390238
 31
0.0
  0
LINE
  8
DETAIL
  6
CONTINUOUS
 62
     5
 10
-27.816936161399781
 20
26.18127420390238
 30
0.0
 11
-27.85121727849992
 21
0.0000000893023753
 31
0.0
  0
LINE
  8
DETAIL
  6
CONTINUOUS
 62
     5
 10
-27.542685287499811
 20
79.519240640082671
 30
0.0
 11
-27.7140923259999
 21
52.362551026802073
 31
0.0
  0
LINE
  8
DETAIL
  6
CONTINUOUS
 62
     5
 10
-28.709311964000111
 20
79.498877095700209
 30
0.0
 11
-0.5087262032000126
 21
79.991120151099949
 31
0.0
  0
LINE
  8
DETAIL
  6
CONTINUOUS
 62
     5
 10
0.0
 20
79.491196303600191
 30
0.0
 11
0.0
 21
-79.491196303546531
 31
0.0
  0
ARC
  8
DETAIL
  6
CONTINUOUS
 62
     5
 10
-0.5
 20
79.491187319099936
 30
0.0
 40
0.500000000000002
 50
0.0010295432014147
 51
90.999982033808564
  0
ARC
  8
DETAIL
  6
CONTINUOUS
 62
     5
 10
-28.691859557500042
 20
78.499029400500149
 30
0.0
 40
1.000000000000014
 50
91.000000000001776
 51
179.548247019196
  0
LINE
  8
DETAIL
  6
CONTINUOUS
 62
     5
 10
-15.0
 20
-83.5
 30
0.0
 11
-15.0
 21
-80.246977722567408
 31
0.0
  0
LINE
  8
DETAIL
  6
CONTINUOUS
 62
     5
 10
-17.0
 20
-80.194612527699974
 30
0.0
 11
-17.0
 21
-84.526182597299794
 31
0.0
  0
ARC
  8
DETAIL
  6
CONTINUOUS
 62
     5
 10
-17.5
 20
-80.194612527699974
 30
0.0
 40
0.5
 50
0.0
 51
88.999999999998238
  0
ARC
  8
DETAIL
  6
CONTINUOUS
 62
     5
 10
-14.809999999999951
 20
-84.086621083099999
 30
0.0
 40
0.4100000000000321
 50
270.99999999998869
 51
0.0
  0
ARC
  8
DETAIL
  6
CONTINUOUS
 62
     5
 10
-14.809999999999951
 20
-83.913378916799957
 30
0.0
 40
0.409999999999854
 50
0.0
 51
89.000000000011269
  0
LINE
  8
DETAIL
  6
CONTINUOUS
 62
     5
 10
-14.400000000000089
 20
-84.086621083099999
 30
0.0
 11
-14.400000000000089
 21
-83.913378916799957
 31
0.0
  0
LINE
  8
DETAIL
  6
CONTINUOUS
 62
     5
 10
-14.80284451329999
 20
-83.503441361800014
 30
0.0
 11
-15.0
 21
-83.5
 31
0.0
  0
ARC
  8
DETAIL
  6
CONTINUOUS
 62
     5
 10
-15.5
 20
-84.508651368400024
 30
0.0
 40
0.500000000000006
 50
271.00000000000182
 51
0.0
  0
ARC
  8
DETAIL
  6
CONTINUOUS
 62
     5
 10
-16.5
 20
-84.526182597299794
 30
0.0
 40
0.5
 50
180.0
 51
270.0
  0
LINE
  8
DETAIL
  6
CONTINUOUS
 62
     5
 10
-15.0
 20
-84.508651368400024
 30
0.0
 11
-15.0
 21
-84.5
 31
0.0
  0
LINE
  8
DETAIL
  6
CONTINUOUS
 62
     5
 10
-14.80284451329999
 20
-84.496558638099941
 30
0.0
 11
-15.0
 21
-84.5
 31
0.0
  0
LINE
  8
DETAIL
  6
CONTINUOUS
 62
     5
 10
-15.491273796699939
 20
-85.008575215999826
 30
0.0
 11
-16.5
 21
-85.026182597299794
 31
0.0
  0
ARC
  8
DETAIL
  6
CONTINUOUS
 62
     5
 10
-0.5
 20
-79.491196303546531
 30
0.0
 40
0.4999999999999939
 50
268.99999999989399
 51
0.0
  0
ARC
  8
DETAIL
  6
CONTINUOUS
 62
     5
 10
-14.5
 20
-80.246977722567408
 30
0.0
 40
0.499999999999998
 50
88.999999999867924
 51
180.0
  0
LINE
  8
DETAIL
  6
CONTINUOUS
 62
     5
 10
54.499999999929742
 20
-17.25
 30
0.0
 11
54.499999999929742
 21
-23.548912278200081
 31
0.0
  0
LINE
  8
DETAIL
  6
CONTINUOUS
 62
     5
 10
55.499999999926793
 20
-17.25
 30
0.0
 11
55.499999999926793
 21
-23.548912278200081
 31
0.0
  0
LINE
  8
DETAIL
  6
CONTINUOUS
 62
     5
 10
55.499999999926793
 20
-29.200316026200198
 30
0.0
 11
55.499999999926793
 21
-35.799999999737338
 31
0.0
  0
LINE
  8
DETAIL
  6
CONTINUOUS
 62
     5
 10
59.299999999916047
 20
-46.814098676562033
 30
0.0
 11
59.299999999916047
 21
-35.768580883201587
 31
0.0
  0
LINE
  8
DETAIL
  6
CONTINUOUS
 62
     5
 10
49.742845197142969
 20
-44.443854200113037
 30
0.0
 11
37.453834890777443
 21
-44.42712540343274
 31
0.0
  0
LINE
  8
DETAIL
  6
CONTINUOUS
 62
     5
 10
59.299999999916047
 20
-44.448635853213091
 30
0.0
 11
49.742845197142969
 21
-44.443854200113037
 31
0.0
  0
LINE
  8
DETAIL
  6
CONTINUOUS
 62
     5
 10
55.499999999926793
 20
-35.799999999737338
 30
0.0
 11
54.991273796728137
 21
-35.791120150837287
 31
0.0
  0
LINE
  8
DETAIL
  6
CONTINUOUS
 62
     5
 10
50.299999999941292
 20
-44.444132956818862
 30
0.0
 11
50.299999999941292
 21
-36.290480166999707
 31
0.0
  0
ARC
  8
DETAIL
  6
CONTINUOUS
 62
     5
 10
48.299999999946976
 20
-28.923866548156639
 30
0.0
 40
2.999999999991569
 50
185.28729712301339
 51
264.7840914335012
  0
ARC
  8
DETAIL
  6
CONTINUOUS
 62
     5
 10
47.799999999948341
 20
-34.401092123241142
 30
0.0
 40
2.4999999999929741
 50
26.3750302887963
 51
84.784091424802085
  0
ARC
  8
DETAIL
  6
CONTINUOUS
 62
     5
 10
54.99999999992815
 20
-35.291196303238848
 30
0.0
 40
0.499999999998636
 50
180.0
 51
268.99999999999818
  0
ARC
  8
DETAIL
  6
CONTINUOUS
 62
     5
 10
2.000247602877153
 20
89.845853594009895
 30
0.0
 40
42.03444708898197
 50
269.2343476879978
 51
269.49880108800619
  0
LINE
  8
DETAIL
  6
CONTINUOUS
 62
     5
 10
58.804363267666083
 20
-47.314079638093972
 30
0.0
 11
0.0
 21
-47.85905609768848
 31
0.0
  0
ARC
  8
DETAIL
  6
CONTINUOUS
 62
     5
 10
58.799999999916047
 20
-46.814098676562033
 30
0.0
 40
0.50000000000001
 50
270.50000000008271
 51
0.0
  0
LINE
  8
DETAIL
  6
CONTINUOUS
 62
     5
 10
59.299999999916047
 20
14.305841842754029
 30
0.0
 11
59.299999999916047
 21
25.82048452331594
 31
0.0
  0
LINE
  8
DETAIL
  6
CONTINUOUS
 62
     5
 10
37.453834890777443
 20
12.94134258873328
 30
0.0
 11
54.950100376528333
 21
14.03510846002291
 31
0.0
  0
LINE
  8
DETAIL
  6
CONTINUOUS
 62
     5
 10
54.950100376528333
 20
14.03510846002291
 30
0.0
 11
59.299999999916047
 21
14.305841842754029
 31
0.0
  0
LINE
  8
DETAIL
  6
CONTINUOUS
 62
     5
 10
50.295585670641458
 20
40.406908635448872
 30
0.0
 11
50.299998691941482
 21
40.309370541048793
 31
0.0
  0
LINE
  8
DETAIL
  6
CONTINUOUS
 62
     5
 10
50.299999999941292
 20
40.307317182048791
 30
0.0
 11
50.299998370541289
 21
40.309370540549033
 31
0.0
  0
LINE
  8
DETAIL
  6
CONTINUOUS
 62
     5
 10
50.299999999941292
 20
29.462316400479271
 30
0.0
 11
37.453834890777443
 21
29.688144822566979
 31
0.0
  0
LINE
  8
DETAIL
  6
CONTINUOUS
 62
     5
 10
59.299999999916047
 20
25.82048452331594
 30
0.0
 11
37.453834890777443
 21
27.176223402392338
 31
0.0
  0
LINE
  8
DETAIL
  6
CONTINUOUS
 62
     5
 10
57.299999999921738
 20
39.672309231950749
 30
0.0
 11
57.299999999921738
 21
46.653971590731089
 31
0.0
  0
LINE
  8
DETAIL
  6
CONTINUOUS
 62
     5
 10
56.8085320737232
 20
47.153898789529649
 30
0.0
 11
0.0
 21
47.859055860035141
 31
0.0
  0
ARC
  8
DETAIL
  6
CONTINUOUS
 62
     5
 10
-17.449331041514139
 20
-4825.5665076074274
 30
0.0
 40
4870.8609351748901
 50
89.120691522425489
 51
89.354162159945673
  0
ARC
  8
DETAIL
  6
CONTINUOUS
 62
     5
 10
56.799999999923102
 20
46.653971591031222
 30
0.0
 40
0.499999999998636
 50
0.0
 51
89.02224891588925
  0
LINE
  8
DETAIL
  6
CONTINUOUS
 62
     5
 10
55.499999964026763
 20
29.117936833480599
 30
0.0
 11
54.989274757228259
 21
29.107018549380431
 31
0.0
  0
LINE
  8
DETAIL
  6
CONTINUOUS
 62
     5
 10
54.499999999929742
 20
28.607132606181949
 30
0.0
 11
54.499999999929742
 21
26.11836502486085
 31
0.0
  0
LINE
  8
DETAIL
  6
CONTINUOUS
 62
     5
 10
54.499999999929742
 20
14.0070537244228
 30
0.0
 11
54.499999999929742
 21
-14.25
 31
0.0
  0
LINE
  8
DETAIL
  6
CONTINUOUS
 62
     5
 10
55.499999999926793
 20
29.11793683438054
 30
0.0
 11
55.499999999926793
 21
26.056744395688838
 31
0.0
  0
LINE
  8
DETAIL
  6
CONTINUOUS
 62
     5
 10
55.499999999926793
 20
14.069333660222579
 30
0.0
 11
55.499999999926793
 21
-14.25
 31
0.0
  0
LINE
  8
DETAIL
  6
CONTINUOUS
 62
     5
 10
57.299999999921738
 20
39.672309231950749
 30
0.0
 11
59.5
 21
39.648795221497039
 31
0.0
  0
ARC
  8
DETAIL
  6
CONTINUOUS
 62
     5
 10
54.99999999992815
 20
28.607132606181949
 30
0.0
 40
0.499999999998626
 50
91.224668238506553
 51
179.99999999989581
  0
LINE
  8
DETAIL
  6
CONTINUOUS
 62
     5
 10
55.499999999926793
 20
26.965066047288929
 30
0.0
 11
54.499999999929742
 21
26.947610982367681
 31
0.0
  0
LINE
  8
DETAIL
  6
CONTINUOUS
 62
     5
 10
59.5
 20
-35.765089870214069
 30
0.0
 11
55.499999999926793
 21
-35.83491012992954
 31
0.0
  0
LINE
  8
DETAIL
  6
CONTINUOUS
 62
     5
 10
55.499999999926793
 20
26.965066047288929
 30
0.0
 11
59.5
 21
26.895245787575728
 31
0.0
  0
LINE
  8
DETAIL
  6
CONTINUOUS
 62
     5
 10
55.500000035700168
 20
29.160692835900139
 30
0.0
 11
59.5
 21
29.075180831683159
 31
0.0
  0
LINE
  8
DETAIL
  6
CONTINUOUS
 62
     5
 10
126.0857806061999
 20
-9.0158848358000796
 30
0.0
 11
120.4254828899948
 21
-11.14884489981387
 31
0.0
  0
ARC
  8
DETAIL
  6
CONTINUOUS
 62
     5
 10
63.5
 20
-35.006141524485876
 30
0.0
 40
0.5000000000000201
 50
270.88048004694309
 51
0.0
  0
ARC
  8
DETAIL
  6
CONTINUOUS
 62
     5
 10
69.0
 20
-30.607196609017588
 30
0.0
 40
0.999999999999978
 50
270.82080562894743
 51
0.0
  0
LINE
  8
DETAIL
  6
CONTINUOUS
 62
     5
 10
70.0
 20
-9.3695364582144975
 30
0.0
 11
64.008007720101432
 21
-9.3215527227171151
 31
0.0
  0
ARC
  8
DETAIL
  6
CONTINUOUS
 62
     5
 10
65.0
 20
33.947787133400197
 30
0.0
 40
1.00000000000001
 50
180.00069121539681
 51
268.99902813810633
  0
LINE
  8
DETAIL
  6
CONTINUOUS
 62
     5
 10
62.508726201200027
 20
35.991120151199993
 30
0.0
 11
63.508726200999938
 21
35.973665086200072
 31
0.0
  0
ARC
  8
DETAIL
  6
CONTINUOUS
 62
     5
 10
63.5
 20
35.473741238599807
 30
0.0
 40
0.5
 50
0.0
 51
89.000000237904558
  0
ARC
  8
DETAIL
  6
CONTINUOUS
 62
     5
 10
62.5
 20
35.491196303600191
 30
0.0
 40
0.499999999986594
 50
88.999999995685471
 51
179.9999871960008
  0
LINE
  8
DETAIL
  6
CONTINUOUS
 62
     5
 10
64.982530633800025
 20
32.94793973420019
 30
0.0
 11
69.028068387599888
 21
32.87732460999996
 31
0.0
  0
LINE
  8
DETAIL
  6
CONTINUOUS
 62
     5
 10
64.0
 20
-10.771037671037449
 30
0.0
 11
64.0
 21
35.473741238599807
 31
0.0
  0
LINE
  8
DETAIL
  6
CONTINUOUS
 62
     5
 10
64.0
 20
-23.07101691180014
 30
0.0
 11
64.0
 21
-35.006141524485876
 31
0.0
  0
LINE
  8
DETAIL
  6
CONTINUOUS
 62
     5
 10
61.5
 20
-35.536937539804057
 30
0.0
 11
63.507683335492857
 21
-35.506082487356252
 31
0.0
  0
LINE
  8
DETAIL
  6
CONTINUOUS
 62
     5
 10
62.0
 20
-35.529166818800149
 30
0.0
 11
62.0
 21
35.491196303600191
 31
0.0
  0
LINE
  8
DETAIL
  6
CONTINUOUS
 62
     5
 10
63.772955935178743
 20
-35.425062826702288
 30
0.0
 11
81.015580057574653
 21
-35.156389139473049
 31
0.0
  0
LINE
  8
DETAIL
  6
CONTINUOUS
 62
     5
 10
70.0
 20
-22.930518992799989
 30
0.0
 11
70.0
 21
-30.607196609017588
 31
0.0
  0
LINE
  8
DETAIL
  6
CONTINUOUS
 62
     5
 10
69.014325270742575
 20
-31.607093997061838
 30
0.0
 11
64.0
 21
-31.67893293569114
 31
0.0
  0
LINE
  8
DETAIL
  6
CONTINUOUS
 62
     5
 10
62.0
 20
-23.11784955140001
 30
0.0
 11
119.94370143659989
 21
-21.755066288199941
 31
0.0
  0
LINE
  8
DETAIL
  6
CONTINUOUS
 62
     5
 10
70.0
 20
-27.047134944801201
 30
0.0
 11
82.0
 21
-26.886489340401109
 31
0.0
  0
LINE
  8
DETAIL
  6
CONTINUOUS
 62
     5
 10
70.0
 20
31.877519560200199
 30
0.0
 11
70.0
 21
-9.3695364582144975
 31
0.0
  0
LINE
  8
DETAIL
  6
CONTINUOUS
 62
     5
 10
126.0857806061999
 20
-9.0158848358000796
 30
0.0
 11
70.0
 21
-8.64035214633941
 31
0.0
  0
LINE
  8
DETAIL
  6
CONTINUOUS
 62
     5
 10
120.42548289
 20
-11.148844899799769
 30
0.0
 11
62.0
 21
-10.7576463021237
 31
0.0
  0
LINE
  8
DETAIL
  6
CONTINUOUS
 62
     5
 10
82.0
 20
-34.156510515936588
 30
0.0
 11
82.0
 21
-26.886489340401109
 31
0.0
  0
ARC
  8
DETAIL
  6
CONTINUOUS
 62
     5
 10
81.0
 20
-34.156510515936588
 30
0.0
 40
0.999999999999998
 50
270.89270766179021
 51
0.0
  0
LINE
  8
DETAIL
  6
CONTINUOUS
 62
     5
 10
82.0
 20
-31.080898701400201
 30
0.0
 11
104.75781025162109
 21
-30.6836596457224
 31
0.0
  0
LINE
  8
DETAIL
  6
CONTINUOUS
 62
     5
 10
82.0
 20
-28.650898701421738
 30
0.0
 11
126.0698096333999
 21
-27.88165731280014
 31
0.0
  0
ARC
  8
DETAIL
  6
CONTINUOUS
 62
     5
 10
104.6880006258523
 20
-26.684268865097241
 30
0.0
 40
3.9999999999999978
 50
271.00000000027541
 51
337.88408962803533
  0
ARC
  8
DETAIL
  6
CONTINUOUS
 62
     5
 10
126.0000490365999
 20
-15.315904773799961
 30
0.0
 40
3.999943784199997
 50
275.31378136129717
 51
0.0005162703032934
  0
ARC
  8
DETAIL
  6
CONTINUOUS
 62
     5
 10
126.0
 20
-23.882266532400081
 30
0.0
 40
4.000000000000024
 50
271.0000001098017
 51
0.0000046942959686
  0
ARC
  8
DETAIL
  6
CONTINUOUS
 62
     5
 10
150.30174226200009
 20
-18.618904458799989
 30
0.0
 40
30.897472835999949
 50
178.61125656529879
 51
181.38874360289731
  0
LINE
  8
DETAIL
  6
CONTINUOUS
 62
     5
 10
126.3704841767033
 20
-19.29865860547682
 30
0.0
 11
119.94370143659989
 21
-21.755066288199941
 31
0.0
  0
LINE
  8
DETAIL
  6
CONTINUOUS
 62
     5
 10
130.0
 20
-23.88329807460013
 30
0.0
 11
130.0
 21
23.88218144519988
 31
0.0
  0
ARC
  8
DETAIL
  6
CONTINUOUS
 62
     5
 10
69.000003404200015
 20
31.8775176342001
 30
0.0
 40
0.999996595800034
 50
0.0001001474949803
 51
88.39468745880346
  0
LINE
  8
DETAIL
  6
CONTINUOUS
 62
     5
 10
104.88017553259991
 20
32.159614213000168
 30
0.0
 11
69.352106033602695
 21
32.813475394988131
 31
0.0
  0
ARC
  8
DETAIL
  6
CONTINUOUS
 62
     5
 10
104.8653820693673
 20
28.159209110528082
 30
0.0
 40
3.9999999999999498
 50
0.3259249643048648
 51
88.945643325067564
  0
LINE
  8
DETAIL
  6
CONTINUOUS
 62
     5
 10
70.0
 20
28.860359480753232
 30
0.0
 11
126.06980962759989
 21
27.881657313000229
 31
0.0
  0
ARC
  8
DETAIL
  6
CONTINUOUS
 62
     5
 10
126.0
 20
23.88226653260017
 30
0.0
 40
4.0
 50
359.99999880349748
 51
88.999999971906533
  0
LINE
  8
DETAIL
  6
CONTINUOUS
 62
     5
 10
37.453834890599857
 20
-29.200316026200198
 30
0.0
 11
59.5
 21
-29.200316026200198
 31
0.0
  0
LINE
  8
DETAIL
  6
CONTINUOUS
 62
     5
 10
37.453834890599857
 20
-27.81603369840013
 30
0.0
 11
59.5
 21
-27.81603369840013
 31
0.0
  0
LINE
  8
DETAIL
  6
CONTINUOUS
 62
     5
 10
39.25
 20
-23.548912278200081
 30
0.0
 11
59.5
 21
-23.548912278200081
 31
0.0
  0
LINE
  8
DETAIL
  6
CONTINUOUS
 62
     5
 10
61.5
 20
43.499952205000227
 30
0.0
 11
61.5
 21
-43.499965203000102
 31
0.0
  0
LINE
  8
DETAIL
  6
CONTINUOUS
 62
     5
 10
61.5
 20
-43.499996991999978
 30
0.0
 11
61.000073110999892
 21
-43.991273743599777
 31
0.0
  0
LINE
  8
DETAIL
  6
CONTINUOUS
 62
     5
 10
59.5
 20
-43.965089870000163
 30
0.0
 11
61.000073110999892
 21
-43.991273743599777
 31
0.0
  0
LINE
  8
DETAIL
  6
CONTINUOUS
 62
     5
 10
59.5
 20
43.96508987019979
 30
0.0
 11
61.000073110999892
 21
43.991273743799873
 31
0.0
  0
LINE
  8
DETAIL
  6
CONTINUOUS
 62
     5
 10
61.5
 20
43.499996992200067
 30
0.0
 11
61.000073110999892
 21
43.991273743799873
 31
0.0
  0
LINE
  8
DETAIL
  6
CONTINUOUS
 62
     5
 10
59.5
 20
-43.965017504000123
 30
0.0
 11
59.5
 21
43.965020177000042
 31
0.0
  0
LINE
  8
DETAIL
  6
CONTINUOUS
 62
     5
 10
74.194826441275836
 20
32.724349615444233
 30
0.0
 11
61.681020051798328
 21
43.38935927100286
 31
0.0
  0
LINE
  8
DETAIL
  6
CONTINUOUS
 62
     5
 10
49.5
 20
-36.290480166999707
 30
0.0
 11
54.5
 21
-36.290480166999707
 31
0.0
  0
LINE
  8
DETAIL
  6
CONTINUOUS
 62
     5
 10
49.5
 20
-33.290480166999707
 30
0.0
 11
54.5
 21
-33.290480166999707
 31
0.0
  0
LINE
  8
DETAIL
  6
CONTINUOUS
 62
     5
 10
54.499999999929742
 20
-29.200316026200198
 30
0.0
 11
54.5
 21
-36.290448556199863
 31
0.0
  0
LINE
  8
DETAIL
  6
CONTINUOUS
 62
     5
 10
59.5
 20
-14.25
 30
0.0
 11
49.5
 21
-14.25
 31
0.0
  0
LINE
  8
DETAIL
  6
CONTINUOUS
 62
     5
 10
59.5
 20
-17.25
 30
0.0
 11
49.5
 21
-17.25
 31
0.0
  0
LINE
  8
DETAIL
  6
CONTINUOUS
 62
     5
 39
50.0
 10
50.299999999941519
 20
39.423593026212757
 30
0.0
 11
37.453834890777443
 21
37.963231073199843
 31
0.0
  0
LINE
  8
DETAIL
  6
CONTINUOUS
 62
     5
 39
50.0
 10
50.299999999941519
 20
42.630907050918722
 30
0.0
 11
48.813089803245703
 21
44.260067748738038
 31
0.0
  0
ARC
  8
DETAIL
  6
CONTINUOUS
 62
     5
 39
50.0
 10
49.829297673881229
 20
-29.275044286400661
 30
0.0
 40
12.02955223804779
 50
91.568614000013852
 51
151.5751672822245
  0
ARC
  8
DETAIL
  6
CONTINUOUS
 62
     5
 39
50.0
 10
49.120338947002672
 20
-29.986063164037429
 30
0.0
 40
15.74064250333317
 50
88.617903575748812
 51
137.8312425604397
  0
ARC
  8
DETAIL
  6
CONTINUOUS
 62
     5
 39
50.0
 10
50.029407514236709
 20
-20.95230999000313
 30
0.0
 40
12.34952289089186
 50
221.90369398953521
 51
267.54305371019632
  0
ARC
  8
DETAIL
  6
CONTINUOUS
 62
     5
 39
50.0
 10
50.301549840937007
 20
-18.128278176256909
 30
0.0
 40
18.179880728433019
 50
225.03298149807651
 51
267.47301338671059
  0
LINE
  8
DETAIL
  6
CONTINUOUS
 62
     5
 39
50.0
 10
48.813089803245703
 20
44.260067748738038
 30
0.0
 11
37.453834890777443
 21
44.260067748738038
 31
0.0
  0
ARC
  8
DETAIL
  6
CONTINUOUS
 62
     5
 39
50.0
 10
126.0449765669423
 20
-15.11880263231518
 30
0.0
 40
6.1030542026629098
 50
49.606008927694042
 51
89.616926775218857
  0
LINE
  8
DETAIL
  6
CONTINUOUS
 62
     5
 39
50.0
 10
120.4254828900316
 20
-11.1488448998
 30
0.0
 11
119.4133449241851
 21
-17.87008034552872
 31
0.0
  0
LINE
  8
DETAIL
  6
CONTINUOUS
 62
     5
 39
50.0
 10
119.4133449263832
 20
-19.367728662746462
 30
0.0
 11
119.94370143659989
 21
-21.755066288199941
 31
0.0
  0
LINE
  8
OUTLINE
  6
CONTINUOUS
 62
     3
 10
37.453834890777671
 20
50.453368287983267
 30
0.0
 11
0.0
 21
50.827371777314063
 31
0.0
  0
LINE
  8
OUTLINE
  6
CONTINUOUS
 62
     3
 10
50.019159528306318
 20
48.270817271827127
 30
0.0
 11
37.453834890777671
 21
50.453368287983267
 31
0.0
  0
ARC
  8
OUTLINE
  6
CONTINUOUS
 62
     3
 10
55.437113749305809
 20
40.224926606891593
 30
0.0
 40
7.0000000000000124
 50
26.876044629944641
 51
75.848593004571796
  0
ARC
  8
OUTLINE
  6
CONTINUOUS
 62
     3
 10
48.64689696957862
 20
18.24232963109489
 30
0.0
 40
29.999999999999972
 50
73.537539097150798
 51
85.578678910659875
  0
ARC
  8
OUTLINE
  6
CONTINUOUS
 62
     3
 10
51.730498940625687
 20
58.123295001608767
 30
0.0
 40
9.9999999999999609
 50
260.14624466805179
 51
265.57867891065979
  0
ARC
  8
OUTLINE
  6
CONTINUOUS
 62
     3
 10
9969.9999987006813
 20
0.0000000053818432
 30
0.0
 40
9999.9999987006759
 50
179.5501840900661
 51
180.44981590995721
  0
LINE
  8
OUTLINE
  6
CONTINUOUS
 62
     3
 10
-28.709311964000111
 20
-79.498877095600164
 30
0.0
 11
-17.491273796781702
 21
-79.694688680198524
 31
0.0
  0
ARC
  8
OUTLINE
  6
CONTINUOUS
 62
     3
 10
-28.691859557500042
 20
-78.499029400400104
 30
0.0
 40
1.000000000000056
 50
180.44981590980211
 51
268.99999999999818
  0
LINE
  8
OUTLINE
  6
CONTINUOUS
 62
     3
 10
-28.709311964000111
 20
79.498877095700209
 30
0.0
 11
-0.5087262032000126
 21
79.991120151099949
 31
0.0
  0
LINE
  8
OUTLINE
  6
CONTINUOUS
 62
     3
 10
0.0
 20
79.491196303600191
 30
0.0
 11
0.0
 21
-79.491196303546531
 31
0.0
  0
ARC
  8
OUTLINE
  6
CONTINUOUS
 62
     3
 10
-0.5
 20
79.491187319099936
 30
0.0
 40
0.500000000000002
 50
0.0010295432014147
 51
90.999982033808564
  0
ARC
  8
OUTLINE
  6
CONTINUOUS
 62
     3
 10
-28.691859557500042
 20
78.499029400500149
 30
0.0
 40
1.000000000000014
 50
91.000000000001776
 51
179.548247019196
  0
ARC
  8
OUTLINE
  6
CONTINUOUS
 62
     3
 10
-0.5
 20
-79.491196303546531
 30
0.0
 40
0.4999999999999939
 50
268.99999999989399
 51
0.0
  0
LINE
  8
OUTLINE
  6
CONTINUOUS
 62
     3
 10
58.804363267666083
 20
-47.314079638093972
 30
0.0
 11
0.0
 21
-47.85905609768848
 31
0.0
  0
ARC
  8
OUTLINE
  6
CONTINUOUS
 62
     3
 10
58.799999999916047
 20
-46.814098676562033
 30
0.0
 40
0.50000000000001
 50
270.50000000008271
 51
0.0
  0
ARC
  8
OUTLINE
  6
CONTINUOUS
 62
     3
 10
63.5
 20
-35.006141524485876
 30
0.0
 40
0.5000000000000201
 50
270.88048004694309
 51
303.08699970907719
  0
LINE
  8
OUTLINE
  6
CONTINUOUS
 62
     3
 10
61.5
 20
-35.536937539804057
 30
0.0
 11
63.507683335492857
 21
-35.506082487356252
 31
0.0
  0
LINE
  8
OUTLINE
  6
CONTINUOUS
 62
     3
 10
63.772955935178743
 20
-35.425062826702288
 30
0.0
 11
81.015580057574653
 21
-35.156389139473049
 31
0.0
  0
LINE
  8
OUTLINE
  6
CONTINUOUS
 62
     3
 10
82.0
 20
-34.156510515936588
 30
0.0
 11
82.0
 21
-31.080898701400201
 31
0.0
  0
ARC
  8
OUTLINE
  6
CONTINUOUS
 62
     3
 10
81.0
 20
-34.156510515936588
 30
0.0
 40
0.999999999999998
 50
270.89270766179021
 51
0.0
  0
LINE
  8
OUTLINE
  6
CONTINUOUS
 62
     3
 10
82.0
 20
-31.080898701400201
 30
0.0
 11
104.75781025162109
 21
-30.6836596457224
 31
0.0
  0
LINE
  8
OUTLINE
  6
CONTINUOUS
 62
     3
 10
108.3936971140357
 20
-28.19019500454279
 30
0.0
 11
126.0698096333999
 21
-27.88165731280014
 31
0.0
  0
ARC
  8
OUTLINE
  6
CONTINUOUS
 62
     3
 10
104.6880006258523
 20
-26.684268865097241
 30
0.0
 40
3.9999999999999978
 50
271.00000000027541
 51
337.88408962803231
  0
ARC
  8
OUTLINE
  6
CONTINUOUS
 62
     3
 10
126.0
 20
-23.882266532400081
 30
0.0
 40
4.000000000000024
 50
271.0000001098017
 51
0.0000046942959686
  0
LINE
  8
OUTLINE
  6
CONTINUOUS
 62
     3
 10
130.0
 20
-23.88329807460013
 30
0.0
 11
130.0
 21
23.88218144519988
 31
0.0
  0
LINE
  8
OUTLINE
  6
CONTINUOUS
 62
     3
 10
104.88017553259991
 20
32.159614213000168
 30
0.0
 11
74.194826441276177
 21
32.724349615443927
 31
0.0
  0
ARC
  8
OUTLINE
  6
CONTINUOUS
 62
     3
 10
104.8653820693673
 20
28.159209110528082
 30
0.0
 40
3.9999999999999498
 50
0.3259249643048648
 51
88.945643325067564
  0
LINE
  8
OUTLINE
  6
CONTINUOUS
 62
     3
 10
108.8653173523023
 20
28.181962842781001
 30
0.0
 11
126.06980962759989
 21
27.881657313000229
 31
0.0
  0
ARC
  8
OUTLINE
  6
CONTINUOUS
 62
     3
 10
126.0
 20
23.88226653260017
 30
0.0
 40
4.0
 50
359.99999880349748
 51
88.999999971906533
  0
LINE
  8
OUTLINE
  6
CONTINUOUS
 62
     3
 10
61.5
 20
-35.536937539804057
 30
0.0
 11
61.5
 21
-43.499965203000102
 31
0.0
  0
LINE
  8
OUTLINE
  6
CONTINUOUS
 62
     3
 10
61.5
 20
-43.499996991999978
 30
0.0
 11
61.000073110999892
 21
-43.991273743599777
 31
0.0
  0
LINE
  8
OUTLINE
  6
CONTINUOUS
 62
     3
 10
59.5
 20
-43.965089870000163
 30
0.0
 11
61.000073110999892
 21
-43.991273743599777
 31
0.0
  0
LINE
  8
OUTLINE
  6
CONTINUOUS
 62
     3
 10
74.194826441275836
 20
32.724349615444233
 30
0.0
 11
61.681020051798328
 21
43.38935927100286
 31
0.0
  0
LINE
  8
OUTLINE
  6
CONTINUOUS
 62
     3
 39
50.0
 10
59.5
 20
-43.965089870000163
 30
0.0
 11
59.299999999916047
 21
-46.814098676562033
 31
0.0
  0
LINE
  8
OUTLINE
  6
CONTINUOUS
 62
     3
 10
-15.00000000000016
 20
-83.499999999999943
 30
0.0
 11
-15.00000000000016
 21
-80.246977722567351
 31
0.0
  0
LINE
  8
OUTLINE
  6
CONTINUOUS
 62
     3
 10
-17.00000000000016
 20
-80.194612527699917
 30
0.0
 11
-17.00000000000016
 21
-84.526182597299737
 31
0.0
  0
ARC
  8
OUTLINE
  6
CONTINUOUS
 62
     3
 10
-17.50000000000016
 20
-80.194612527699917
 30
0.0
 40
0.5
 50
0.0
 51
88.999999999998238
  0
ARC
  8
OUTLINE
  6
CONTINUOUS
 62
     3
 10
-14.8100000000001
 20
-84.086621083099942
 30
0.0
 40
0.4100000000000321
 50
270.99999999998869
 51
0.0
  0
ARC
  8
OUTLINE
  6
CONTINUOUS
 62
     3
 10
-14.8100000000001
 20
-83.9133789167999
 30
0.0
 40
0.409999999999854
 50
0.0
 51
89.000000000011255
  0
LINE
  8
OUTLINE
  6
CONTINUOUS
 62
     3
 10
-14.802844513300141
 20
-83.503441361799958
 30
0.0
 11
-15.00000000000016
 21
-83.499999999999943
 31
0.0
  0
ARC
  8
OUTLINE
  6
CONTINUOUS
 62
     3
 10
-15.50000000000016
 20
-84.508651368399967
 30
0.0
 40
0.500000000000006
 50
271.00000000000182
 51
0.0
  0
ARC
  8
OUTLINE
  6
CONTINUOUS
 62
     3
 10
-16.50000000000016
 20
-84.526182597299737
 30
0.0
 40
0.5
 50
180.0
 51
270.0
  0
LINE
  8
OUTLINE
  6
CONTINUOUS
 62
     3
 10
-15.00000000000016
 20
-84.508651368399967
 30
0.0
 11
-15.00000000000016
 21
-84.499999999999943
 31
0.0
  0
LINE
  8
OUTLINE
  6
CONTINUOUS
 62
     3
 10
-14.802844513300141
 20
-84.496558638099884
 30
0.0
 11
-15.00000000000016
 21
-84.499999999999943
 31
0.0
  0
LINE
  8
OUTLINE
  6
CONTINUOUS
 62
     3
 10
-15.491273796700099
 20
-85.00857521599977
 30
0.0
 11
-16.50000000000016
 21
-85.026182597299737
 31
0.0
  0
ARC
  8
OUTLINE
  6
CONTINUOUS
 62
     3
 10
-14.50000000000016
 20
-80.246977722567351
 30
0.0
 40
0.499999999999998
 50
88.999999999867924
 51
180.0
  0
LINE
  8
OUTLINE
  6
CONTINUOUS
 62
     3
 10
-14.49127379678036
 20
-79.747053874989177
 30
0.0
 11
-0.5087262032195667
 21
-79.991120151124505
 31
0.0
  0
LINE
  8
OUTLINE
  6
CONTINUOUS
 62
     3
 10
-14.400000000000251
 20
-84.086621083099942
 30
0.0
 11
-14.400000000000251
 21
-83.9133789167999
 31
0.0
  0
LINE
  8
DETAIL
  6
CONTINUOUS
 62
     5
 10
37.453834890777493
 20
47.394146179628287
 30
0.0
 11
37.453834890777493
 21
-47.511948209722689
 31
0.0
  0
ENDSEC
  0
EOF
