  0
SECTION
  2
HEADER
  9
$ACADVER
  1
AC1009
  9
$DWGCODEPAGE
  3
dos932
  9
$INSBASE
 10
0.0
 20
0.0
 30
0.0
  9
$EXTMIN
 10
-409.226973
 20
-419.769275
 30
-0.001526
  9
$EXTMAX
 10
812.562572
 20
388.366707
 30
0.0
  9
$LIMMIN
 10
-2970.0
 20
-2100.0
  9
$LIMMAX
 10
2970.0
 20
2100.0
  9
$ORTHOMODE
 70
     1
  9
$REGENMODE
 70
     1
  9
$FILLMODE
 70
     1
  9
$QTEXTMODE
 70
     0
  9
$MIRRTEXT
 70
     0
  9
$DRAGMODE
 70
     2
  9
$LTSCALE
 40
20.0
  9
$OSMODE
 70
    37
  9
$ATTMODE
 70
     1
  9
$TEXTSIZE
 40
64.0
  9
$TRACEWID
 40
0.05
  9
$TEXTSTYLE
  7
STANDARD
  9
$CLAYER
  8
OUTLINE
  9
$CELTYPE
  6
CONTINUOUS
  9
$CECOLOR
 62
     3
  9
$DIMSCALE
 40
1.0
  9
$DIMASZ
 40
12.0
  9
$DIMEXO
 40
20.0
  9
$DIMDLI
 40
200.0
  9
$DIMRND
 40
0.0
  9
$DIMDLE
 40
0.0
  9
$DIMEXE
 40
20.0
  9
$DIMTP
 40
0.0
  9
$DIMTM
 40
0.0
  9
$DIMTXT
 40
64.0
  9
$DIMCEN
 40
0.09
  9
$DIMTSZ
 40
0.0
  9
$DIMTOL
 70
     0
  9
$DIMLIM
 70
     0
  9
$DIMTIH
 70
     0
  9
$DIMTOH
 70
     0
  9
$DIMSE1
 70
     0
  9
$DIMSE2
 70
     0
  9
$DIMTAD
 70
     1
  9
$DIMZIN
 70
     8
  9
$DIMBLK
  1
DOT1
  9
$DIMASO
 70
     1
  9
$DIMSHO
 70
     0
  9
$DIMPOST
  1

  9
$DIMAPOST
  1

  9
$DIMALT
 70
     0
  9
$DIMALTD
 70
     2
  9
$DIMALTF
 40
25.4
  9
$DIMLFAC
 40
1.0
  9
$DIMTOFL
 70
     1
  9
$DIMTVP
 40
0.0
  9
$DIMTIX
 70
     1
  9
$DIMSOXD
 70
     0
  9
$DIMSAH
 70
     1
  9
$DIMBLK1
  1
ORIGIN
  9
$DIMBLK2
  1
ORIGIN
  9
$DIMSTYLE
  2
STANDARD
  9
$DIMCLRD
 70
     7
  9
$DIMCLRE
 70
     7
  9
$DIMCLRT
 70
     7
  9
$DIMTFAC
 40
1.0
  9
$DIMGAP
 40
25.0
  9
$LUNITS
 70
     2
  9
$LUPREC
 70
     4
  9
$SKETCHINC
 40
0.1
  9
$FILLETRAD
 40
10.0
  9
$AUNITS
 70
     1
  9
$AUPREC
 70
     3
  9
$MENU
  1
ACAD
  9
$ELEVATION
 40
0.0
  9
$PELEVATION
 40
0.0
  9
$THICKNESS
 40
50.0
  9
$LIMCHECK
 70
     0
  9
$CHAMFERA
 40
0.0
  9
$CHAMFERB
 40
0.0
  9
$SKPOLY
 70
     0
  9
$TDCREATE
 40
2452997.395903218
  9
$TDUPDATE
 40
2457485.582757315
  9
$TDINDWG
 40
0.0647131713
  9
$TDUSRTIMER
 40
0.0647131713
  9
$USRTIMER
 70
     1
  9
$ANGBASE
 50
0.0
  9
$ANGDIR
 70
     0
  9
$PDMODE
 70
     3
  9
$PDSIZE
 40
-2.0
  9
$PLINEWID
 40
0.0
  9
$COORDS
 70
     1
  9
$SPLFRAME
 70
     0
  9
$SPLINETYPE
 70
     6
  9
$SPLINESEGS
 70
     8
  9
$ATTDIA
 70
     0
  9
$ATTREQ
 70
     1
  9
$HANDLING
 70
     1
  9
$HANDSEED
  5
24AA
  9
$SURFTAB1
 70
     6
  9
$SURFTAB2
 70
     6
  9
$SURFTYPE
 70
     6
  9
$SURFU
 70
     6
  9
$SURFV
 70
     6
  9
$UCSNAME
  2

  9
$UCSORG
 10
0.0
 20
0.0
 30
0.0
  9
$UCSXDIR
 10
1.0
 20
0.0
 30
0.0
  9
$UCSYDIR
 10
0.0
 20
1.0
 30
0.0
  9
$PUCSNAME
  2

  9
$PUCSORG
 10
0.0
 20
0.0
 30
0.0
  9
$PUCSXDIR
 10
1.0
 20
0.0
 30
0.0
  9
$PUCSYDIR
 10
0.0
 20
1.0
 30
0.0
  9
$USERI1
 70
     0
  9
$USERI2
 70
     0
  9
$USERI3
 70
     0
  9
$USERI4
 70
     0
  9
$USERI5
 70
     0
  9
$USERR1
 40
20.0
  9
$USERR2
 40
0.0
  9
$USERR3
 40
0.0
  9
$USERR4
 40
0.0
  9
$USERR5
 40
0.0
  9
$WORLDVIEW
 70
     1
  9
$SHADEDGE
 70
     3
  9
$SHADEDIF
 70
    70
  9
$TILEMODE
 70
     1
  9
$MAXACTVP
 70
    48
  9
$PLIMCHECK
 70
     0
  9
$PEXTMIN
 10
-1.000000000000000E+20
 20
-1.000000000000000E+20
 30
-1.000000000000000E+20
  9
$PEXTMAX
 10
1.000000000000000E+20
 20
1.000000000000000E+20
 30
1.000000000000000E+20
  9
$PLIMMIN
 10
0.0
 20
0.0
  9
$PLIMMAX
 10
12.0
 20
9.0
  9
$UNITMODE
 70
     0
  9
$VISRETAIN
 70
     0
  9
$PLINEGEN
 70
     0
  9
$PSLTSCALE
 70
     0
  0
ENDSEC
  0
SECTION
  2
TABLES
  0
TABLE
  2
VPORT
 70
     1
  0
VPORT
  2
*ACTIVE
 70
     0
 10
0.0
 20
0.0
 11
1.0
 21
1.0
 12
201.6678
 22
-15.701284
 13
0.0
 23
0.0
 14
1.0
 24
1.0
 15
0.0
 25
0.0
 16
0.0
 26
0.0
 36
1.0
 17
0.0
 27
0.0
 37
0.0
 40
817.319346
 41
1.658444
 42
50.0
 43
0.0
 44
0.0
 50
0.0
 51
0.0
 71
     0
 72
  1000
 73
     1
 74
     0
 75
     0
 76
     0
 77
     0
 78
     0
  0
ENDTAB
  0
TABLE
  2
LTYPE
 70
     2
  0
LTYPE
  2
CONTINUOUS
 70
     0
  3
実線
 72
    65
 73
     0
 40
0.0
  0
LTYPE
  2
DASHDOT
 70
     0
  3
____ _ ____ _ ____ _ ____ _ ____ _ ____ _ ____
 72
    65
 73
     4
 40
5.5
 49
4.0
 49
-0.6
 49
0.3
 49
-0.6
  0
ENDTAB
  0
TABLE
  2
LAYER
 70
    12
  0
LAYER
  2
0
 70
     0
 62
     7
  6
CONTINUOUS
  0
LAYER
  2
BASIS
 70
     0
 62
     6
  6
DASHDOT
  0
LAYER
  2
OUTLINE
 70
     0
 62
     3
  6
CONTINUOUS
  0
LAYER
  2
DETAIL
 70
     0
 62
     5
  6
CONTINUOUS
  0
LAYER
  2
SIZE
 70
     0
 62
    30
  6
CONTINUOUS
  0
LAYER
  2
ARRANGE
 70
     0
 62
     1
  6
CONTINUOUS
  0
LAYER
  2
DEFPOINTS
 70
     0
 62
     7
  6
CONTINUOUS
  0
LAYER
  2
ETC
 70
     0
 62
    61
  6
CONTINUOUS
  0
LAYER
  2
FIX
 70
     0
 62
    11
  6
CONTINUOUS
  0
LAYER
  2
NOTE
 70
     0
 62
     4
  6
CONTINUOUS
  0
LAYER
  2
SERVICESPACE
 70
     0
 62
     2
  6
DASHDOT
  0
LAYER
  2
SYMBOLLINE
 70
     0
 62
    15
  6
CONTINUOUS
  0
ENDTAB
  0
TABLE
  2
STYLE
 70
     1
  0
STYLE
  2
STANDARD
 70
     0
 40
64.0
 41
0.9
 50
0.0
 71
     0
 42
64.0
  3
SIMPLEX.shx
  4
BIGFONT.shx
  0
ENDTAB
  0
TABLE
  2
VIEW
 70
     1
  0
VIEW
  2
ALL
 70
     0
 40
4282.619808
 10
0.0
 20
41.309904
 41
5940.0
 11
0.0
 21
0.0
 31
1.0
 12
0.0
 22
0.0
 32
0.0
 42
50.0
 43
0.0
 44
0.0
 50
0.0
 71
     0
  0
ENDTAB
  0
TABLE
  2
UCS
 70
     0
  0
ENDTAB
  0
TABLE
  2
APPID
 70
     2
  0
APPID
  2
ACAD
 70
     0
  0
APPID
  2
AUTOCAD_POSTSCRIPT_FIGURE
 70
     0
  0
ENDTAB
  0
TABLE
  2
DIMSTYLE
 70
     1
  0
DIMSTYLE
  2
STANDARD
 70
     0
  3

  4

  5

  6

  7

 40
1.0
 41
0.18
 42
0.0625
 43
0.38
 44
0.18
 45
0.0
 46
0.0
 47
0.0
 48
0.0
140
0.18
141
0.09
142
0.0
143
25.4
144
1.0
145
0.0
146
1.0
147
0.09
 71
     0
 72
     0
 73
     1
 74
     1
 75
     0
 76
     0
 77
     0
 78
     0
170
     0
171
     2
172
     0
173
     0
174
     0
175
     0
176
     7
177
     7
178
     7
  0
ENDTAB
  0
ENDSEC
  0
SECTION
  2
BLOCKS
  0
BLOCK
  8
0
  2
$MODEL_SPACE
 70
     0
 10
0.0
 20
0.0
 30
0.0
  3
$MODEL_SPACE
  1

  0
ENDBLK
  5
2482
  8
0
  0
BLOCK
 67
     1
  8
0
  2
$PAPER_SPACE
 70
     0
 10
0.0
 20
0.0
 30
0.0
  3
$PAPER_SPACE
  1

  0
ENDBLK
  5
2484
 67
     1
  8
0
  0
BLOCK
  8
0
  2
DOT1
 70
     0
 10
0.0
 20
0.0
 30
0.0
  3
DOT1
  1

  0
CIRCLE
  5
2229
  8
SIZE
  6
CONTINUOUS
 62
     7
 10
0.0
 20
0.0
 30
0.0
 40
3.0
  0
ENDBLK
  5
222A
  8
0
  0
BLOCK
  8
0
  2
_ORIGIN
 70
     0
 10
0.0
 20
0.0
 30
0.0
  3
_ORIGIN
  1

  0
CIRCLE
  5
222D
  8
0
  6
CONTINUOUS
 62
     7
 10
0.0
 20
0.0
 30
0.0
 40
0.5
  0
LINE
  5
222E
  8
0
  6
CONTINUOUS
 62
     7
 10
0.0
 20
0.0
 30
0.0
 11
-1.0
 21
0.0
 31
0.0
  0
ENDBLK
  5
222F
  8
0
  0
ENDSEC
  0
SECTION
  2
ENTITIES
  0
TEXT
  5
2230
  8
ETC
  6
CONTINUOUS
 62
    61
 10
398.89111
 20
271.918282
 30
0.0
 40
40.0
  1
V-08PP5-BL_4
 41
0.9
  0
TEXT
  5
2231
  8
ETC
  6
CONTINUOUS
 62
    61
 10
403.734077
 20
211.960074
 30
0.0
 40
40.0
  1
換気扇
 41
0.9
  0
LINE
  5
2232
  8
OUTLINE
  6
CONTINUOUS
 62
    30
 10
0.0
 20
-106.489794
 30
0.0
 11
0.0
 21
-376.189378
 31
0.0
  0
LINE
  5
2233
  8
OUTLINE
  6
CONTINUOUS
 62
    30
 10
47.99999999999999
 20
-106.489794
 30
0.0
 11
47.99999999999999
 21
-376.189378
 31
0.0
  0
LINE
  5
2234
  8
OUTLINE
  6
CONTINUOUS
 62
    30
 10
-12.0
 20
-356.189378
 30
0.0
 11
-24.0
 21
-356.189378
 31
0.0
  0
LINE
  5
2235
  8
OUTLINE
  6
CONTINUOUS
 62
    30
 10
59.99999999999999
 20
-356.189378
 30
0.0
 11
71.99999999999999
 21
-356.189378
 31
0.0
  0
LINE
  5
2236
  8
OUTLINE
  6
CONTINUOUS
 62
    30
 10
227.247882
 20
-356.189378
 30
0.0
 11
47.99999999999999
 21
-356.189378
 31
0.0
  0
TEXT
  5
2237
  8
OUTLINE
  6
CONTINUOUS
 62
    30
 10
100.7621681428571
 20
-331.189378
 30
0.0
 40
64.0
  1
48
 41
0.9
 72
     1
 11
155.619311
 21
-331.189378
 31
0.0
  0
LINE
  5
2238
  8
OUTLINE
  6
CONTINUOUS
 62
    30
 10
0.0
 20
-356.189378
 30
0.0
 11
47.99999999999999
 21
-356.189378
 31
0.0
  0
LINE
  5
2239
  8
OUTLINE
  6
CONTINUOUS
 62
    30
 10
0.0
 20
-356.189378
 30
0.0
 11
47.99999999999999
 21
-356.189378
 31
0.0
  0
CIRCLE
  5
223A
  8
OUTLINE
  6
CONTINUOUS
 62
    30
 10
0.0
 20
-356.189378
 30
0.0
 40
6.0
  0
LINE
  5
223B
  8
OUTLINE
  6
CONTINUOUS
 62
    30
 10
0.0
 20
-356.189378
 30
0.0
 11
-12.0
 21
-356.189378
 31
0.0
  0
CIRCLE
  5
223C
  8
OUTLINE
  6
CONTINUOUS
 62
    30
 10
47.99999999999999
 20
-356.189378
 30
0.0
 40
6.0
  0
LINE
  5
223D
  8
OUTLINE
  6
CONTINUOUS
 62
    30
 10
47.99999999999999
 20
-356.189378
 30
0.0
 11
59.99999999999999
 21
-356.189378
 31
0.0
  0
POINT
  5
223E
  8
DEFPOINTS
  6
CONTINUOUS
 62
    30
 10
0.0
 20
-86.489794
 30
0.0
  0
POINT
  5
223F
  8
DEFPOINTS
  6
CONTINUOUS
 62
    30
 10
47.99999999999999
 20
-86.489794
 30
0.0
  0
POINT
  5
2240
  8
DEFPOINTS
  6
CONTINUOUS
 62
    30
 10
47.99999999999999
 20
-356.189378
 30
0.0
  0
LINE
  5
2241
  8
DETAIL
  6
CONTINUOUS
 62
     5
 10
28.65155899999999
 20
-47.252603
 30
0.0
 11
0.0
 21
-47.5
 31
0.0
  0
LINE
  5
2242
  8
NOTE
  6
CONTINUOUS
 62
     4
 10
-1.535561000000001
 20
60.0
 30
0.0
 11
-1.535561000000001
 21
100.0
 31
0.0
  0
LINE
  5
2243
  8
NOTE
  6
CONTINUOUS
 62
     4
 10
-21.535561
 20
80.0
 30
0.0
 11
18.46443899999998
 21
80.0
 31
0.0
  0
POINT
  5
2244
  8
ARRANGE
  6
CONTINUOUS
 62
     1
 10
0.0
 20
0.0
 30
0.0
  0
CIRCLE
  5
2245
  8
ARRANGE
  6
CONTINUOUS
 62
     1
 10
0.0
 20
0.0
 30
0.0
 40
40.0
  0
CIRCLE
  5
2246
  8
FIX
  6
CONTINUOUS
 62
    11
 10
0.0
 20
6.0
 30
0.0
 40
2.5
  0
LINE
  5
2247
  8
SIZE
  6
CONTINUOUS
 62
    30
 10
0.0
 20
-100.0
 30
0.0
 11
0.0
 21
-485.405033
 31
0.0
  0
LINE
  5
2248
  8
SIZE
  6
CONTINUOUS
 62
    30
 10
80.49999999999999
 20
-46.5
 30
0.0
 11
80.49999999999999
 21
-485.405033
 31
0.0
  0
LINE
  5
2249
  8
SIZE
  6
CONTINUOUS
 62
    30
 10
11.99999999999999
 20
-465.405033
 30
0.0
 11
68.49999999999999
 21
-465.405033
 31
0.0
  0
LINE
  5
224A
  8
SIZE
  6
CONTINUOUS
 62
    30
 10
319.486726
 20
-465.405033
 30
0.0
 11
80.49999999999999
 21
-465.405033
 31
0.0
  0
TEXT
  5
224B
  8
SIZE
  6
CONTINUOUS
 62
    30
 10
110.715297
 20
-440.405033
 30
0.0
 40
64.0
  1
80.5
 41
0.9
 72
     1
 11
206.715297
 21
-440.405033
 31
0.0
  0
CIRCLE
  5
224C
  8
SIZE
  6
CONTINUOUS
 62
    30
 10
0.0
 20
-465.405033
 30
0.0
 40
6.0
  0
LINE
  5
224D
  8
SIZE
  6
CONTINUOUS
 62
    30
 10
0.0
 20
-465.405033
 30
0.0
 11
11.99999999999999
 21
-465.405033
 31
0.0
  0
CIRCLE
  5
224E
  8
SIZE
  6
CONTINUOUS
 62
    30
 10
80.49999999999999
 20
-465.405033
 30
0.0
 40
6.0
  0
LINE
  5
224F
  8
SIZE
  6
CONTINUOUS
 62
    30
 10
80.49999999999999
 20
-465.405033
 30
0.0
 11
68.49999999999999
 21
-465.405033
 31
0.0
  0
POINT
  5
2250
  8
DEFPOINTS
  6
CONTINUOUS
 62
    30
 10
0.0
 20
-80.0
 30
0.0
  0
POINT
  5
2251
  8
DEFPOINTS
  6
CONTINUOUS
 62
    30
 10
80.49999999999999
 20
-26.5
 30
0.0
  0
POINT
  5
2252
  8
DEFPOINTS
  6
CONTINUOUS
 62
    30
 10
80.49999999999999
 20
-465.405033
 30
0.0
  0
LINE
  5
2253
  8
SIZE
  6
CONTINUOUS
 62
    30
 10
0.0
 20
-100.0
 30
0.0
 11
0.0
 21
-485.405033
 31
0.0
  0
LINE
  5
2254
  8
SIZE
  6
CONTINUOUS
 62
    30
 10
-19.5
 20
-92.0
 30
0.0
 11
-19.5
 21
-485.405033
 31
0.0
  0
LINE
  5
2255
  8
SIZE
  6
CONTINUOUS
 62
    30
 10
11.99999999999999
 20
-465.405033
 30
0.0
 11
23.99999999999999
 21
-465.405033
 31
0.0
  0
LINE
  5
2256
  8
SIZE
  6
CONTINUOUS
 62
    30
 10
-31.5
 20
-465.405033
 30
0.0
 11
-43.5
 21
-465.405033
 31
0.0
  0
LINE
  5
2257
  8
SIZE
  6
CONTINUOUS
 62
    30
 10
-272.928223
 20
-465.405033
 30
0.0
 11
-19.5
 21
-465.405033
 31
0.0
  0
TEXT
  5
2258
  8
SIZE
  6
CONTINUOUS
 62
    30
 10
-265.7567947142857
 20
-440.405033
 30
0.0
 40
64.0
  1
19.5
 41
0.9
 72
     1
 11
-165.642509
 21
-440.405033
 31
0.0
  0
LINE
  5
2259
  8
SIZE
  6
CONTINUOUS
 62
    30
 10
0.0
 20
-465.405033
 30
0.0
 11
-19.5
 21
-465.405033
 31
0.0
  0
LINE
  5
225A
  8
SIZE
  6
CONTINUOUS
 62
    30
 10
0.0
 20
-465.405033
 30
0.0
 11
-19.5
 21
-465.405033
 31
0.0
  0
CIRCLE
  5
225B
  8
SIZE
  6
CONTINUOUS
 62
    30
 10
0.0
 20
-465.405033
 30
0.0
 40
6.0
  0
LINE
  5
225C
  8
SIZE
  6
CONTINUOUS
 62
    30
 10
0.0
 20
-465.405033
 30
0.0
 11
11.99999999999999
 21
-465.405033
 31
0.0
  0
CIRCLE
  5
225D
  8
SIZE
  6
CONTINUOUS
 62
    30
 10
-19.5
 20
-465.405033
 30
0.0
 40
6.0
  0
LINE
  5
225E
  8
SIZE
  6
CONTINUOUS
 62
    30
 10
-19.5
 20
-465.405033
 30
0.0
 11
-31.5
 21
-465.405033
 31
0.0
  0
POINT
  5
225F
  8
DEFPOINTS
  6
CONTINUOUS
 62
    30
 10
0.0
 20
-80.0
 30
0.0
  0
POINT
  5
2260
  8
DEFPOINTS
  6
CONTINUOUS
 62
    30
 10
-19.5
 20
-72.0
 30
0.0
  0
POINT
  5
2261
  8
DEFPOINTS
  6
CONTINUOUS
 62
    30
 10
-19.5
 20
-465.405033
 30
0.0
  0
LINE
  5
2262
  8
NOTE
  6
CONTINUOUS
 62
     4
 10
19.99999999999999
 20
6.0
 30
0.0
 11
-20.0
 21
6.0
 31
0.0
  0
LINE
  5
2263
  8
BASIS
  6
DASHDOT
 62
     6
 10
-61.46294400000002
 20
0.0
 30
0.0
 11
106.75614
 21
0.0
 31
0.0
  0
LINE
  5
2264
  8
NOTE
  6
CONTINUOUS
 62
     4
 10
0.0
 20
6.0
 30
0.0
 11
113.738571
 21
120.113662
 31
0.0
  0
LINE
  5
2265
  8
NOTE
  6
CONTINUOUS
 62
     4
 10
21.24408499999998
 20
39.892313
 30
0.0
 11
0.0
 21
6.0
 31
0.0
  0
LINE
  5
2266
  8
NOTE
  6
CONTINUOUS
 62
     4
 10
0.0
 20
6.0
 30
0.0
 11
35.34407399999999
 21
24.729561
 31
0.0
  0
LINE
  5
2267
  8
NOTE
  6
CONTINUOUS
 62
     4
 10
-1.535561000000001
 20
80.0
 30
0.0
 11
145.873223
 21
238.295755
 31
0.0
  0
LINE
  5
2268
  8
NOTE
  6
CONTINUOUS
 62
     4
 10
17.48056799999999
 20
115.190721
 30
0.0
 11
-1.535561000000001
 21
80.0
 31
0.0
  0
LINE
  5
2269
  8
NOTE
  6
CONTINUOUS
 62
     4
 10
-1.535561000000001
 20
80.0
 30
0.0
 11
32.52824999999999
 21
100.967994
 31
0.0
  0
LINE
  5
226A
  8
SIZE
  6
CONTINUOUS
 62
    30
 10
-29.73919400000003
 20
80.0
 30
0.0
 11
-123.937902
 21
80.0
 31
0.0
  0
LINE
  5
226B
  8
SIZE
  6
CONTINUOUS
 62
    30
 10
-29.73919400000003
 20
-80.0
 30
0.0
 11
-123.937902
 21
-80.0
 31
0.0
  0
LINE
  5
226C
  8
SIZE
  6
CONTINUOUS
 62
    30
 10
-103.937902
 20
92.0
 30
0.0
 11
-103.937902
 21
104.0
 31
0.0
  0
LINE
  5
226D
  8
SIZE
  6
CONTINUOUS
 62
    30
 10
-103.937902
 20
-92.0
 30
0.0
 11
-103.937902
 21
-104.0
 31
0.0
  0
LINE
  5
226E
  8
SIZE
  6
CONTINUOUS
 62
    30
 10
-103.937902
 20
80.0
 30
0.0
 11
-103.937902
 21
-80.0
 31
0.0
  0
CIRCLE
  5
226F
  8
SIZE
  6
CONTINUOUS
 62
    30
 10
-103.937902
 20
80.0
 30
0.0
 40
6.0
  0
LINE
  5
2270
  8
SIZE
  6
CONTINUOUS
 62
    30
 10
-103.937902
 20
80.0
 30
0.0
 11
-103.937902
 21
92.0
 31
0.0
  0
CIRCLE
  5
2271
  8
SIZE
  6
CONTINUOUS
 62
    30
 10
-103.937902
 20
-80.0
 30
0.0
 40
6.0
  0
LINE
  5
2272
  8
SIZE
  6
CONTINUOUS
 62
    30
 10
-103.937902
 20
-80.0
 30
0.0
 11
-103.937902
 21
-92.0
 31
0.0
  0
TEXT
  5
2273
  8
SIZE
  6
CONTINUOUS
 62
    30
 10
-128.937902
 20
-106.9714285714286
 30
0.0
 40
64.0
  1
□160
 50
90.0
 41
0.9
 72
     1
 11
-128.937902
 21
0.0
 31
0.0
  0
POINT
  5
2274
  8
DEFPOINTS
  6
CONTINUOUS
 62
    30
 10
-9.739194000000026
 20
80.0
 30
0.0
  0
POINT
  5
2275
  8
DEFPOINTS
  6
CONTINUOUS
 62
    30
 10
-9.739194000000026
 20
-80.0
 30
0.0
  0
POINT
  5
2276
  8
DEFPOINTS
  6
CONTINUOUS
 62
    30
 10
-103.937902
 20
-80.0
 30
0.0
  0
LINE
  5
2277
  8
DETAIL
  6
CONTINUOUS
 62
     5
 10
0.0
 20
80.0
 30
0.0
 11
0.0
 21
-80.0
 31
0.0
  0
LINE
  5
2278
  8
DETAIL
  6
CONTINUOUS
 62
     5
 10
-19.5
 20
72.0
 30
0.0
 11
-19.5
 21
-72.0
 31
0.0
  0
LINE
  5
2279
  8
NOTE
  6
CONTINUOUS
 62
     4
 10
0.0
 20
20.0
 30
0.0
 11
0.0
 21
-20.0
 31
0.0
  0
LINE
  5
227A
  8
NOTE
  6
CONTINUOUS
 62
     4
 10
0.0
 20
26.0
 30
0.0
 11
0.0
 21
-14.0
 31
0.0
  0
ARC
  5
227B
  8
DETAIL
  6
CONTINUOUS
 62
     5
 10
-9.97618
 20
-70.334564
 30
0.0
 40
9.668341
 50
189.919053
 51
271.40455
  0
LINE
  5
227C
  8
DETAIL
  6
CONTINUOUS
 62
     5
 10
-9.739194000000026
 20
-80.0
 30
0.0
 11
0.0
 21
-80.0
 31
0.0
  0
LINE
  5
227D
  8
DETAIL
  6
CONTINUOUS
 62
     5
 10
0.0
 20
48.0
 30
0.0
 11
0.0
 21
80.0
 31
0.0
  0
ARC
  5
227E
  8
DETAIL
  6
CONTINUOUS
 62
     5
 10
-9.97618
 20
70.334563
 30
0.0
 40
9.668341
 50
88.59545000000006
 51
170.080947
  0
LINE
  5
227F
  8
DETAIL
  6
CONTINUOUS
 62
     5
 10
-9.739194000000026
 20
80.0
 30
0.0
 11
0.0
 21
80.0
 31
0.0
  0
LINE
  5
2280
  8
OUTLINE
  6
CONTINUOUS
 62
     3
 10
-9.739194000000026
 20
80.0
 30
0.0
 11
0.0
 21
80.0
 31
0.0
  0
LINE
  5
2281
  8
DETAIL
  6
CONTINUOUS
 62
     5
 10
67.75355899999998
 20
30.991542
 30
0.0
 11
67.75355899999998
 21
-30.884182
 31
0.0
  0
LINE
  5
2282
  8
DETAIL
  6
CONTINUOUS
 62
     5
 10
67.75355899999998
 20
-32.987509
 30
0.0
 11
67.75355899999998
 21
30.991542
 31
0.0
  0
LINE
  5
2283
  8
DETAIL
  6
CONTINUOUS
 62
     5
 10
62.86580899999998
 20
-32.987509
 30
0.0
 11
62.86580899999998
 21
30.991542
 31
0.0
  0
LINE
  5
2284
  8
DETAIL
  6
CONTINUOUS
 62
     5
 10
28.65155899999999
 20
36.25933499999999
 30
0.0
 11
28.65155899999999
 21
-7.981293999999998
 31
0.0
  0
LINE
  5
2285
  8
DETAIL
  6
CONTINUOUS
 62
     5
 10
80.50044799999998
 20
-27.342793
 30
0.0
 11
80.50044799999998
 21
27.450154
 31
0.0
  0
LINE
  5
2286
  8
SIZE
  6
CONTINUOUS
 62
    30
 10
47.99999999999999
 20
-47.5
 30
0.0
 11
381.368477
 21
-47.5
 31
0.0
  0
LINE
  5
2287
  8
SIZE
  6
CONTINUOUS
 62
    30
 10
67.99999999999999
 20
47.5
 30
0.0
 11
381.368477
 21
47.5
 31
0.0
  0
LINE
  5
2288
  8
SIZE
  6
CONTINUOUS
 62
    30
 10
361.368477
 20
-35.5
 30
0.0
 11
361.368477
 21
35.5
 31
0.0
  0
LINE
  5
2289
  8
SIZE
  6
CONTINUOUS
 62
    30
 10
361.368477
 20
-281.794229
 30
0.0
 11
361.368477
 21
-47.5
 31
0.0
  0
TEXT
  5
228A
  8
SIZE
  6
CONTINUOUS
 62
    30
 10
336.368477
 20
-260.9085151428571
 30
0.0
 40
64.0
  1
φ95
 50
90.0
 41
0.9
 72
     1
 11
336.368477
 21
-181.365658
 31
0.0
  0
CIRCLE
  5
228B
  8
SIZE
  6
CONTINUOUS
 62
    30
 10
361.368477
 20
-47.5
 30
0.0
 40
6.0
  0
LINE
  5
228C
  8
SIZE
  6
CONTINUOUS
 62
    30
 10
361.368477
 20
-47.5
 30
0.0
 11
361.368477
 21
-35.5
 31
0.0
  0
CIRCLE
  5
228D
  8
SIZE
  6
CONTINUOUS
 62
    30
 10
361.368477
 20
47.5
 30
0.0
 40
6.0
  0
LINE
  5
228E
  8
SIZE
  6
CONTINUOUS
 62
    30
 10
361.368477
 20
47.5
 30
0.0
 11
361.368477
 21
35.5
 31
0.0
  0
POINT
  5
228F
  8
DEFPOINTS
  6
CONTINUOUS
 62
    30
 10
27.99999999999999
 20
-47.5
 30
0.0
  0
POINT
  5
2290
  8
DEFPOINTS
  6
CONTINUOUS
 62
    30
 10
47.99999999999999
 20
47.5
 30
0.0
  0
POINT
  5
2291
  8
DEFPOINTS
  6
CONTINUOUS
 62
    30
 10
361.368477
 20
47.5
 30
0.0
  0
LINE
  5
2292
  8
SIZE
  6
CONTINUOUS
 62
    30
 10
95.49999999999999
 20
-31.5
 30
0.0
 11
261.559109
 21
-31.5
 31
0.0
  0
LINE
  5
2293
  8
SIZE
  6
CONTINUOUS
 62
    30
 10
95.49999999999999
 20
31.5
 30
0.0
 11
261.559109
 21
31.5
 31
0.0
  0
LINE
  5
2294
  8
SIZE
  6
CONTINUOUS
 62
    30
 10
241.559109
 20
-43.5
 30
0.0
 11
241.559109
 21
-55.5
 31
0.0
  0
LINE
  5
2295
  8
SIZE
  6
CONTINUOUS
 62
    30
 10
241.559109
 20
43.5
 30
0.0
 11
241.559109
 21
55.5
 31
0.0
  0
LINE
  5
2296
  8
SIZE
  6
CONTINUOUS
 62
    30
 10
241.559109
 20
-280.960663
 30
0.0
 11
241.559109
 21
-31.5
 31
0.0
  0
TEXT
  5
2297
  8
SIZE
  6
CONTINUOUS
 62
    30
 10
216.559109
 20
-260.0749481428571
 30
0.0
 40
64.0
  1
φ63
 50
90.0
 41
0.9
 72
     1
 11
216.559109
 21
-180.532091
 31
0.0
  0
LINE
  5
2298
  8
SIZE
  6
CONTINUOUS
 62
    30
 10
241.559109
 20
-31.5
 30
0.0
 11
241.559109
 21
31.5
 31
0.0
  0
LINE
  5
2299
  8
SIZE
  6
CONTINUOUS
 62
    30
 10
241.559109
 20
-31.5
 30
0.0
 11
241.559109
 21
31.5
 31
0.0
  0
CIRCLE
  5
229A
  8
SIZE
  6
CONTINUOUS
 62
    30
 10
241.559109
 20
-31.5
 30
0.0
 40
6.0
  0
LINE
  5
229B
  8
SIZE
  6
CONTINUOUS
 62
    30
 10
241.559109
 20
-31.5
 30
0.0
 11
241.559109
 21
-43.5
 31
0.0
  0
CIRCLE
  5
229C
  8
SIZE
  6
CONTINUOUS
 62
    30
 10
241.559109
 20
31.5
 30
0.0
 40
6.0
  0
LINE
  5
229D
  8
SIZE
  6
CONTINUOUS
 62
    30
 10
241.559109
 20
31.5
 30
0.0
 11
241.559109
 21
43.5
 31
0.0
  0
POINT
  5
229E
  8
DEFPOINTS
  6
CONTINUOUS
 62
    30
 10
75.49999999999999
 20
-31.5
 30
0.0
  0
POINT
  5
229F
  8
DEFPOINTS
  6
CONTINUOUS
 62
    30
 10
75.49999999999999
 20
31.5
 30
0.0
  0
POINT
  5
22A0
  8
DEFPOINTS
  6
CONTINUOUS
 62
    30
 10
241.559109
 20
31.5
 30
0.0
  0
LINE
  5
22A1
  8
DETAIL
  6
CONTINUOUS
 62
     5
 10
40.90442099999999
 20
-31.286792
 30
0.0
 11
62.86580899999998
 21
-31.670129
 31
0.0
  0
LINE
  5
22A2
  8
DETAIL
  6
CONTINUOUS
 62
     5
 10
62.86580899999998
 20
-24.897255
 30
0.0
 11
57.96099799999999
 21
-24.901488
 31
0.0
  0
LINE
  5
22A3
  8
DETAIL
  6
CONTINUOUS
 62
     5
 10
51.64036699999998
 20
-29.299568
 30
0.0
 11
62.86580899999998
 21
-28.341602
 31
0.0
  0
LINE
  5
22A4
  8
DETAIL
  6
CONTINUOUS
 62
     5
 10
62.86580899999998
 20
-13.313018
 30
0.0
 11
51.66571199999998
 21
-12.32271
 31
0.0
  0
LINE
  5
22A5
  8
DETAIL
  6
CONTINUOUS
 62
     5
 10
62.86580899999998
 20
-14.457638
 30
0.0
 11
51.64036699999998
 21
-13.471301
 31
0.0
  0
LINE
  5
22A6
  8
DETAIL
  6
CONTINUOUS
 62
     5
 10
62.86580899999998
 20
-21.923648
 30
0.0
 11
57.96099799999999
 21
-21.923648
 31
0.0
  0
LINE
  5
22A7
  8
DETAIL
  6
CONTINUOUS
 62
     5
 10
62.86580899999998
 20
-18.537316
 30
0.0
 11
57.96099799999999
 21
-18.62293
 31
0.0
  0
ARC
  5
22A8
  8
DETAIL
  6
CONTINUOUS
 62
     5
 10
33.53930899999999
 20
-6.822046999999998
 30
0.0
 40
4.88775
 50
180.0
 51
264.567486
  0
LINE
  5
22A9
  8
DETAIL
  6
CONTINUOUS
 62
     5
 10
28.65155899999999
 20
-36.757142
 30
0.0
 11
28.65155899999999
 21
-47.198263
 31
0.0
  0
LINE
  5
22AA
  8
DETAIL
  6
CONTINUOUS
 62
     5
 10
47.49670499999999
 20
-29.650268
 30
0.0
 11
45.90899599999999
 21
-30.583201
 31
0.0
  0
LINE
  5
22AB
  8
DETAIL
  6
CONTINUOUS
 62
     5
 10
45.90899599999999
 20
-13.762232
 30
0.0
 11
47.49670499999999
 21
-13.104298
 31
0.0
  0
LINE
  5
22AC
  8
DETAIL
  6
CONTINUOUS
 62
     5
 10
46.45445499999998
 20
-11.988626
 30
0.0
 11
46.13478599999999
 21
-12.059012
 31
0.0
  0
LINE
  5
22AD
  8
DETAIL
  6
CONTINUOUS
 62
     5
 10
45.90899599999999
 20
-17.439091
 30
0.0
 11
45.90899599999999
 21
-27.576803
 31
0.0
  0
LINE
  5
22AE
  8
DETAIL
  6
CONTINUOUS
 62
     5
 10
44.54359199999999
 20
-17.910264
 30
0.0
 11
44.54359199999999
 21
-27.855895
 31
0.0
  0
ARC
  5
22AF
  8
DETAIL
  6
CONTINUOUS
 62
     5
 10
33.53930899999999
 20
-36.757142
 30
0.0
 40
4.88775
 50
94.50407800000006
 51
180.0
  0
ARC
  5
22B0
  8
DETAIL
  6
CONTINUOUS
 62
     5
 10
41.13473899999998
 20
-18.091877
 30
0.0
 40
13.196925
 50
268.532237
 51
268.9999999999999
  0
LINE
  5
22B1
  8
DETAIL
  6
CONTINUOUS
 62
     5
 10
45.03163599999999
 20
-28.910931
 30
0.0
 11
44.75221799999998
 21
-28.972039
 31
0.0
  0
LINE
  5
22B2
  8
DETAIL
  6
CONTINUOUS
 62
     5
 10
45.29123599999998
 20
-28.828237
 30
0.0
 11
45.03163599999999
 21
-28.910931
 31
0.0
  0
LINE
  5
22B3
  8
DETAIL
  6
CONTINUOUS
 62
     5
 10
45.52161899999999
 20
-28.726905
 30
0.0
 11
45.29123599999998
 21
-28.828237
 31
0.0
  0
LINE
  5
22B4
  8
DETAIL
  6
CONTINUOUS
 62
     5
 10
45.52161899999999
 20
-28.726905
 30
0.0
 11
45.90899599999999
 21
-28.528205
 31
0.0
  0
LINE
  5
22B5
  8
DETAIL
  6
CONTINUOUS
 62
     5
 10
44.84534799999999
 20
-30.943374
 30
0.0
 11
44.54359199999999
 21
-30.979565
 31
0.0
  0
LINE
  5
22B6
  8
DETAIL
  6
CONTINUOUS
 62
     5
 10
45.14100699999999
 20
-30.883684
 30
0.0
 11
44.84534799999999
 21
-30.943374
 31
0.0
  0
LINE
  5
22B7
  8
DETAIL
  6
CONTINUOUS
 62
     5
 10
45.42012499999998
 20
-30.802635
 30
0.0
 11
45.14100699999999
 21
-30.883684
 31
0.0
  0
LINE
  5
22B8
  8
DETAIL
  6
CONTINUOUS
 62
     5
 10
45.67920499999998
 20
-30.701259
 30
0.0
 11
45.42012499999998
 21
-30.802635
 31
0.0
  0
LINE
  5
22B9
  8
DETAIL
  6
CONTINUOUS
 62
     5
 10
45.90899599999999
 20
-30.583201
 30
0.0
 11
45.67920499999998
 21
-30.701259
 31
0.0
  0
LINE
  5
22BA
  8
DETAIL
  6
CONTINUOUS
 62
     5
 10
44.84427499999998
 20
-27.844935
 30
0.0
 11
44.54359199999999
 21
-27.855895
 31
0.0
  0
LINE
  5
22BB
  8
DETAIL
  6
CONTINUOUS
 62
     5
 10
45.13968399999999
 20
-27.810384
 30
0.0
 11
44.84427499999998
 21
-27.844935
 31
0.0
  0
LINE
  5
22BC
  8
DETAIL
  6
CONTINUOUS
 62
     5
 10
45.41914499999999
 20
-27.753348
 30
0.0
 11
45.13968399999999
 21
-27.810384
 31
0.0
  0
LINE
  5
22BD
  8
DETAIL
  6
CONTINUOUS
 62
     5
 10
45.67871599999999
 20
-27.674542
 30
0.0
 11
45.41914499999999
 21
-27.753348
 31
0.0
  0
LINE
  5
22BE
  8
DETAIL
  6
CONTINUOUS
 62
     5
 10
45.90899599999999
 20
-27.576803
 30
0.0
 11
45.67871599999999
 21
-27.674542
 31
0.0
  0
LINE
  5
22BF
  8
DETAIL
  6
CONTINUOUS
 62
     5
 10
45.90899599999999
 20
-27.576803
 30
0.0
 11
45.52161899999999
 21
-27.769389
 31
0.0
  0
LINE
  5
22C0
  8
DETAIL
  6
CONTINUOUS
 62
     5
 10
45.90899599999999
 20
-28.528205
 30
0.0
 11
45.90899599999999
 21
-30.583201
 31
0.0
  0
LINE
  5
22C1
  8
DETAIL
  6
CONTINUOUS
 62
     5
 10
45.52161899999999
 20
-27.769389
 30
0.0
 11
45.52161899999999
 21
-28.726905
 31
0.0
  0
LINE
  5
22C2
  8
DETAIL
  6
CONTINUOUS
 62
     5
 10
44.54359199999999
 20
-28.999426
 30
0.0
 11
44.54359199999999
 21
-30.979565
 31
0.0
  0
LINE
  5
22C3
  8
DETAIL
  6
CONTINUOUS
 62
     5
 10
44.15621599999999
 20
-28.048431
 30
0.0
 11
44.15621599999999
 21
-29.02599
 31
0.0
  0
LINE
  5
22C4
  8
DETAIL
  6
CONTINUOUS
 62
     5
 10
40.90442099999999
 20
-31.286792
 30
0.0
 11
40.90442099999999
 21
-31.270184
 31
0.0
  0
LINE
  5
22C5
  8
DETAIL
  6
CONTINUOUS
 62
     5
 10
45.29134899999998
 20
-27.867109
 30
0.0
 11
45.52161899999999
 21
-27.769389
 31
0.0
  0
LINE
  5
22C6
  8
DETAIL
  6
CONTINUOUS
 62
     5
 10
45.03178299999999
 20
-27.945901
 30
0.0
 11
45.29134899999998
 21
-27.867109
 31
0.0
  0
LINE
  5
22C7
  8
DETAIL
  6
CONTINUOUS
 62
     5
 10
44.75232199999999
 20
-28.002929
 30
0.0
 11
45.03178299999999
 21
-27.945901
 31
0.0
  0
LINE
  5
22C8
  8
DETAIL
  6
CONTINUOUS
 62
     5
 10
44.45690899999998
 20
-28.037474
 30
0.0
 11
44.75232199999999
 21
-28.002929
 31
0.0
  0
LINE
  5
22C9
  8
DETAIL
  6
CONTINUOUS
 62
     5
 10
44.15621599999999
 20
-28.048431
 30
0.0
 11
44.45690899999998
 21
-28.037474
 31
0.0
  0
LINE
  5
22CA
  8
DETAIL
  6
CONTINUOUS
 62
     5
 10
44.45686199999999
 20
-29.010811
 30
0.0
 11
44.15621599999999
 21
-29.02599
 31
0.0
  0
LINE
  5
22CB
  8
DETAIL
  6
CONTINUOUS
 62
     5
 10
44.75221799999998
 20
-28.972039
 30
0.0
 11
44.45686199999999
 21
-29.010811
 31
0.0
  0
LINE
  5
22CC
  8
DETAIL
  6
CONTINUOUS
 62
     5
 10
34.91670499999999
 20
-31.745749
 30
0.0
 11
44.54359199999999
 21
-30.979565
 31
0.0
  0
LINE
  5
22CD
  8
DETAIL
  6
CONTINUOUS
 62
     5
 10
33.15547399999998
 20
-31.884487
 30
0.0
 11
34.91670499999999
 21
-31.745749
 31
0.0
  0
ARC
  5
22CE
  8
DETAIL
  6
CONTINUOUS
 62
     5
 10
33.53930899999999
 20
-7.981293999999998
 30
0.0
 40
4.88775
 50
180.0
 51
264.6054559999999
  0
LINE
  5
22CF
  8
DETAIL
  6
CONTINUOUS
 62
     5
 10
44.84422799999999
 20
-16.583981
 30
0.0
 11
44.54359199999999
 21
-16.594616
 31
0.0
  0
LINE
  5
22D0
  8
DETAIL
  6
CONTINUOUS
 62
     5
 10
45.13957799999999
 20
-16.54967
 30
0.0
 11
44.84422799999999
 21
-16.583981
 31
0.0
  0
LINE
  5
22D1
  8
DETAIL
  6
CONTINUOUS
 62
     5
 10
45.41899499999998
 20
-16.492778
 30
0.0
 11
45.13957799999999
 21
-16.54967
 31
0.0
  0
LINE
  5
22D2
  8
DETAIL
  6
CONTINUOUS
 62
     5
 10
45.67860099999999
 20
-16.413993
 30
0.0
 11
45.41899499999998
 21
-16.492778
 31
0.0
  0
LINE
  5
22D3
  8
DETAIL
  6
CONTINUOUS
 62
     5
 10
45.90899599999999
 20
-16.316122
 30
0.0
 11
45.67860099999999
 21
-16.413993
 31
0.0
  0
LINE
  5
22D4
  8
DETAIL
  6
CONTINUOUS
 62
     5
 10
45.03178299999999
 20
-17.821449
 30
0.0
 11
44.75232199999999
 21
-17.8827
 31
0.0
  0
LINE
  5
22D5
  8
DETAIL
  6
CONTINUOUS
 62
     5
 10
45.29134899999998
 20
-17.738733
 30
0.0
 11
45.03178299999999
 21
-17.821449
 31
0.0
  0
LINE
  5
22D6
  8
DETAIL
  6
CONTINUOUS
 62
     5
 10
45.52161899999999
 20
-17.637533
 30
0.0
 11
45.29134899999998
 21
-17.738733
 31
0.0
  0
LINE
  5
22D7
  8
DETAIL
  6
CONTINUOUS
 62
     5
 10
45.90899599999999
 20
-16.316122
 30
0.0
 11
45.52161899999999
 21
-16.508967
 31
0.0
  0
LINE
  5
22D8
  8
DETAIL
  6
CONTINUOUS
 62
     5
 10
45.52161899999999
 20
-17.637533
 30
0.0
 11
45.90899599999999
 21
-17.439091
 31
0.0
  0
LINE
  5
22D9
  8
DETAIL
  6
CONTINUOUS
 62
     5
 10
44.19253199999999
 20
-12.727584
 30
0.0
 11
44.00400099999999
 21
-12.719353
 31
0.0
  0
LINE
  5
22DA
  8
DETAIL
  6
CONTINUOUS
 62
     5
 10
44.37355799999999
 20
-12.716612
 30
0.0
 11
44.19253199999999
 21
-12.727584
 31
0.0
  0
LINE
  5
22DB
  8
DETAIL
  6
CONTINUOUS
 62
     5
 10
44.54039399999999
 20
-12.686857
 30
0.0
 11
44.37355799999999
 21
-12.716612
 31
0.0
  0
LINE
  5
22DC
  8
DETAIL
  6
CONTINUOUS
 62
     5
 10
44.68670299999999
 20
-12.639454
 30
0.0
 11
44.54039399999999
 21
-12.686857
 31
0.0
  0
LINE
  5
22DD
  8
DETAIL
  6
CONTINUOUS
 62
     5
 10
44.68670299999999
 20
-12.639454
 30
0.0
 11
45.85066699999999
 21
-12.156195
 31
0.0
  0
LINE
  5
22DE
  8
DETAIL
  6
CONTINUOUS
 62
     5
 10
45.90899599999999
 20
-13.762232
 30
0.0
 11
45.90899599999999
 21
-16.316122
 31
0.0
  0
LINE
  5
22DF
  8
DETAIL
  6
CONTINUOUS
 62
     5
 10
45.52161899999999
 20
-16.508967
 30
0.0
 11
45.52161899999999
 21
-17.637533
 31
0.0
  0
LINE
  5
22E0
  8
DETAIL
  6
CONTINUOUS
 62
     5
 10
44.54359199999999
 20
-13.922101
 30
0.0
 11
44.54359199999999
 21
-16.594616
 31
0.0
  0
LINE
  5
22E1
  8
DETAIL
  6
CONTINUOUS
 62
     5
 10
44.15621599999999
 20
-16.787413
 30
0.0
 11
44.15621599999999
 21
-17.937213
 31
0.0
  0
LINE
  5
22E2
  8
DETAIL
  6
CONTINUOUS
 62
     5
 10
34.73609899999998
 20
-11.845665
 30
0.0
 11
33.07656999999999
 21
-11.687843
 31
0.0
  0
LINE
  5
22E3
  8
DETAIL
  6
CONTINUOUS
 62
     5
 10
44.00400099999999
 20
-12.719353
 30
0.0
 11
34.73609899999998
 21
-11.845665
 31
0.0
  0
LINE
  5
22E4
  8
DETAIL
  6
CONTINUOUS
 62
     5
 10
46.13478599999999
 20
-12.059012
 30
0.0
 11
45.85066699999999
 21
-12.156195
 31
0.0
  0
LINE
  5
22E5
  8
DETAIL
  6
CONTINUOUS
 62
     5
 10
34.91670499999999
 20
-13.020858
 30
0.0
 11
33.07979399999999
 21
-12.847396
 31
0.0
  0
LINE
  5
22E6
  8
DETAIL
  6
CONTINUOUS
 62
     5
 10
44.54359199999999
 20
-13.922101
 30
0.0
 11
34.91670499999999
 21
-13.020858
 31
0.0
  0
LINE
  5
22E7
  8
DETAIL
  6
CONTINUOUS
 62
     5
 10
45.67920499999998
 20
-13.840488
 30
0.0
 11
45.90899599999999
 21
-13.762232
 31
0.0
  0
LINE
  5
22E8
  8
DETAIL
  6
CONTINUOUS
 62
     5
 10
45.42012499999998
 20
-13.89699
 30
0.0
 11
45.67920499999998
 21
-13.840488
 31
0.0
  0
LINE
  5
22E9
  8
DETAIL
  6
CONTINUOUS
 62
     5
 10
45.14100699999999
 20
-13.929695
 30
0.0
 11
45.42012499999998
 21
-13.89699
 31
0.0
  0
LINE
  5
22EA
  8
DETAIL
  6
CONTINUOUS
 62
     5
 10
44.84534799999999
 20
-13.938175
 30
0.0
 11
45.14100699999999
 21
-13.929695
 31
0.0
  0
LINE
  5
22EB
  8
DETAIL
  6
CONTINUOUS
 62
     5
 10
44.54359199999999
 20
-13.922101
 30
0.0
 11
44.84534799999999
 21
-13.938175
 31
0.0
  0
LINE
  5
22EC
  8
DETAIL
  6
CONTINUOUS
 62
     5
 10
45.29123599999998
 20
-16.606817
 30
0.0
 11
45.52161899999999
 21
-16.508967
 31
0.0
  0
LINE
  5
22ED
  8
DETAIL
  6
CONTINUOUS
 62
     5
 10
45.03163599999999
 20
-16.685587
 30
0.0
 11
45.29123599999998
 21
-16.606817
 31
0.0
  0
LINE
  5
22EE
  8
DETAIL
  6
CONTINUOUS
 62
     5
 10
44.75221799999998
 20
-16.742471
 30
0.0
 11
45.03163599999999
 21
-16.685587
 31
0.0
  0
LINE
  5
22EF
  8
DETAIL
  6
CONTINUOUS
 62
     5
 10
44.45686199999999
 20
-16.776778
 30
0.0
 11
44.75221799999998
 21
-16.742471
 31
0.0
  0
LINE
  5
22F0
  8
DETAIL
  6
CONTINUOUS
 62
     5
 10
44.15621599999999
 20
-16.787413
 30
0.0
 11
44.45686199999999
 21
-16.776778
 31
0.0
  0
LINE
  5
22F1
  8
DETAIL
  6
CONTINUOUS
 62
     5
 10
44.45690899999998
 20
-17.921711
 30
0.0
 11
44.15621599999999
 21
-17.937213
 31
0.0
  0
LINE
  5
22F2
  8
DETAIL
  6
CONTINUOUS
 62
     5
 10
44.75232199999999
 20
-17.8827
 30
0.0
 11
44.45690899999998
 21
-17.921711
 31
0.0
  0
LINE
  5
22F3
  8
DETAIL
  6
CONTINUOUS
 62
     5
 10
57.96099799999999
 20
-21.923648
 30
0.0
 11
57.96099799999999
 21
-24.901488
 31
0.0
  0
LINE
  5
22F4
  8
DETAIL
  6
CONTINUOUS
 62
     5
 10
57.00050899999999
 20
-24.016884
 30
0.0
 11
57.00050899999999
 21
-19.600331
 31
0.0
  0
LINE
  5
22F5
  8
DETAIL
  6
CONTINUOUS
 62
     5
 10
47.49670499999999
 20
-29.650268
 30
0.0
 11
47.49670499999999
 21
-13.104298
 31
0.0
  0
LINE
  5
22F6
  8
DETAIL
  6
CONTINUOUS
 62
     5
 10
57.02643999999999
 20
-24.224849
 30
0.0
 11
57.00050899999999
 21
-24.016884
 31
0.0
  0
LINE
  5
22F7
  8
DETAIL
  6
CONTINUOUS
 62
     5
 10
57.10216199999999
 20
-24.418361
 30
0.0
 11
57.02643999999999
 21
-24.224849
 31
0.0
  0
LINE
  5
22F8
  8
DETAIL
  6
CONTINUOUS
 62
     5
 10
57.22048699999999
 20
-24.585508
 30
0.0
 11
57.10216199999999
 21
-24.418361
 31
0.0
  0
LINE
  5
22F9
  8
DETAIL
  6
CONTINUOUS
 62
     5
 10
57.37207899999999
 20
-24.719683
 30
0.0
 11
57.22048699999999
 21
-24.585508
 31
0.0
  0
LINE
  5
22FA
  8
DETAIL
  6
CONTINUOUS
 62
     5
 10
57.55533199999999
 20
-24.82096
 30
0.0
 11
57.37207899999999
 21
-24.719683
 31
0.0
  0
LINE
  5
22FB
  8
DETAIL
  6
CONTINUOUS
 62
     5
 10
57.75668499999999
 20
-24.881959
 30
0.0
 11
57.55533199999999
 21
-24.82096
 31
0.0
  0
LINE
  5
22FC
  8
DETAIL
  6
CONTINUOUS
 62
     5
 10
57.96099799999999
 20
-24.901488
 30
0.0
 11
57.75668499999999
 21
-24.881959
 31
0.0
  0
LINE
  5
22FD
  8
DETAIL
  6
CONTINUOUS
 62
     5
 10
47.49670499999999
 20
-29.650268
 30
0.0
 11
51.64036699999998
 21
-29.299568
 31
0.0
  0
ARC
  5
22FE
  8
DETAIL
  6
CONTINUOUS
 62
     5
 10
57.97805899999999
 20
-19.600331
 30
0.0
 40
0.97755
 50
91.00000000000006
 51
180.0
  0
LINE
  5
22FF
  8
DETAIL
  6
CONTINUOUS
 62
     5
 10
57.76108399999998
 20
-21.902903
 30
0.0
 11
57.96099799999999
 21
-21.923648
 31
0.0
  0
LINE
  5
2300
  8
DETAIL
  6
CONTINUOUS
 62
     5
 10
57.56126999999999
 20
-21.837471
 30
0.0
 11
57.76108399999998
 21
-21.902903
 31
0.0
  0
LINE
  5
2301
  8
DETAIL
  6
CONTINUOUS
 62
     5
 10
57.37745899999999
 20
-21.72772
 30
0.0
 11
57.56126999999999
 21
-21.837471
 31
0.0
  0
LINE
  5
2302
  8
DETAIL
  6
CONTINUOUS
 62
     5
 10
57.22433599999999
 20
-21.581606
 30
0.0
 11
57.37745899999999
 21
-21.72772
 31
0.0
  0
LINE
  5
2303
  8
DETAIL
  6
CONTINUOUS
 62
     5
 10
57.10433699999999
 20
-21.399623
 30
0.0
 11
57.22433599999999
 21
-21.581606
 31
0.0
  0
LINE
  5
2304
  8
DETAIL
  6
CONTINUOUS
 62
     5
 10
57.02702999999998
 20
-21.188711
 30
0.0
 11
57.10433699999999
 21
-21.399623
 31
0.0
  0
LINE
  5
2305
  8
DETAIL
  6
CONTINUOUS
 62
     5
 10
57.00050899999999
 20
-20.963013
 30
0.0
 11
57.02702999999998
 21
-21.188711
 31
0.0
  0
LINE
  5
2306
  8
DETAIL
  6
CONTINUOUS
 62
     5
 10
51.66571199999998
 20
-12.32271
 30
0.0
 11
47.53609599999999
 21
-11.954507
 31
0.0
  0
LINE
  5
2307
  8
DETAIL
  6
CONTINUOUS
 62
     5
 10
51.64036699999998
 20
-13.471301
 30
0.0
 11
47.49670499999999
 21
-13.104298
 31
0.0
  0
LINE
  5
2308
  8
DETAIL
  6
CONTINUOUS
 62
     5
 10
46.79861899999999
 20
-11.947432
 30
0.0
 11
46.45445499999998
 21
-11.988626
 31
0.0
  0
LINE
  5
2309
  8
DETAIL
  6
CONTINUOUS
 62
     5
 10
47.16331099999999
 20
-11.935908
 30
0.0
 11
46.79861899999999
 21
-11.947432
 31
0.0
  0
LINE
  5
230A
  8
DETAIL
  6
CONTINUOUS
 62
     5
 10
47.53609599999999
 20
-11.954507
 30
0.0
 11
47.16331099999999
 21
-11.935908
 31
0.0
  0
LINE
  5
230B
  8
DETAIL
  6
CONTINUOUS
 62
     5
 10
44.54359199999999
 20
-16.594616
 30
0.0
 11
0.007694999999984
 21
-16.413754
 31
0.0
  0
LINE
  5
230C
  8
DETAIL
  6
CONTINUOUS
 62
     5
 10
0.007694999999984
 20
-16.608238
 30
0.0
 11
44.15621599999999
 21
-16.787413
 31
0.0
  0
LINE
  5
230D
  8
DETAIL
  6
CONTINUOUS
 62
     5
 10
0.007694999999984
 20
-18.521198
 30
0.0
 11
44.15621599999999
 21
-17.937213
 31
0.0
  0
LINE
  5
230E
  8
DETAIL
  6
CONTINUOUS
 62
     5
 10
44.54359199999999
 20
-27.855895
 30
0.0
 11
0.0049469999999872
 21
-27.731954
 31
0.0
  0
LINE
  5
230F
  8
DETAIL
  6
CONTINUOUS
 62
     5
 10
0.0049469999999872
 20
-27.925224
 30
0.0
 11
44.15621599999999
 21
-28.048431
 31
0.0
  0
LINE
  5
2310
  8
DETAIL
  6
CONTINUOUS
 62
     5
 10
0.0109659999999963
 20
-29.554007
 30
0.0
 11
44.15621599999999
 21
-29.02599
 31
0.0
  0
LINE
  5
2311
  8
DETAIL
  6
CONTINUOUS
 62
     5
 10
27.99999999999999
 20
-47.497563
 30
0.0
 11
27.99999999999999
 21
-47.5
 31
0.0
  0
LINE
  5
2312
  8
DETAIL
  6
CONTINUOUS
 62
     5
 10
77.16171699999998
 20
-30.763697
 30
0.0
 11
67.75355899999998
 21
-30.884182
 31
0.0
  0
LINE
  5
2313
  8
DETAIL
  6
CONTINUOUS
 62
     5
 10
67.75355899999998
 20
-32.987509
 30
0.0
 11
62.86580899999998
 21
-32.987509
 31
0.0
  0
ARC
  5
2314
  8
DETAIL
  6
CONTINUOUS
 62
     5
 10
77.10883199999998
 20
-27.342793
 30
0.0
 40
3.421425
 50
270.9999999999999
 51
0.0
  0
LINE
  5
2315
  8
NOTE
  6
CONTINUOUS
 62
     4
 10
948.3798049999999
 20
120.437878
 30
0.0
 11
113.738571
 21
120.113662
 31
0.0
  0
LINE
  5
2316
  8
DETAIL
  6
CONTINUOUS
 62
     5
 10
66.77600899999999
 20
45.016952
 30
0.0
 11
42.33725899999999
 21
45.190472
 31
0.0
  0
LINE
  5
2317
  8
DETAIL
  6
CONTINUOUS
 62
     5
 10
43.51808299999999
 20
42.882312
 30
0.0
 11
62.86580899999998
 21
42.746476
 31
0.0
  0
ARC
  5
2318
  8
DETAIL
  6
CONTINUOUS
 62
     5
 10
59.54739299999999
 20
50.542542
 30
0.0
 40
14.66325
 50
239.916455
 51
270.0
  0
ARC
  5
2319
  8
DETAIL
  6
CONTINUOUS
 62
     5
 10
59.54739299999999
 20
50.542542
 30
0.0
 40
19.551
 50
239.916455
 51
270.0
  0
LINE
  5
231A
  8
DETAIL
  6
CONTINUOUS
 62
     5
 10
61.39948399999999
 20
46.00600799999999
 30
0.0
 11
49.97198899999999
 21
46.105735
 31
0.0
  0
LINE
  5
231B
  8
DETAIL
  6
CONTINUOUS
 62
     5
 10
21.80870899999999
 20
53.42791
 30
0.0
 11
29.01918999999998
 21
48.36084699999999
 31
0.0
  0
LINE
  5
231C
  8
DETAIL
  6
CONTINUOUS
 62
     5
 10
30.04915999999999
 20
48.350753
 30
0.0
 11
22.22711499999998
 21
53.847585
 31
0.0
  0
LINE
  5
231D
  8
DETAIL
  6
CONTINUOUS
 62
     5
 10
21.80870899999999
 20
53.42791
 30
0.0
 11
29.11595999999999
 21
48.29284199999999
 31
0.0
  0
LINE
  5
231E
  8
DETAIL
  6
CONTINUOUS
 62
     5
 10
30.14593099999999
 20
48.282749
 30
0.0
 11
22.22711499999998
 21
53.847585
 31
0.0
  0
LINE
  5
231F
  8
DETAIL
  6
CONTINUOUS
 62
     5
 10
28.65155899999999
 20
17.892087
 30
0.0
 11
32.63851599999998
 21
24.79770000000001
 31
0.0
  0
LINE
  5
2320
  8
DETAIL
  6
CONTINUOUS
 62
     5
 10
47.22500899999999
 20
40.734905
 30
0.0
 11
39.94000599999998
 21
44.955078
 31
0.0
  0
LINE
  5
2321
  8
DETAIL
  6
CONTINUOUS
 62
     5
 10
43.99582699999999
 20
42.605557
 30
0.0
 11
49.52342199999998
 21
41.92121
 31
0.0
  0
LINE
  5
2322
  8
DETAIL
  6
CONTINUOUS
 62
     5
 10
38.50386099999999
 20
45.709262
 30
0.0
 11
50.34699199999999
 21
45.62027399999999
 31
0.0
  0
LINE
  5
2323
  8
DETAIL
  6
CONTINUOUS
 62
     5
 10
40.54506099999999
 20
35.17171500000001
 30
0.0
 11
47.29713999999998
 21
34.99925500000001
 31
0.0
  0
LINE
  5
2324
  8
DETAIL
  6
CONTINUOUS
 62
     5
 10
41.81340099999998
 20
36.38866
 30
0.0
 11
48.19402799999999
 21
36.25180899999999
 31
0.0
  0
LINE
  5
2325
  8
DETAIL
  6
CONTINUOUS
 62
     5
 10
41.80098099999999
 20
35.745664
 30
0.0
 11
47.28111299999999
 21
35.628135
 31
0.0
  0
LINE
  5
2326
  8
DETAIL
  6
CONTINUOUS
 62
     5
 10
40.94202799999999
 20
36.93925
 30
0.0
 11
48.21108999999998
 21
36.84281
 31
0.0
  0
LINE
  5
2327
  8
DETAIL
  6
CONTINUOUS
 62
     5
 10
42.33725899999999
 20
39.331934
 30
0.0
 11
46.25598999999998
 21
39.31491699999999
 31
0.0
  0
LINE
  5
2328
  8
DETAIL
  6
CONTINUOUS
 62
     5
 10
43.83707099999998
 20
31.39415200000001
 30
0.0
 11
54.76713999999998
 21
31.584937
 31
0.0
  0
LINE
  5
2329
  8
DETAIL
  6
CONTINUOUS
 62
     5
 10
30.67246799999998
 20
36.481916
 30
0.0
 11
30.09221199999999
 21
36.19904099999999
 31
0.0
  0
LINE
  5
232A
  8
DETAIL
  6
CONTINUOUS
 62
     5
 10
39.87875599999998
 20
36.09361699999999
 30
0.0
 11
38.97330199999999
 21
36.964916
 31
0.0
  0
LINE
  5
232B
  8
DETAIL
  6
CONTINUOUS
 62
     5
 10
37.92382699999999
 20
36.96865699999999
 30
0.0
 11
39.21784799999999
 21
35.723662
 31
0.0
  0
LINE
  5
232C
  8
DETAIL
  6
CONTINUOUS
 62
     5
 10
40.25160899999999
 20
36.54607799999999
 30
0.0
 11
40.50781399999998
 21
36.260828
 31
0.0
  0
LINE
  5
232D
  8
DETAIL
  6
CONTINUOUS
 62
     5
 10
41.81340099999998
 20
36.38866
 30
0.0
 11
41.80113099999998
 21
35.766594
 31
0.0
  0
LINE
  5
232E
  8
DETAIL
  6
CONTINUOUS
 62
     5
 10
28.65155899999999
 20
36.25933499999999
 30
0.0
 11
28.71321299999998
 21
36.75918
 31
0.0
  0
ARC
  5
232F
  8
DETAIL
  6
CONTINUOUS
 62
     5
 10
44.06738899999999
 20
18.199237
 30
0.0
 40
13.196925
 50
91.00000000000004
 51
150.0
  0
LINE
  5
2330
  8
DETAIL
  6
CONTINUOUS
 62
     5
 10
28.89735299999998
 20
35.025074
 30
0.0
 11
28.71348799999998
 21
34.539934
 31
0.0
  0
LINE
  5
2331
  8
DETAIL
  6
CONTINUOUS
 62
     5
 10
29.19430899999999
 20
35.466362
 30
0.0
 11
28.89735299999998
 21
35.025074
 31
0.0
  0
LINE
  5
2332
  8
DETAIL
  6
CONTINUOUS
 62
     5
 10
29.59374399999999
 20
35.857517
 30
0.0
 11
29.19430899999999
 21
35.466362
 31
0.0
  0
LINE
  5
2333
  8
DETAIL
  6
CONTINUOUS
 62
     5
 10
30.09221199999999
 20
36.19904099999999
 30
0.0
 11
29.59374399999999
 21
35.857517
 31
0.0
  0
LINE
  5
2334
  8
DETAIL
  6
CONTINUOUS
 62
     5
 10
28.71348799999998
 20
34.539934
 30
0.0
 11
28.67698999999999
 21
34.236778
 31
0.0
  0
LINE
  5
2335
  8
DETAIL
  6
CONTINUOUS
 62
     5
 10
39.72607999999998
 20
35.96134499999999
 30
0.0
 11
39.87875599999998
 21
36.09361699999999
 31
0.0
  0
LINE
  5
2336
  8
DETAIL
  6
CONTINUOUS
 62
     5
 10
39.58168699999999
 20
35.851844
 30
0.0
 11
39.72607999999998
 21
35.96134499999999
 31
0.0
  0
LINE
  5
2337
  8
DETAIL
  6
CONTINUOUS
 62
     5
 10
39.45262499999998
 20
35.77045699999999
 30
0.0
 11
39.58168699999999
 21
35.851844
 31
0.0
  0
LINE
  5
2338
  8
DETAIL
  6
CONTINUOUS
 62
     5
 10
39.34519399999999
 20
35.72115700000001
 30
0.0
 11
39.45262499999998
 21
35.77045699999999
 31
0.0
  0
LINE
  5
2339
  8
DETAIL
  6
CONTINUOUS
 62
     5
 10
39.26463499999998
 20
35.70635
 30
0.0
 11
39.34519399999999
 21
35.72115700000001
 31
0.0
  0
LINE
  5
233A
  8
DETAIL
  6
CONTINUOUS
 62
     5
 10
39.21785899999999
 20
35.723651
 30
0.0
 11
39.26463499999998
 21
35.70635
 31
0.0
  0
LINE
  5
233B
  8
DETAIL
  6
CONTINUOUS
 62
     5
 10
39.99254999999999
 20
35.99956399999999
 30
0.0
 11
39.87875599999998
 21
36.09361699999999
 31
0.0
  0
LINE
  5
233C
  8
DETAIL
  6
CONTINUOUS
 62
     5
 10
40.12023899999998
 20
35.922912
 30
0.0
 11
39.99254999999999
 21
35.99956399999999
 31
0.0
  0
LINE
  5
233D
  8
DETAIL
  6
CONTINUOUS
 62
     5
 10
40.25855099999998
 20
35.865719
 30
0.0
 11
40.12023899999998
 21
35.922912
 31
0.0
  0
LINE
  5
233E
  8
DETAIL
  6
CONTINUOUS
 62
     5
 10
40.40404599999999
 20
35.829368
 30
0.0
 11
40.25855099999998
 21
35.865719
 31
0.0
  0
LINE
  5
233F
  8
DETAIL
  6
CONTINUOUS
 62
     5
 10
40.55292799999999
 20
35.814656
 30
0.0
 11
40.40404599999999
 21
35.829368
 31
0.0
  0
LINE
  5
2340
  8
DETAIL
  6
CONTINUOUS
 62
     5
 10
41.44872099999999
 20
35.791797
 30
0.0
 11
40.55292799999999
 21
35.814656
 31
0.0
  0
LINE
  5
2341
  8
DETAIL
  6
CONTINUOUS
 62
     5
 10
40.33769999999998
 20
35.18780699999999
 30
0.0
 11
40.54506199999999
 21
35.171724
 31
0.0
  0
LINE
  5
2342
  8
DETAIL
  6
CONTINUOUS
 62
     5
 10
39.99673099999998
 20
35.26286399999999
 30
0.0
 11
40.33769999999998
 21
35.18780699999999
 31
0.0
  0
LINE
  5
2343
  8
DETAIL
  6
CONTINUOUS
 62
     5
 10
39.67462899999998
 20
35.39587400000001
 30
0.0
 11
39.99673099999998
 21
35.26286399999999
 31
0.0
  0
LINE
  5
2344
  8
DETAIL
  6
CONTINUOUS
 62
     5
 10
39.38156899999998
 20
35.582651
 30
0.0
 11
39.67462899999998
 21
35.39587400000001
 31
0.0
  0
LINE
  5
2345
  8
DETAIL
  6
CONTINUOUS
 62
     5
 10
39.21786499999999
 20
35.723657
 30
0.0
 11
39.38156899999998
 21
35.582651
 31
0.0
  0
LINE
  5
2346
  8
DETAIL
  6
CONTINUOUS
 62
     5
 10
40.54386699999999
 20
35.303213
 30
0.0
 11
40.54563399999999
 21
35.438643
 31
0.0
  0
LINE
  5
2347
  8
DETAIL
  6
CONTINUOUS
 62
     5
 10
40.54350399999998
 20
35.213217
 30
0.0
 11
40.54386699999999
 21
35.303213
 31
0.0
  0
LINE
  5
2348
  8
DETAIL
  6
CONTINUOUS
 62
     5
 10
40.54456299999998
 20
35.173491
 30
0.0
 11
40.54350399999998
 21
35.213217
 31
0.0
  0
LINE
  5
2349
  8
DETAIL
  6
CONTINUOUS
 62
     5
 10
40.54506199999999
 20
35.171724
 30
0.0
 11
40.54456299999998
 21
35.173491
 31
0.0
  0
LINE
  5
234A
  8
DETAIL
  6
CONTINUOUS
 62
     5
 10
41.54050299999999
 20
35.76837399999999
 30
0.0
 11
41.80098099999999
 21
35.74567500000001
 31
0.0
  0
LINE
  5
234B
  8
DETAIL
  6
CONTINUOUS
 62
     5
 10
41.16501599999999
 20
35.864198
 30
0.0
 11
41.54050299999999
 21
35.76837399999999
 31
0.0
  0
LINE
  5
234C
  8
DETAIL
  6
CONTINUOUS
 62
     5
 10
40.81632999999999
 20
36.030509
 30
0.0
 11
41.16501599999999
 21
35.864198
 31
0.0
  0
LINE
  5
234D
  8
DETAIL
  6
CONTINUOUS
 62
     5
 10
40.50781399999998
 20
36.260828
 30
0.0
 11
40.81632999999999
 21
36.030509
 31
0.0
  0
LINE
  5
234E
  8
DETAIL
  6
CONTINUOUS
 62
     5
 10
40.54563399999999
 20
35.438643
 30
0.0
 11
40.55292799999999
 21
35.814656
 31
0.0
  0
LINE
  5
234F
  8
DETAIL
  6
CONTINUOUS
 62
     5
 10
41.80113099999998
 20
35.766594
 30
0.0
 11
41.80098099999999
 21
35.745664
 31
0.0
  0
ARC
  5
2350
  8
DETAIL
  6
CONTINUOUS
 62
     5
 10
30.13982799999999
 20
28.037688
 30
0.0
 40
19.551
 50
59.91645500000001
 51
90.0
  0
LINE
  5
2351
  8
DETAIL
  6
CONTINUOUS
 62
     5
 10
32.74828899999999
 20
36.954955
 30
0.0
 11
32.01150499999999
 21
36.860187
 31
0.0
  0
LINE
  5
2352
  8
DETAIL
  6
CONTINUOUS
 62
     5
 10
32.01018899999998
 20
39.026731
 30
0.0
 11
32.74758099999998
 21
39.119681
 31
0.0
  0
LINE
  5
2353
  8
DETAIL
  6
CONTINUOUS
 62
     5
 10
31.31340199999998
 20
36.701494
 30
0.0
 11
30.67246799999998
 21
36.481916
 31
0.0
  0
LINE
  5
2354
  8
DETAIL
  6
CONTINUOUS
 62
     5
 10
32.01150499999999
 20
36.860187
 30
0.0
 11
31.31340199999998
 21
36.701494
 31
0.0
  0
LINE
  5
2355
  8
DETAIL
  6
CONTINUOUS
 62
     5
 10
31.31162599999999
 20
38.871083
 30
0.0
 11
32.01018899999998
 21
39.026731
 31
0.0
  0
LINE
  5
2356
  8
DETAIL
  6
CONTINUOUS
 62
     5
 10
30.67036199999998
 20
38.65579200000001
 30
0.0
 11
31.31162599999999
 21
38.871083
 31
0.0
  0
LINE
  5
2357
  8
DETAIL
  6
CONTINUOUS
 62
     5
 10
30.09003399999999
 20
38.37865499999999
 30
0.0
 11
30.67036199999998
 21
38.65579200000001
 31
0.0
  0
LINE
  5
2358
  8
DETAIL
  6
CONTINUOUS
 62
     5
 10
29.59182499999999
 20
38.04446299999999
 30
0.0
 11
30.09003399999999
 21
38.37865499999999
 31
0.0
  0
LINE
  5
2359
  8
DETAIL
  6
CONTINUOUS
 62
     5
 10
29.19287499999999
 20
37.662229
 30
0.0
 11
29.59182499999999
 21
38.04446299999999
 31
0.0
  0
LINE
  5
235A
  8
DETAIL
  6
CONTINUOUS
 62
     5
 10
28.89649999999999
 20
37.231641
 30
0.0
 11
29.19287499999999
 21
37.662229
 31
0.0
  0
LINE
  5
235B
  8
DETAIL
  6
CONTINUOUS
 62
     5
 10
28.71321299999998
 20
36.75918
 30
0.0
 11
28.89649999999999
 21
37.231641
 31
0.0
  0
LINE
  5
235C
  8
DETAIL
  6
CONTINUOUS
 62
     5
 10
42.80070299999998
 20
38.79458200000001
 30
0.0
 11
42.82176899999999
 21
38.659448
 31
0.0
  0
LINE
  5
235D
  8
DETAIL
  6
CONTINUOUS
 62
     5
 10
42.73294599999998
 20
38.933024
 30
0.0
 11
42.80070299999998
 21
38.79458200000001
 31
0.0
  0
LINE
  5
235E
  8
DETAIL
  6
CONTINUOUS
 62
     5
 10
42.61388199999999
 20
39.069248
 30
0.0
 11
42.73294599999998
 21
38.933024
 31
0.0
  0
LINE
  5
235F
  8
DETAIL
  6
CONTINUOUS
 62
     5
 10
42.44490499999999
 20
39.19588899999999
 30
0.0
 11
42.61388199999999
 21
39.069248
 31
0.0
  0
LINE
  5
2360
  8
DETAIL
  6
CONTINUOUS
 62
     5
 10
42.33725899999999
 20
39.252263
 30
0.0
 11
42.44490499999999
 21
39.19588899999999
 31
0.0
  0
LINE
  5
2361
  8
DETAIL
  6
CONTINUOUS
 62
     5
 10
42.22375099999999
 20
40.580482
 30
0.0
 11
42.29741699999998
 21
40.474743
 31
0.0
  0
LINE
  5
2362
  8
DETAIL
  6
CONTINUOUS
 62
     5
 10
42.11898699999999
 20
40.663329
 30
0.0
 11
42.22375099999999
 21
40.580482
 31
0.0
  0
LINE
  5
2363
  8
DETAIL
  6
CONTINUOUS
 62
     5
 10
41.99180599999998
 20
40.71642
 30
0.0
 11
42.11898699999999
 21
40.663329
 31
0.0
  0
LINE
  5
2364
  8
DETAIL
  6
CONTINUOUS
 62
     5
 10
41.94361699999999
 20
40.722981
 30
0.0
 11
41.99180599999998
 21
40.71642
 31
0.0
  0
LINE
  5
2365
  8
DETAIL
  6
CONTINUOUS
 62
     5
 10
41.60263699999999
 20
41.189679
 30
0.0
 11
41.89750699999999
 21
40.80973
 31
0.0
  0
LINE
  5
2366
  8
DETAIL
  6
CONTINUOUS
 62
     5
 10
41.24360399999999
 20
41.518491
 30
0.0
 11
41.60263699999999
 21
41.189679
 31
0.0
  0
LINE
  5
2367
  8
DETAIL
  6
CONTINUOUS
 62
     5
 10
40.83666999999998
 20
41.78241300000001
 30
0.0
 11
41.24360399999999
 21
41.518491
 31
0.0
  0
LINE
  5
2368
  8
DETAIL
  6
CONTINUOUS
 62
     5
 10
40.39045799999998
 20
41.97774099999999
 30
0.0
 11
40.83666999999998
 21
41.78241300000001
 31
0.0
  0
LINE
  5
2369
  8
DETAIL
  6
CONTINUOUS
 62
     5
 10
39.91441999999999
 20
42.09999999999999
 30
0.0
 11
40.39045799999998
 21
41.97774099999999
 31
0.0
  0
LINE
  5
236A
  8
DETAIL
  6
CONTINUOUS
 62
     5
 10
39.43020099999998
 20
42.144598
 30
0.0
 11
39.91441999999999
 21
42.09999999999999
 31
0.0
  0
LINE
  5
236B
  8
DETAIL
  6
CONTINUOUS
 62
     5
 10
39.88701899999998
 20
44.98577299999999
 30
0.0
 11
42.33725899999999
 21
44.970501
 31
0.0
  0
LINE
  5
236C
  8
DETAIL
  6
CONTINUOUS
 62
     5
 10
41.00931799999999
 20
44.33562999999999
 30
0.0
 11
41.85274899999999
 21
44.330353
 31
0.0
  0
LINE
  5
236D
  8
DETAIL
  6
CONTINUOUS
 62
     5
 10
42.67175299999998
 20
38.681423
 30
0.0
 11
42.82176899999999
 21
38.659448
 31
0.0
  0
LINE
  5
236E
  8
DETAIL
  6
CONTINUOUS
 62
     5
 10
42.53667299999999
 20
38.742914
 30
0.0
 11
42.67175299999998
 21
38.681423
 31
0.0
  0
LINE
  5
236F
  8
DETAIL
  6
CONTINUOUS
 62
     5
 10
42.42960599999999
 20
38.83796700000001
 30
0.0
 11
42.53667299999999
 21
38.742914
 31
0.0
  0
LINE
  5
2370
  8
DETAIL
  6
CONTINUOUS
 62
     5
 10
42.35393799999999
 20
37.297771
 30
0.0
 11
42.33725899999999
 21
37.419596
 31
0.0
  0
LINE
  5
2371
  8
DETAIL
  6
CONTINUOUS
 62
     5
 10
42.40325399999999
 20
37.183711
 30
0.0
 11
42.35393799999999
 21
37.297771
 31
0.0
  0
LINE
  5
2372
  8
DETAIL
  6
CONTINUOUS
 62
     5
 10
42.48020999999999
 20
37.087631
 30
0.0
 11
42.40325399999999
 21
37.183711
 31
0.0
  0
LINE
  5
2373
  8
DETAIL
  6
CONTINUOUS
 62
     5
 10
42.58004299999999
 20
37.01398399999999
 30
0.0
 11
42.48020999999999
 21
37.087631
 31
0.0
  0
LINE
  5
2374
  8
DETAIL
  6
CONTINUOUS
 62
     5
 10
42.69761099999998
 20
36.967116
 30
0.0
 11
42.58004299999999
 21
37.01398399999999
 31
0.0
  0
LINE
  5
2375
  8
DETAIL
  6
CONTINUOUS
 62
     5
 10
42.82176899999999
 20
36.95119
 30
0.0
 11
42.69761099999998
 21
36.967116
 31
0.0
  0
LINE
  5
2376
  8
DETAIL
  6
CONTINUOUS
 62
     5
 10
40.81084899999999
 20
36.945086
 30
0.0
 11
40.94201399999999
 21
36.93925
 31
0.0
  0
LINE
  5
2377
  8
DETAIL
  6
CONTINUOUS
 62
     5
 10
40.68430699999999
 20
36.958816
 30
0.0
 11
40.81084899999999
 21
36.945086
 31
0.0
  0
LINE
  5
2378
  8
DETAIL
  6
CONTINUOUS
 62
     5
 10
33.49665599999999
 20
39.14851899999999
 30
0.0
 11
42.33725899999999
 21
39.11635699999999
 31
0.0
  0
LINE
  5
2379
  8
DETAIL
  6
CONTINUOUS
 62
     5
 10
42.82176899999999
 20
36.95119
 30
0.0
 11
33.49665599999999
 21
36.98442299999999
 31
0.0
  0
LINE
  5
237A
  8
DETAIL
  6
CONTINUOUS
 62
     5
 10
33.49665599999999
 20
36.98442299999999
 30
0.0
 11
32.74828899999999
 21
36.954955
 31
0.0
  0
LINE
  5
237B
  8
DETAIL
  6
CONTINUOUS
 62
     5
 10
41.89750699999999
 20
40.80973
 30
0.0
 11
42.12120799999998
 21
40.388867
 31
0.0
  0
LINE
  5
237C
  8
DETAIL
  6
CONTINUOUS
 62
     5
 10
41.63266899999999
 20
36.408767
 30
0.0
 11
41.81340099999998
 21
36.38866
 31
0.0
  0
LINE
  5
237D
  8
DETAIL
  6
CONTINUOUS
 62
     5
 10
41.45816699999999
 20
36.46087900000001
 30
0.0
 11
41.63266899999999
 21
36.408767
 31
0.0
  0
LINE
  5
237E
  8
DETAIL
  6
CONTINUOUS
 62
     5
 10
41.29643199999998
 20
36.543285
 30
0.0
 11
41.45816699999999
 21
36.46087900000001
 31
0.0
  0
LINE
  5
237F
  8
DETAIL
  6
CONTINUOUS
 62
     5
 10
41.15326799999998
 20
36.653138
 30
0.0
 11
41.29643199999998
 21
36.543285
 31
0.0
  0
LINE
  5
2380
  8
DETAIL
  6
CONTINUOUS
 62
     5
 10
41.03371699999998
 20
36.786659
 30
0.0
 11
41.15326799999998
 21
36.653138
 31
0.0
  0
LINE
  5
2381
  8
DETAIL
  6
CONTINUOUS
 62
     5
 10
40.94202799999999
 20
36.93925
 30
0.0
 11
41.03371699999998
 21
36.786659
 31
0.0
  0
LINE
  5
2382
  8
DETAIL
  6
CONTINUOUS
 62
     5
 10
39.92137299999999
 20
41.52757099999999
 30
0.0
 11
39.43020099999998
 21
41.56915100000001
 31
0.0
  0
LINE
  5
2383
  8
DETAIL
  6
CONTINUOUS
 62
     5
 10
40.40363199999999
 20
41.405753
 30
0.0
 11
39.92137299999999
 21
41.52757099999999
 31
0.0
  0
LINE
  5
2384
  8
DETAIL
  6
CONTINUOUS
 62
     5
 10
40.85500999999999
 20
41.208263
 30
0.0
 11
40.40363199999999
 21
41.405753
 31
0.0
  0
LINE
  5
2385
  8
DETAIL
  6
CONTINUOUS
 62
     5
 10
41.26565099999999
 20
40.93964
 30
0.0
 11
40.85500999999999
 21
41.208263
 31
0.0
  0
LINE
  5
2386
  8
DETAIL
  6
CONTINUOUS
 62
     5
 10
41.62652399999999
 20
40.603593
 30
0.0
 11
41.26565099999999
 21
40.93964
 31
0.0
  0
LINE
  5
2387
  8
DETAIL
  6
CONTINUOUS
 62
     5
 10
41.92045899999999
 20
40.214783
 30
0.0
 11
41.62652399999999
 21
40.603593
 31
0.0
  0
LINE
  5
2388
  8
DETAIL
  6
CONTINUOUS
 62
     5
 10
42.14063799999998
 20
39.783159
 30
0.0
 11
41.92045899999999
 21
40.214783
 31
0.0
  0
LINE
  5
2389
  8
DETAIL
  6
CONTINUOUS
 62
     5
 10
42.28161699999998
 20
39.31650399999999
 30
0.0
 11
42.14063799999998
 21
39.783159
 31
0.0
  0
LINE
  5
238A
  8
DETAIL
  6
CONTINUOUS
 62
     5
 10
42.29741699999998
 20
40.474743
 30
0.0
 11
42.33389099999999
 21
40.354777
 31
0.0
  0
LINE
  5
238B
  8
DETAIL
  6
CONTINUOUS
 62
     5
 10
42.26858499999999
 20
39.93576400000001
 30
0.0
 11
42.33386499999999
 21
39.46753200000001
 31
0.0
  0
LINE
  5
238C
  8
DETAIL
  6
CONTINUOUS
 62
     5
 10
42.12120799999998
 20
40.388867
 30
0.0
 11
42.26858499999999
 21
39.93576400000001
 31
0.0
  0
LINE
  5
238D
  8
DETAIL
  6
CONTINUOUS
 62
     5
 10
40.05768599999999
 20
36.87519
 30
0.0
 11
40.25160899999999
 21
36.54607799999999
 31
0.0
  0
LINE
  5
238E
  8
DETAIL
  6
CONTINUOUS
 62
     5
 10
40.02809399999998
 20
36.961156
 30
0.0
 11
40.05768599999999
 21
36.87519
 31
0.0
  0
LINE
  5
238F
  8
DETAIL
  6
CONTINUOUS
 62
     5
 10
41.67587699999999
 20
41.113392
 30
0.0
 11
41.65751599999999
 21
41.118966
 31
0.0
  0
LINE
  5
2390
  8
DETAIL
  6
CONTINUOUS
 62
     5
 10
41.91517399999999
 20
40.993894
 30
0.0
 11
41.67587699999999
 21
41.113392
 31
0.0
  0
LINE
  5
2391
  8
DETAIL
  6
CONTINUOUS
 62
     5
 10
42.10950999999999
 20
40.838342
 30
0.0
 11
41.91517399999999
 21
40.993894
 31
0.0
  0
LINE
  5
2392
  8
DETAIL
  6
CONTINUOUS
 62
     5
 10
42.24933099999998
 20
40.649079
 30
0.0
 11
42.10950999999999
 21
40.838342
 31
0.0
  0
LINE
  5
2393
  8
DETAIL
  6
CONTINUOUS
 62
     5
 10
42.32435099999999
 20
40.439093
 30
0.0
 11
42.24933099999998
 21
40.649079
 31
0.0
  0
LINE
  5
2394
  8
DETAIL
  6
CONTINUOUS
 62
     5
 10
42.33481699999999
 20
40.362887
 30
0.0
 11
42.32435099999999
 21
40.439093
 31
0.0
  0
LINE
  5
2395
  8
DETAIL
  6
CONTINUOUS
 62
     5
 10
42.36091799999998
 20
38.95738
 30
0.0
 11
42.42960599999999
 21
38.83796700000001
 31
0.0
  0
LINE
  5
2396
  8
DETAIL
  6
CONTINUOUS
 62
     5
 10
42.33726399999999
 20
39.087581
 30
0.0
 11
42.36091799999998
 21
38.95738
 31
0.0
  0
LINE
  5
2397
  8
DETAIL
  6
CONTINUOUS
 62
     5
 10
42.82176899999999
 20
38.659448
 30
0.0
 11
42.82176899999999
 21
36.95119
 31
0.0
  0
LINE
  5
2398
  8
DETAIL
  6
CONTINUOUS
 62
     5
 10
42.33614299999999
 20
40.328923
 30
0.0
 11
42.33697799999999
 21
40.277147
 31
0.0
  0
LINE
  5
2399
  8
DETAIL
  6
CONTINUOUS
 62
     5
 10
42.33571799999999
 20
40.344639
 30
0.0
 11
42.33614299999999
 21
40.328924
 31
0.0
  0
LINE
  5
239A
  8
DETAIL
  6
CONTINUOUS
 62
     5
 10
42.33481699999999
 20
40.36287
 30
0.0
 11
42.33571799999999
 21
40.344639
 31
0.0
  0
LINE
  5
239B
  8
DETAIL
  6
CONTINUOUS
 62
     5
 10
42.33469499999998
 20
40.364154
 30
0.0
 11
42.33481699999999
 21
40.36287
 31
0.0
  0
LINE
  5
239C
  8
DETAIL
  6
CONTINUOUS
 62
     5
 10
42.33426499999999
 20
40.365936
 30
0.0
 11
42.33469499999998
 21
40.364154
 31
0.0
  0
LINE
  5
239D
  8
DETAIL
  6
CONTINUOUS
 62
     5
 10
42.33397799999999
 20
40.362619
 30
0.0
 11
42.33426499999999
 21
40.365936
 31
0.0
  0
LINE
  5
239E
  8
DETAIL
  6
CONTINUOUS
 62
     5
 10
42.33387599999999
 20
40.354776
 30
0.0
 11
42.33397799999999
 21
40.362619
 31
0.0
  0
LINE
  5
239F
  8
DETAIL
  6
CONTINUOUS
 62
     5
 10
42.33386499999999
 20
39.46753200000001
 30
0.0
 11
42.33389099999999
 21
40.354777
 31
0.0
  0
LINE
  5
23A0
  8
DETAIL
  6
CONTINUOUS
 62
     5
 10
42.33725899999999
 20
40.224999
 30
0.0
 11
42.33725899999999
 21
37.419583
 31
0.0
  0
LINE
  5
23A1
  8
DETAIL
  6
CONTINUOUS
 62
     5
 10
42.33725899999999
 20
44.952299
 30
0.0
 11
42.33725899999999
 21
43.56635900000001
 31
0.0
  0
LINE
  5
23A2
  8
DETAIL
  6
CONTINUOUS
 62
     5
 10
42.33725899999999
 20
45.190472
 30
0.0
 11
42.33725899999999
 21
44.970501
 31
0.0
  0
LINE
  5
23A3
  8
DETAIL
  6
CONTINUOUS
 62
     5
 10
41.85274899999999
 20
44.330353
 30
0.0
 11
41.85274899999999
 21
43.84703399999999
 31
0.0
  0
LINE
  5
23A4
  8
DETAIL
  6
CONTINUOUS
 62
     5
 10
39.43020099999998
 20
42.144598
 30
0.0
 11
39.43020099999998
 21
41.56915100000001
 31
0.0
  0
LINE
  5
23A5
  8
DETAIL
  6
CONTINUOUS
 62
     5
 10
42.33697799999999
 20
40.277147
 30
0.0
 11
42.33725899999999
 21
40.22495600000001
 31
0.0
  0
LINE
  5
23A6
  8
DETAIL
  6
CONTINUOUS
 62
     5
 10
42.33725899999999
 20
44.952299
 30
0.0
 11
42.32251599999999
 21
44.896866
 31
0.0
  0
LINE
  5
23A7
  8
DETAIL
  6
CONTINUOUS
 62
     5
 10
33.49665599999999
 20
39.14851899999999
 30
0.0
 11
33.49665599999999
 21
36.98442299999999
 31
0.0
  0
LINE
  5
23A8
  8
DETAIL
  6
CONTINUOUS
 62
     5
 10
32.74758099999998
 20
39.119681
 30
0.0
 11
33.49665599999999
 21
39.14851899999999
 31
0.0
  0
LINE
  5
23A9
  8
DETAIL
  6
CONTINUOUS
 62
     5
 10
41.93206499999999
 20
44.406666
 30
0.0
 11
41.85274899999999
 21
44.330353
 31
0.0
  0
LINE
  5
23AA
  8
DETAIL
  6
CONTINUOUS
 62
     5
 10
42.01205599999999
 20
44.48844099999999
 30
0.0
 11
41.93206499999999
 21
44.406666
 31
0.0
  0
LINE
  5
23AB
  8
DETAIL
  6
CONTINUOUS
 62
     5
 10
42.09007799999999
 20
44.573538
 30
0.0
 11
42.01205599999999
 21
44.48844099999999
 31
0.0
  0
LINE
  5
23AC
  8
DETAIL
  6
CONTINUOUS
 62
     5
 10
42.16346499999999
 20
44.659728
 30
0.0
 11
42.09007799999999
 21
44.573538
 31
0.0
  0
LINE
  5
23AD
  8
DETAIL
  6
CONTINUOUS
 62
     5
 10
42.22934099999999
 20
44.74462199999999
 30
0.0
 11
42.16346499999999
 21
44.659728
 31
0.0
  0
LINE
  5
23AE
  8
DETAIL
  6
CONTINUOUS
 62
     5
 10
42.28406699999999
 20
44.825166
 30
0.0
 11
42.22934099999999
 21
44.74462199999999
 31
0.0
  0
LINE
  5
23AF
  8
DETAIL
  6
CONTINUOUS
 62
     5
 10
42.32251599999999
 20
44.896866
 30
0.0
 11
42.28406699999999
 21
44.825166
 31
0.0
  0
LINE
  5
23B0
  8
DETAIL
  6
CONTINUOUS
 62
     5
 10
49.15589999999999
 20
36.10390599999999
 30
0.0
 11
49.08284299999998
 21
36.30581100000001
 31
0.0
  0
LINE
  5
23B1
  8
DETAIL
  6
CONTINUOUS
 62
     5
 10
51.13520899999999
 20
38.715548
 30
0.0
 11
51.13520899999999
 21
34.73168099999999
 31
0.0
  0
LINE
  5
23B2
  8
DETAIL
  6
CONTINUOUS
 62
     5
 10
50.16618999999999
 20
39.634102
 30
0.0
 11
50.16618999999999
 21
35.634929
 31
0.0
  0
LINE
  5
23B3
  8
DETAIL
  6
CONTINUOUS
 62
     5
 10
49.18011099999998
 20
33.741159
 30
0.0
 11
49.18010899999999
 21
40.635379
 31
0.0
  0
LINE
  5
23B4
  8
DETAIL
  6
CONTINUOUS
 62
     5
 10
49.74721499999998
 20
33.625152
 30
0.0
 11
49.53879699999999
 21
33.74588799999999
 31
0.0
  0
LINE
  5
23B5
  8
DETAIL
  6
CONTINUOUS
 62
     5
 10
48.20887099999999
 20
34.99702600000001
 30
0.0
 11
48.19402799999999
 21
35.14287299999999
 31
0.0
  0
LINE
  5
23B6
  8
DETAIL
  6
CONTINUOUS
 62
     5
 10
48.25302199999999
 20
34.856123
 30
0.0
 11
48.20887099999999
 21
34.99702600000001
 31
0.0
  0
LINE
  5
23B7
  8
DETAIL
  6
CONTINUOUS
 62
     5
 10
48.32477199999998
 20
34.726032
 30
0.0
 11
48.25302199999999
 21
34.856123
 31
0.0
  0
LINE
  5
23B8
  8
DETAIL
  6
CONTINUOUS
 62
     5
 10
48.42131499999999
 20
34.611777
 30
0.0
 11
48.32477199999998
 21
34.726032
 31
0.0
  0
LINE
  5
23B9
  8
DETAIL
  6
CONTINUOUS
 62
     5
 10
48.53892599999999
 20
34.517678
 30
0.0
 11
48.42131499999999
 21
34.611777
 31
0.0
  0
LINE
  5
23BA
  8
DETAIL
  6
CONTINUOUS
 62
     5
 10
48.67306599999999
 20
34.447293
 30
0.0
 11
48.53892599999999
 21
34.517678
 31
0.0
  0
LINE
  5
23BB
  8
DETAIL
  6
CONTINUOUS
 62
     5
 10
48.81850199999998
 20
34.403255
 30
0.0
 11
48.67306599999999
 21
34.447293
 31
0.0
  0
LINE
  5
23BC
  8
DETAIL
  6
CONTINUOUS
 62
     5
 10
48.96924399999999
 20
34.38713199999999
 30
0.0
 11
48.81850199999998
 21
34.403255
 31
0.0
  0
LINE
  5
23BD
  8
DETAIL
  6
CONTINUOUS
 62
     5
 10
49.18010899999999
 20
34.38435199999999
 30
0.0
 11
48.96924399999999
 21
34.38713199999999
 31
0.0
  0
LINE
  5
23BE
  8
DETAIL
  6
CONTINUOUS
 62
     5
 10
50.16618999999999
 20
34.47490999999999
 30
0.0
 11
49.18010899999999
 21
34.47847299999999
 31
0.0
  0
LINE
  5
23BF
  8
DETAIL
  6
CONTINUOUS
 62
     5
 10
50.16618999999999
 20
35.634929
 30
0.0
 11
49.18010899999999
 21
35.638402
 31
0.0
  0
LINE
  5
23C0
  8
DETAIL
  6
CONTINUOUS
 62
     5
 10
47.94268999999998
 20
35.15488999999999
 30
0.0
 11
48.19402799999999
 21
35.14287299999999
 31
0.0
  0
LINE
  5
23C1
  8
DETAIL
  6
CONTINUOUS
 62
     5
 10
47.70886699999998
 20
35.188631
 30
0.0
 11
47.94268999999998
 21
35.15488999999999
 31
0.0
  0
LINE
  5
23C2
  8
DETAIL
  6
CONTINUOUS
 62
     5
 10
47.50831699999999
 20
35.24182
 30
0.0
 11
47.70886699999998
 21
35.188631
 31
0.0
  0
LINE
  5
23C3
  8
DETAIL
  6
CONTINUOUS
 62
     5
 10
47.35455799999998
 20
35.310874
 30
0.0
 11
47.50831699999999
 21
35.24182
 31
0.0
  0
LINE
  5
23C4
  8
DETAIL
  6
CONTINUOUS
 62
     5
 10
47.25795099999999
 20
35.391138
 30
0.0
 11
47.35455799999998
 21
35.310874
 31
0.0
  0
LINE
  5
23C5
  8
DETAIL
  6
CONTINUOUS
 62
     5
 10
47.22500899999999
 20
35.477154
 30
0.0
 11
47.25795099999999
 21
35.391138
 31
0.0
  0
LINE
  5
23C6
  8
DETAIL
  6
CONTINUOUS
 62
     5
 10
48.96488799999999
 20
33.743996
 30
0.0
 11
49.18010899999999
 21
33.741159
 31
0.0
  0
LINE
  5
23C7
  8
DETAIL
  6
CONTINUOUS
 62
     5
 10
50.16618999999999
 20
34.39735
 30
0.0
 11
49.18010899999999
 21
34.38435199999999
 31
0.0
  0
LINE
  5
23C8
  8
DETAIL
  6
CONTINUOUS
 62
     5
 10
49.18010899999999
 20
33.741159
 30
0.0
 11
50.17054399999999
 21
33.754216
 31
0.0
  0
LINE
  5
23C9
  8
DETAIL
  6
CONTINUOUS
 62
     5
 10
48.05286899999999
 20
36.125587
 30
0.0
 11
48.19402799999999
 21
36.25180899999999
 31
0.0
  0
LINE
  5
23CA
  8
DETAIL
  6
CONTINUOUS
 62
     5
 10
47.91023799999999
 20
36.005261
 30
0.0
 11
48.05286899999999
 21
36.125587
 31
0.0
  0
LINE
  5
23CB
  8
DETAIL
  6
CONTINUOUS
 62
     5
 10
47.76984099999999
 20
35.894693
 30
0.0
 11
47.91023799999999
 21
36.005261
 31
0.0
  0
LINE
  5
23CC
  8
DETAIL
  6
CONTINUOUS
 62
     5
 10
47.63544699999998
 20
35.79769399999999
 30
0.0
 11
47.76984099999999
 21
35.894693
 31
0.0
  0
LINE
  5
23CD
  8
DETAIL
  6
CONTINUOUS
 62
     5
 10
47.51090699999999
 20
35.71815599999999
 30
0.0
 11
47.63544699999998
 21
35.79769399999999
 31
0.0
  0
LINE
  5
23CE
  8
DETAIL
  6
CONTINUOUS
 62
     5
 10
47.40068999999998
 20
35.660589
 30
0.0
 11
47.51090699999999
 21
35.71815599999999
 31
0.0
  0
LINE
  5
23CF
  8
DETAIL
  6
CONTINUOUS
 62
     5
 10
47.31055099999999
 20
35.63070999999999
 30
0.0
 11
47.40068999999998
 21
35.660589
 31
0.0
  0
LINE
  5
23D0
  8
DETAIL
  6
CONTINUOUS
 62
     5
 10
47.28110899999999
 20
35.628174
 30
0.0
 11
47.31055099999999
 21
35.63070999999999
 31
0.0
  0
LINE
  5
23D1
  8
DETAIL
  6
CONTINUOUS
 62
     5
 10
49.18010899999999
 20
35.895122
 30
0.0
 11
49.15589999999999
 21
36.10390599999999
 31
0.0
  0
LINE
  5
23D2
  8
DETAIL
  6
CONTINUOUS
 62
     5
 10
50.38230699999998
 20
35.61286
 30
0.0
 11
50.16618999999999
 21
35.634928
 31
0.0
  0
LINE
  5
23D3
  8
DETAIL
  6
CONTINUOUS
 62
     5
 10
50.58728399999998
 20
35.55094
 30
0.0
 11
50.38230699999998
 21
35.61286
 31
0.0
  0
LINE
  5
23D4
  8
DETAIL
  6
CONTINUOUS
 62
     5
 10
50.77095499999999
 20
35.45223799999999
 30
0.0
 11
50.58728399999998
 21
35.55094
 31
0.0
  0
LINE
  5
23D5
  8
DETAIL
  6
CONTINUOUS
 62
     5
 10
50.92421199999998
 20
35.32164899999999
 30
0.0
 11
50.77095499999999
 21
35.45223799999999
 31
0.0
  0
LINE
  5
23D6
  8
DETAIL
  6
CONTINUOUS
 62
     5
 10
51.03945599999999
 20
35.16565
 30
0.0
 11
50.92421199999998
 21
35.32164899999999
 31
0.0
  0
LINE
  5
23D7
  8
DETAIL
  6
CONTINUOUS
 62
     5
 10
51.11096999999998
 20
34.99197599999999
 30
0.0
 11
51.03945599999999
 21
35.16565
 31
0.0
  0
LINE
  5
23D8
  8
DETAIL
  6
CONTINUOUS
 62
     5
 10
51.13520899999999
 20
34.80924
 30
0.0
 11
51.11096999999998
 21
34.99197599999999
 31
0.0
  0
LINE
  5
23D9
  8
DETAIL
  6
CONTINUOUS
 62
     5
 10
50.16618999999999
 20
34.47491100000001
 30
0.0
 11
50.16832599999999
 21
34.91035599999999
 31
0.0
  0
LINE
  5
23DA
  8
DETAIL
  6
CONTINUOUS
 62
     5
 10
50.16832599999999
 20
34.91035599999999
 30
0.0
 11
50.16839599999999
 21
35.32531299999999
 31
0.0
  0
LINE
  5
23DB
  8
DETAIL
  6
CONTINUOUS
 62
     5
 10
50.16618999999999
 20
34.47490999999999
 30
0.0
 11
50.16618999999999
 21
34.39735
 31
0.0
  0
LINE
  5
23DC
  8
DETAIL
  6
CONTINUOUS
 62
     5
 10
50.16839599999999
 20
35.32531299999999
 30
0.0
 11
50.16618999999999
 21
35.634928
 31
0.0
  0
LINE
  5
23DD
  8
DETAIL
  6
CONTINUOUS
 62
     5
 10
48.96427199999999
 20
33.763595
 30
0.0
 11
48.96427199999999
 21
33.843805
 31
0.0
  0
LINE
  5
23DE
  8
DETAIL
  6
CONTINUOUS
 62
     5
 10
48.96488799999999
 20
33.744012
 30
0.0
 11
48.96427199999999
 21
33.763595
 31
0.0
  0
LINE
  5
23DF
  8
DETAIL
  6
CONTINUOUS
 62
     5
 10
50.39165499999999
 20
33.78255
 30
0.0
 11
50.17073599999999
 21
33.75421799999999
 31
0.0
  0
LINE
  5
23E0
  8
DETAIL
  6
CONTINUOUS
 62
     5
 10
50.60205399999998
 20
33.86098199999999
 30
0.0
 11
50.39165499999999
 21
33.78255
 31
0.0
  0
LINE
  5
23E1
  8
DETAIL
  6
CONTINUOUS
 62
     5
 10
50.78515899999999
 20
33.982116
 30
0.0
 11
50.60205399999998
 21
33.86098199999999
 31
0.0
  0
LINE
  5
23E2
  8
DETAIL
  6
CONTINUOUS
 62
     5
 10
50.93299599999999
 20
34.136318
 30
0.0
 11
50.78515899999999
 21
33.982116
 31
0.0
  0
LINE
  5
23E3
  8
DETAIL
  6
CONTINUOUS
 62
     5
 10
51.04257399999999
 20
34.31631400000001
 30
0.0
 11
50.93299599999999
 21
34.136318
 31
0.0
  0
LINE
  5
23E4
  8
DETAIL
  6
CONTINUOUS
 62
     5
 10
51.11098499999999
 20
34.51540799999999
 30
0.0
 11
51.04257399999999
 21
34.31631400000001
 31
0.0
  0
LINE
  5
23E5
  8
DETAIL
  6
CONTINUOUS
 62
     5
 10
51.13520899999999
 20
34.73168099999999
 30
0.0
 11
51.11098499999999
 21
34.51540799999999
 31
0.0
  0
LINE
  5
23E6
  8
DETAIL
  6
CONTINUOUS
 62
     5
 10
50.17027699999998
 20
33.992165
 30
0.0
 11
50.16618999999999
 21
34.397352
 31
0.0
  0
LINE
  5
23E7
  8
DETAIL
  6
CONTINUOUS
 62
     5
 10
50.17115699999999
 20
33.854653
 30
0.0
 11
50.17027699999998
 21
33.992165
 31
0.0
  0
LINE
  5
23E8
  8
DETAIL
  6
CONTINUOUS
 62
     5
 10
50.17116099999998
 20
33.774029
 30
0.0
 11
50.17115699999999
 21
33.854653
 31
0.0
  0
LINE
  5
23E9
  8
DETAIL
  6
CONTINUOUS
 62
     5
 10
50.17073599999999
 20
33.75421799999999
 30
0.0
 11
50.17116099999998
 21
33.774029
 31
0.0
  0
LINE
  5
23EA
  8
DETAIL
  6
CONTINUOUS
 62
     5
 10
48.96684099999999
 20
34.166017
 30
0.0
 11
48.96924399999999
 21
34.38713199999999
 31
0.0
  0
LINE
  5
23EB
  8
DETAIL
  6
CONTINUOUS
 62
     5
 10
48.96427199999999
 20
33.843805
 30
0.0
 11
48.96684099999999
 21
34.166017
 31
0.0
  0
LINE
  5
23EC
  8
DETAIL
  6
CONTINUOUS
 62
     5
 10
48.19402799999999
 20
35.14287299999999
 30
0.0
 11
48.19402799999999
 21
36.25180899999999
 31
0.0
  0
LINE
  5
23ED
  8
DETAIL
  6
CONTINUOUS
 62
     5
 10
47.22500899999999
 20
35.628135
 30
0.0
 11
47.22500899999999
 21
35.47720200000001
 31
0.0
  0
LINE
  5
23EE
  8
DETAIL
  6
CONTINUOUS
 62
     5
 10
48.77084999999998
 20
33.757124
 30
0.0
 11
48.96488799999999
 21
33.744012
 31
0.0
  0
LINE
  5
23EF
  8
DETAIL
  6
CONTINUOUS
 62
     5
 10
48.44387599999999
 20
33.8287
 30
0.0
 11
48.77084999999998
 21
33.757124
 31
0.0
  0
LINE
  5
23F0
  8
DETAIL
  6
CONTINUOUS
 62
     5
 10
48.13635899999998
 20
33.95990500000001
 30
0.0
 11
48.44387599999999
 21
33.8287
 31
0.0
  0
LINE
  5
23F1
  8
DETAIL
  6
CONTINUOUS
 62
     5
 10
47.85937999999999
 20
34.146113
 30
0.0
 11
48.13635899999998
 21
33.95990500000001
 31
0.0
  0
LINE
  5
23F2
  8
DETAIL
  6
CONTINUOUS
 62
     5
 10
47.62313699999999
 20
34.38063099999999
 30
0.0
 11
47.85937999999999
 21
34.146113
 31
0.0
  0
LINE
  5
23F3
  8
DETAIL
  6
CONTINUOUS
 62
     5
 10
47.43638999999999
 20
34.654814
 30
0.0
 11
47.62313699999999
 21
34.38063099999999
 31
0.0
  0
LINE
  5
23F4
  8
DETAIL
  6
CONTINUOUS
 62
     5
 10
47.30594699999999
 20
34.958476
 30
0.0
 11
47.43638999999999
 21
34.654814
 31
0.0
  0
LINE
  5
23F5
  8
DETAIL
  6
CONTINUOUS
 62
     5
 10
47.23646399999998
 20
35.28018899999999
 30
0.0
 11
47.30594699999999
 21
34.958476
 31
0.0
  0
LINE
  5
23F6
  8
DETAIL
  6
CONTINUOUS
 62
     5
 10
47.22502099999998
 20
35.477154
 30
0.0
 11
47.23646399999998
 21
35.28018899999999
 31
0.0
  0
LINE
  5
23F7
  8
DETAIL
  6
CONTINUOUS
 62
     5
 10
51.13520899999999
 20
34.73168099999999
 30
0.0
 11
51.11096999999998
 21
34.657689
 31
0.0
  0
LINE
  5
23F8
  8
DETAIL
  6
CONTINUOUS
 62
     5
 10
51.13520899999999
 20
34.80924
 30
0.0
 11
51.11116499999999
 21
34.73554299999999
 31
0.0
  0
LINE
  5
23F9
  8
DETAIL
  6
CONTINUOUS
 62
     5
 10
50.38230699999998
 20
34.40628700000001
 30
0.0
 11
50.16618999999999
 21
34.397352
 31
0.0
  0
LINE
  5
23FA
  8
DETAIL
  6
CONTINUOUS
 62
     5
 10
50.58728399999998
 20
34.43136
 30
0.0
 11
50.38230699999998
 21
34.40628700000001
 31
0.0
  0
LINE
  5
23FB
  8
DETAIL
  6
CONTINUOUS
 62
     5
 10
50.77095499999999
 20
34.47132499999999
 30
0.0
 11
50.58728399999998
 21
34.43136
 31
0.0
  0
LINE
  5
23FC
  8
DETAIL
  6
CONTINUOUS
 62
     5
 10
50.92421199999998
 20
34.52420100000001
 30
0.0
 11
50.77095499999999
 21
34.47132499999999
 31
0.0
  0
LINE
  5
23FD
  8
DETAIL
  6
CONTINUOUS
 62
     5
 10
51.03945599999999
 20
34.587367
 30
0.0
 11
50.92421199999998
 21
34.52420100000001
 31
0.0
  0
LINE
  5
23FE
  8
DETAIL
  6
CONTINUOUS
 62
     5
 10
51.11096999999998
 20
34.657689
 30
0.0
 11
51.03945599999999
 21
34.587367
 31
0.0
  0
LINE
  5
23FF
  8
DETAIL
  6
CONTINUOUS
 62
     5
 10
51.11116499999999
 20
34.73554299999999
 30
0.0
 11
51.03979799999999
 21
34.66517
 31
0.0
  0
LINE
  5
2400
  8
DETAIL
  6
CONTINUOUS
 62
     5
 10
50.38248299999999
 20
34.48385999999999
 30
0.0
 11
50.16618999999999
 21
34.47491100000001
 31
0.0
  0
LINE
  5
2401
  8
DETAIL
  6
CONTINUOUS
 62
     5
 10
50.58760799999999
 20
34.508972
 30
0.0
 11
50.38248299999999
 21
34.48385999999999
 31
0.0
  0
LINE
  5
2402
  8
DETAIL
  6
CONTINUOUS
 62
     5
 10
50.77136999999999
 20
34.548998
 30
0.0
 11
50.58760799999999
 21
34.508972
 31
0.0
  0
LINE
  5
2403
  8
DETAIL
  6
CONTINUOUS
 62
     5
 10
50.92464999999999
 20
34.601949
 30
0.0
 11
50.77136999999999
 21
34.548998
 31
0.0
  0
LINE
  5
2404
  8
DETAIL
  6
CONTINUOUS
 62
     5
 10
51.03979799999999
 20
34.66517
 30
0.0
 11
50.92464999999999
 21
34.601949
 31
0.0
  0
LINE
  5
2405
  8
DETAIL
  6
CONTINUOUS
 62
     5
 10
52.19725899999999
 20
37.854499
 30
0.0
 11
51.13520899999999
 21
38.469741
 31
0.0
  0
LINE
  5
2406
  8
DETAIL
  6
CONTINUOUS
 62
     5
 10
50.34699199999999
 20
45.72729
 30
0.0
 11
47.98730399999998
 21
48.10791500000001
 31
0.0
  0
LINE
  5
2407
  8
DETAIL
  6
CONTINUOUS
 62
     5
 10
50.34699199999999
 20
45.62027399999999
 30
0.0
 11
47.98730399999998
 21
48.000838
 31
0.0
  0
LINE
  5
2408
  8
DETAIL
  6
CONTINUOUS
 62
     5
 10
48.93943399999999
 20
42.584519
 30
0.0
 11
46.71542199999999
 21
42.859864
 31
0.0
  0
LINE
  5
2409
  8
DETAIL
  6
CONTINUOUS
 62
     5
 10
49.15641699999999
 20
40.836422
 30
0.0
 11
49.18010899999999
 21
40.635423
 31
0.0
  0
LINE
  5
240A
  8
DETAIL
  6
CONTINUOUS
 62
     5
 10
49.08443999999999
 20
41.031592
 30
0.0
 11
49.15641699999999
 21
40.836422
 31
0.0
  0
LINE
  5
240B
  8
DETAIL
  6
CONTINUOUS
 62
     5
 10
48.96826399999999
 20
41.20602700000001
 30
0.0
 11
49.08443999999999
 21
41.031592
 31
0.0
  0
LINE
  5
240C
  8
DETAIL
  6
CONTINUOUS
 62
     5
 10
48.81706199999999
 20
41.348996
 30
0.0
 11
48.96826399999999
 21
41.20602700000001
 31
0.0
  0
LINE
  5
240D
  8
DETAIL
  6
CONTINUOUS
 62
     5
 10
48.63203499999999
 20
41.459293
 30
0.0
 11
48.81706199999999
 21
41.348996
 31
0.0
  0
LINE
  5
240E
  8
DETAIL
  6
CONTINUOUS
 62
     5
 10
48.42470399999999
 20
41.528097
 30
0.0
 11
48.63203499999999
 21
41.459293
 31
0.0
  0
LINE
  5
240F
  8
DETAIL
  6
CONTINUOUS
 62
     5
 10
48.21108999999998
 20
41.551503
 30
0.0
 11
48.42470399999999
 21
41.528097
 31
0.0
  0
LINE
  5
2410
  8
DETAIL
  6
CONTINUOUS
 62
     5
 10
48.19402799999999
 20
41.55159500000001
 30
0.0
 11
48.21108999999998
 21
41.551503
 31
0.0
  0
LINE
  5
2411
  8
DETAIL
  6
CONTINUOUS
 62
     5
 10
49.84117099999999
 20
47.073835
 30
0.0
 11
49.01252299999999
 21
47.073835
 31
0.0
  0
LINE
  5
2412
  8
DETAIL
  6
CONTINUOUS
 62
     5
 10
50.38251399999999
 20
39.609509
 30
0.0
 11
50.16618999999999
 21
39.634103
 31
0.0
  0
LINE
  5
2413
  8
DETAIL
  6
CONTINUOUS
 62
     5
 10
50.58767299999998
 20
39.540496
 30
0.0
 11
50.38251399999999
 21
39.609509
 31
0.0
  0
LINE
  5
2414
  8
DETAIL
  6
CONTINUOUS
 62
     5
 10
50.77145499999999
 20
39.43049999999999
 30
0.0
 11
50.58767299999998
 21
39.540496
 31
0.0
  0
LINE
  5
2415
  8
DETAIL
  6
CONTINUOUS
 62
     5
 10
50.92473999999999
 20
39.284987
 30
0.0
 11
50.77145499999999
 21
39.43049999999999
 31
0.0
  0
LINE
  5
2416
  8
DETAIL
  6
CONTINUOUS
 62
     5
 10
51.03987799999999
 20
39.111251
 30
0.0
 11
50.92473999999999
 21
39.284987
 31
0.0
  0
LINE
  5
2417
  8
DETAIL
  6
CONTINUOUS
 62
     5
 10
51.11121499999999
 20
38.917869
 30
0.0
 11
51.03987799999999
 21
39.111251
 31
0.0
  0
LINE
  5
2418
  8
DETAIL
  6
CONTINUOUS
 62
     5
 10
49.18010899999999
 20
39.645203
 30
0.0
 11
50.16618999999999
 21
39.634102
 31
0.0
  0
LINE
  5
2419
  8
DETAIL
  6
CONTINUOUS
 62
     5
 10
50.16859199999999
 20
39.6931
 30
0.0
 11
49.18010899999999
 21
39.704157
 31
0.0
  0
LINE
  5
241A
  8
DETAIL
  6
CONTINUOUS
 62
     5
 10
47.24890299999998
 20
41.308099
 30
0.0
 11
47.22500899999999
 21
41.23527900000001
 31
0.0
  0
LINE
  5
241B
  8
DETAIL
  6
CONTINUOUS
 62
     5
 10
47.32095699999999
 20
41.377111
 30
0.0
 11
47.24890299999998
 21
41.308099
 31
0.0
  0
LINE
  5
241C
  8
DETAIL
  6
CONTINUOUS
 62
     5
 10
47.43692799999998
 20
41.43756999999999
 30
0.0
 11
47.32095699999999
 21
41.377111
 31
0.0
  0
LINE
  5
241D
  8
DETAIL
  6
CONTINUOUS
 62
     5
 10
47.58767699999999
 20
41.486171
 30
0.0
 11
47.43692799999998
 21
41.43756999999999
 31
0.0
  0
LINE
  5
241E
  8
DETAIL
  6
CONTINUOUS
 62
     5
 10
47.77231499999999
 20
41.522909
 30
0.0
 11
47.58767699999999
 21
41.486171
 31
0.0
  0
LINE
  5
241F
  8
DETAIL
  6
CONTINUOUS
 62
     5
 10
47.97946199999998
 20
41.545072
 30
0.0
 11
47.77231499999999
 21
41.522909
 31
0.0
  0
LINE
  5
2420
  8
DETAIL
  6
CONTINUOUS
 62
     5
 10
48.19402799999999
 20
41.55159500000001
 30
0.0
 11
47.97946199999998
 21
41.545072
 31
0.0
  0
LINE
  5
2421
  8
DETAIL
  6
CONTINUOUS
 62
     5
 10
48.42236699999999
 20
36.817684
 30
0.0
 11
48.21108999999998
 21
36.84281
 31
0.0
  0
LINE
  5
2422
  8
DETAIL
  6
CONTINUOUS
 62
     5
 10
48.62865199999999
 20
36.746572
 30
0.0
 11
48.42236699999999
 21
36.817684
 31
0.0
  0
LINE
  5
2423
  8
DETAIL
  6
CONTINUOUS
 62
     5
 10
48.81382999999998
 20
36.632908
 30
0.0
 11
48.62865199999999
 21
36.746572
 31
0.0
  0
LINE
  5
2424
  8
DETAIL
  6
CONTINUOUS
 62
     5
 10
48.96570399999999
 20
36.485629
 30
0.0
 11
48.81382999999998
 21
36.632908
 31
0.0
  0
LINE
  5
2425
  8
DETAIL
  6
CONTINUOUS
 62
     5
 10
49.08284299999998
 20
36.30581100000001
 30
0.0
 11
48.96570399999999
 21
36.485629
 31
0.0
  0
LINE
  5
2426
  8
DETAIL
  6
CONTINUOUS
 62
     5
 10
50.33606099999999
 20
39.676744
 30
0.0
 11
50.16851999999999
 21
39.693101
 31
0.0
  0
LINE
  5
2427
  8
DETAIL
  6
CONTINUOUS
 62
     5
 10
50.56003499999998
 20
39.60650800000001
 30
0.0
 11
50.33606099999999
 21
39.676744
 31
0.0
  0
LINE
  5
2428
  8
DETAIL
  6
CONTINUOUS
 62
     5
 10
50.75465299999999
 20
39.48969200000001
 30
0.0
 11
50.56003499999998
 21
39.60650800000001
 31
0.0
  0
LINE
  5
2429
  8
DETAIL
  6
CONTINUOUS
 62
     5
 10
50.91441499999999
 20
39.334419
 30
0.0
 11
50.75465299999999
 21
39.48969200000001
 31
0.0
  0
LINE
  5
242A
  8
DETAIL
  6
CONTINUOUS
 62
     5
 10
51.03381999999999
 20
39.14913799999999
 30
0.0
 11
50.91441499999999
 21
39.334419
 31
0.0
  0
LINE
  5
242B
  8
DETAIL
  6
CONTINUOUS
 62
     5
 10
51.10908899999998
 20
38.940078
 30
0.0
 11
51.03381999999999
 21
39.14913799999999
 31
0.0
  0
LINE
  5
242C
  8
DETAIL
  6
CONTINUOUS
 62
     5
 10
51.13520899999999
 20
38.715611
 30
0.0
 11
51.10908899999998
 21
38.940078
 31
0.0
  0
LINE
  5
242D
  8
DETAIL
  6
CONTINUOUS
 62
     5
 10
52.59300299999998
 20
37.63334500000001
 30
0.0
 11
52.59300299999998
 21
42.81859900000001
 31
0.0
  0
LINE
  5
242E
  8
DETAIL
  6
CONTINUOUS
 62
     5
 10
51.62398399999999
 20
38.18659599999999
 30
0.0
 11
51.62398399999999
 21
42.825402
 31
0.0
  0
LINE
  5
242F
  8
DETAIL
  6
CONTINUOUS
 62
     5
 10
50.34699199999999
 20
45.62027399999999
 30
0.0
 11
50.34699199999999
 21
45.72729
 31
0.0
  0
LINE
  5
2430
  8
DETAIL
  6
CONTINUOUS
 62
     5
 10
50.16788599999998
 20
39.68554399999999
 30
0.0
 11
50.16618999999999
 21
39.634103
 31
0.0
  0
LINE
  5
2431
  8
DETAIL
  6
CONTINUOUS
 62
     5
 10
50.16851899999999
 20
39.693101
 30
0.0
 11
50.16788599999998
 21
39.68554399999999
 31
0.0
  0
LINE
  5
2432
  8
DETAIL
  6
CONTINUOUS
 62
     5
 10
49.79263299999998
 20
46.286737
 30
0.0
 11
49.84117099999999
 21
47.073835
 31
0.0
  0
LINE
  5
2433
  8
DETAIL
  6
CONTINUOUS
 62
     5
 10
49.52342199999998
 20
41.92121
 30
0.0
 11
49.58006599999999
 21
42.839752
 31
0.0
  0
LINE
  5
2434
  8
DETAIL
  6
CONTINUOUS
 62
     5
 10
48.95544399999999
 20
42.844137
 30
0.0
 11
48.93943399999999
 21
42.584519
 31
0.0
  0
LINE
  5
2435
  8
DETAIL
  6
CONTINUOUS
 62
     5
 10
48.21108999999998
 20
36.84281
 30
0.0
 11
48.21108999999998
 21
41.551503
 31
0.0
  0
LINE
  5
2436
  8
DETAIL
  6
CONTINUOUS
 62
     5
 10
47.98730399999998
 20
48.10791500000001
 30
0.0
 11
47.98730399999998
 21
48.000838
 31
0.0
  0
LINE
  5
2437
  8
DETAIL
  6
CONTINUOUS
 62
     5
 10
47.22500899999999
 20
41.23527900000001
 30
0.0
 11
47.22500899999999
 21
39.734047
 31
0.0
  0
LINE
  5
2438
  8
DETAIL
  6
CONTINUOUS
 62
     5
 10
46.47154399999999
 20
39.324765
 30
0.0
 11
46.25598999999998
 21
39.31491699999999
 31
0.0
  0
LINE
  5
2439
  8
DETAIL
  6
CONTINUOUS
 62
     5
 10
46.67950299999998
 20
39.356348
 30
0.0
 11
46.47154399999999
 21
39.324765
 31
0.0
  0
LINE
  5
243A
  8
DETAIL
  6
CONTINUOUS
 62
     5
 10
46.86467699999999
 20
39.407597
 30
0.0
 11
46.67950299999998
 21
39.356348
 31
0.0
  0
LINE
  5
243B
  8
DETAIL
  6
CONTINUOUS
 62
     5
 10
47.01530799999999
 20
39.473878
 30
0.0
 11
46.86467699999999
 21
39.407597
 31
0.0
  0
LINE
  5
243C
  8
DETAIL
  6
CONTINUOUS
 62
     5
 10
47.12931799999998
 20
39.553073
 30
0.0
 11
47.01530799999999
 21
39.473878
 31
0.0
  0
LINE
  5
243D
  8
DETAIL
  6
CONTINUOUS
 62
     5
 10
47.20096699999999
 20
39.641881
 30
0.0
 11
47.12931799999998
 21
39.553073
 31
0.0
  0
LINE
  5
243E
  8
DETAIL
  6
CONTINUOUS
 62
     5
 10
47.22500899999999
 20
39.734047
 30
0.0
 11
47.20096699999999
 21
39.641881
 31
0.0
  0
LINE
  5
243F
  8
DETAIL
  6
CONTINUOUS
 62
     5
 10
20.63564899999999
 20
54.99199
 30
0.0
 11
21.80870899999999
 21
53.42791
 31
0.0
  0
LINE
  5
2440
  8
DETAIL
  6
CONTINUOUS
 62
     5
 10
22.22711499999998
 20
53.847585
 30
0.0
 11
21.10487299999998
 21
55.343908
 31
0.0
  0
LINE
  5
2441
  8
DETAIL
  6
CONTINUOUS
 62
     5
 10
21.10487299999998
 20
55.343908
 30
0.0
 11
20.63564899999999
 21
54.99199
 31
0.0
  0
LINE
  5
2442
  8
DETAIL
  6
CONTINUOUS
 62
     5
 10
20.63564899999999
 20
54.99199
 30
0.0
 11
21.80870899999999
 21
53.42791
 31
0.0
  0
LINE
  5
2443
  8
DETAIL
  6
CONTINUOUS
 62
     5
 10
22.22711499999998
 20
53.847585
 30
0.0
 11
21.10487299999998
 21
55.343908
 31
0.0
  0
LINE
  5
2444
  8
DETAIL
  6
CONTINUOUS
 62
     5
 10
21.10487299999998
 20
55.343908
 30
0.0
 11
20.63564899999999
 21
54.99199
 31
0.0
  0
LINE
  5
2445
  8
DETAIL
  6
CONTINUOUS
 62
     5
 10
0.0026009999999985
 20
47.588688
 30
0.0
 11
30.13982799999999
 21
47.588688
 31
0.0
  0
LINE
  5
2446
  8
DETAIL
  6
CONTINUOUS
 62
     5
 10
0.0026009999999985
 20
48.57519600000001
 30
0.0
 11
47.98730399999998
 21
48.10791500000001
 31
0.0
  0
LINE
  5
2447
  8
DETAIL
  6
CONTINUOUS
 62
     5
 10
0.0026009999999985
 20
48.36159499999999
 30
0.0
 11
47.98730399999998
 21
48.000838
 31
0.0
  0
LINE
  5
2448
  8
DETAIL
  6
CONTINUOUS
 62
     5
 10
0.0123549999999852
 20
42.640291
 30
0.0
 11
39.43020099999998
 21
42.144598
 31
0.0
  0
LINE
  5
2449
  8
DETAIL
  6
CONTINUOUS
 62
     5
 10
0.0123549999999852
 20
41.71552
 30
0.0
 11
39.43020099999998
 21
41.56915100000001
 31
0.0
  0
LINE
  5
244A
  8
DETAIL
  6
CONTINUOUS
 62
     5
 10
42.33725899999999
 20
39.316298
 30
0.0
 11
0.0102329999999995
 21
39.470788
 31
0.0
  0
LINE
  5
244B
  8
DETAIL
  6
CONTINUOUS
 62
     5
 10
77.13212999999999
 20
30.871058
 30
0.0
 11
67.75355899999998
 21
30.991542
 31
0.0
  0
ARC
  5
244C
  8
DETAIL
  6
CONTINUOUS
 62
     5
 10
69.70865899999998
 20
30.991542
 30
0.0
 40
4.88775
 50
0.0
 51
90.0
  0
LINE
  5
244D
  8
DETAIL
  6
CONTINUOUS
 62
     5
 10
62.86580899999998
 20
35.87929199999999
 30
0.0
 11
62.86580899999998
 21
42.746476
 31
0.0
  0
LINE
  5
244E
  8
DETAIL
  6
CONTINUOUS
 62
     5
 10
67.75355899999998
 20
35.87929199999999
 30
0.0
 11
67.75355899999998
 21
41.11078000000001
 31
0.0
  0
LINE
  5
244F
  8
DETAIL
  6
CONTINUOUS
 62
     5
 10
69.70865899999998
 20
35.87929199999999
 30
0.0
 11
59.54739299999999
 21
35.87929199999999
 31
0.0
  0
LINE
  5
2450
  8
DETAIL
  6
CONTINUOUS
 62
     5
 10
67.75355899999998
 20
30.991542
 30
0.0
 11
59.54739299999999
 21
30.991542
 31
0.0
  0
LINE
  5
2451
  8
DETAIL
  6
CONTINUOUS
 62
     5
 10
66.77600899999999
 20
45.631981
 30
0.0
 11
61.39948399999999
 21
45.690392
 31
0.0
  0
LINE
  5
2452
  8
DETAIL
  6
CONTINUOUS
 62
     5
 10
62.86580899999998
 20
42.746476
 30
0.0
 11
66.77600899999999
 21
42.823718
 31
0.0
  0
LINE
  5
2453
  8
DETAIL
  6
CONTINUOUS
 62
     5
 10
67.75355899999998
 20
41.11078000000001
 30
0.0
 11
66.77600899999999
 21
41.11078000000001
 31
0.0
  0
LINE
  5
2454
  8
DETAIL
  6
CONTINUOUS
 62
     5
 10
66.77600899999999
 20
41.072346
 30
0.0
 11
67.75355899999998
 21
41.072346
 31
0.0
  0
LINE
  5
2455
  8
DETAIL
  6
CONTINUOUS
 62
     5
 10
63.26072899999998
 20
38.940538
 30
0.0
 11
67.75355899999998
 21
38.940538
 31
0.0
  0
LINE
  5
2456
  8
DETAIL
  6
CONTINUOUS
 62
     5
 10
66.77600899999999
 20
39.34404499999999
 30
0.0
 11
62.86580899999998
 21
39.16721800000001
 31
0.0
  0
LINE
  5
2457
  8
DETAIL
  6
CONTINUOUS
 62
     5
 10
66.77602699999998
 20
39.099507
 30
0.0
 11
62.86581899999999
 21
38.92268
 31
0.0
  0
LINE
  5
2458
  8
DETAIL
  6
CONTINUOUS
 62
     5
 10
66.77600899999999
 20
45.631981
 30
0.0
 11
66.77600899999999
 21
39.099507
 31
0.0
  0
LINE
  5
2459
  8
DETAIL
  6
CONTINUOUS
 62
     5
 10
61.39948399999999
 20
45.690392
 30
0.0
 11
61.39948399999999
 21
46.005968
 31
0.0
  0
ARC
  5
245A
  8
DETAIL
  6
CONTINUOUS
 62
     5
 10
77.05703
 20
27.450154
 30
0.0
 40
3.421425
 50
0.0
 51
89.00000000000007
  0
LINE
  5
245B
  8
DETAIL
  6
CONTINUOUS
 62
     5
 10
74.596409
 20
30.991542
 30
0.0
 11
74.596409
 21
30.8721
 31
0.0
  0
TEXT
  5
245C
  8
NOTE
  6
CONTINUOUS
 62
     4
 10
125.630088
 20
129.622776
 30
0.0
 40
64.0
  1
2ヶ所×4×10取付用長穴
 41
0.9
  0
TEXT
  5
245D
  8
NOTE
  6
CONTINUOUS
 62
     4
 10
169.56775
 20
258.582839
 30
0.0
 40
64.0
  1
EL
 41
0.9
  0
LINE
  5
245E
  8
NOTE
  6
CONTINUOUS
 62
     4
 10
270.153124
 20
238.295755
 30
0.0
 11
145.873223
 21
238.295755
 31
0.0
  0
ENDSEC
  0
EOF
