  0
SECTION
  2
HEADER
  9
$ACADVER
  1
AC1009
  9
$DWGCODEPAGE
  3
dos932
  9
$INSBASE
 10
0.0
 20
0.0
 30
0.0
  9
$EXTMIN
 10
-770.869429
 20
-383.880603
 30
-0.001526
  9
$EXTMAX
 10
764.978039
 20
404.068001
 30
50.001526
  9
$LIMMIN
 10
-2970.0
 20
-2100.0
  9
$LIMMAX
 10
2970.0
 20
2100.0
  9
$ORTHOMODE
 70
     1
  9
$REGENMODE
 70
     1
  9
$FILLMODE
 70
     1
  9
$QTEXTMODE
 70
     0
  9
$MIRRTEXT
 70
     0
  9
$DRAGMODE
 70
     2
  9
$LTSCALE
 40
20.0
  9
$OSMODE
 70
    37
  9
$ATTMODE
 70
     1
  9
$TEXTSIZE
 40
64.0
  9
$TRACEWID
 40
0.05
  9
$TEXTSTYLE
  7
STANDARD
  9
$CLAYER
  8
OUTLINE
  9
$CELTYPE
  6
CONTINUOUS
  9
$CECOLOR
 62
     3
  9
$DIMSCALE
 40
1.0
  9
$DIMASZ
 40
12.0
  9
$DIMEXO
 40
20.0
  9
$DIMDLI
 40
200.0
  9
$DIMRND
 40
0.0
  9
$DIMDLE
 40
0.0
  9
$DIMEXE
 40
20.0
  9
$DIMTP
 40
0.0
  9
$DIMTM
 40
0.0
  9
$DIMTXT
 40
64.0
  9
$DIMCEN
 40
0.09
  9
$DIMTSZ
 40
0.0
  9
$DIMTOL
 70
     0
  9
$DIMLIM
 70
     0
  9
$DIMTIH
 70
     0
  9
$DIMTOH
 70
     0
  9
$DIMSE1
 70
     0
  9
$DIMSE2
 70
     0
  9
$DIMTAD
 70
     1
  9
$DIMZIN
 70
     8
  9
$DIMBLK
  1
DOT1
  9
$DIMASO
 70
     1
  9
$DIMSHO
 70
     0
  9
$DIMPOST
  1

  9
$DIMAPOST
  1

  9
$DIMALT
 70
     0
  9
$DIMALTD
 70
     2
  9
$DIMALTF
 40
25.4
  9
$DIMLFAC
 40
1.0
  9
$DIMTOFL
 70
     1
  9
$DIMTVP
 40
0.0
  9
$DIMTIX
 70
     1
  9
$DIMSOXD
 70
     0
  9
$DIMSAH
 70
     1
  9
$DIMBLK1
  1
ORIGIN
  9
$DIMBLK2
  1
ORIGIN
  9
$DIMSTYLE
  2
STANDARD
  9
$DIMCLRD
 70
     7
  9
$DIMCLRE
 70
     7
  9
$DIMCLRT
 70
     7
  9
$DIMTFAC
 40
1.0
  9
$DIMGAP
 40
25.0
  9
$LUNITS
 70
     2
  9
$LUPREC
 70
     4
  9
$SKETCHINC
 40
0.1
  9
$FILLETRAD
 40
10.0
  9
$AUNITS
 70
     1
  9
$AUPREC
 70
     3
  9
$MENU
  1
ACAD
  9
$ELEVATION
 40
0.0
  9
$PELEVATION
 40
0.0
  9
$THICKNESS
 40
50.0
  9
$LIMCHECK
 70
     0
  9
$CHAMFERA
 40
0.0
  9
$CHAMFERB
 40
0.0
  9
$SKPOLY
 70
     0
  9
$TDCREATE
 40
2452997.394662442
  9
$TDUPDATE
 40
2457485.582760556
  9
$TDINDWG
 40
0.2932677431
  9
$TDUSRTIMER
 40
0.2932677431
  9
$USRTIMER
 70
     1
  9
$ANGBASE
 50
0.0
  9
$ANGDIR
 70
     0
  9
$PDMODE
 70
     3
  9
$PDSIZE
 40
-2.0
  9
$PLINEWID
 40
0.0
  9
$COORDS
 70
     1
  9
$SPLFRAME
 70
     0
  9
$SPLINETYPE
 70
     6
  9
$SPLINESEGS
 70
     8
  9
$ATTDIA
 70
     0
  9
$ATTREQ
 70
     1
  9
$HANDLING
 70
     1
  9
$HANDSEED
  5
2501
  9
$SURFTAB1
 70
     6
  9
$SURFTAB2
 70
     6
  9
$SURFTYPE
 70
     6
  9
$SURFU
 70
     6
  9
$SURFV
 70
     6
  9
$UCSNAME
  2

  9
$UCSORG
 10
0.0
 20
0.0
 30
0.0
  9
$UCSXDIR
 10
1.0
 20
0.0
 30
0.0
  9
$UCSYDIR
 10
0.0
 20
1.0
 30
0.0
  9
$PUCSNAME
  2

  9
$PUCSORG
 10
0.0
 20
0.0
 30
0.0
  9
$PUCSXDIR
 10
1.0
 20
0.0
 30
0.0
  9
$PUCSYDIR
 10
0.0
 20
1.0
 30
0.0
  9
$USERI1
 70
     0
  9
$USERI2
 70
     0
  9
$USERI3
 70
     0
  9
$USERI4
 70
     0
  9
$USERI5
 70
     0
  9
$USERR1
 40
20.0
  9
$USERR2
 40
0.0
  9
$USERR3
 40
0.0
  9
$USERR4
 40
0.0
  9
$USERR5
 40
0.0
  9
$WORLDVIEW
 70
     1
  9
$SHADEDGE
 70
     3
  9
$SHADEDIF
 70
    70
  9
$TILEMODE
 70
     1
  9
$MAXACTVP
 70
    48
  9
$PLIMCHECK
 70
     0
  9
$PEXTMIN
 10
-1.000000000000000E+20
 20
-1.000000000000000E+20
 30
-1.000000000000000E+20
  9
$PEXTMAX
 10
1.000000000000000E+20
 20
1.000000000000000E+20
 30
1.000000000000000E+20
  9
$PLIMMIN
 10
0.0
 20
0.0
  9
$PLIMMAX
 10
12.0
 20
9.0
  9
$UNITMODE
 70
     0
  9
$VISRETAIN
 70
     0
  9
$PLINEGEN
 70
     0
  9
$PSLTSCALE
 70
     0
  0
ENDSEC
  0
SECTION
  2
TABLES
  0
TABLE
  2
VPORT
 70
     1
  0
VPORT
  2
*ACTIVE
 70
     0
 10
0.0
 20
0.0
 11
1.0
 21
1.0
 12
-2.945695
 22
10.093699
 13
0.0
 23
0.0
 14
1.0
 24
1.0
 15
0.0
 25
0.0
 16
0.0
 26
0.0
 36
1.0
 17
0.0
 27
0.0
 37
0.0
 40
932.422833
 41
1.658444
 42
50.0
 43
0.0
 44
0.0
 50
0.0
 51
0.0
 71
     0
 72
  1000
 73
     1
 74
     0
 75
     0
 76
     0
 77
     0
 78
     0
  0
ENDTAB
  0
TABLE
  2
LTYPE
 70
     2
  0
LTYPE
  2
CONTINUOUS
 70
     0
  3
実線
 72
    65
 73
     0
 40
0.0
  0
LTYPE
  2
DASHDOT
 70
     0
  3
____ _ ____ _ ____ _ ____ _ ____ _ ____ _ ____
 72
    65
 73
     4
 40
5.5
 49
4.0
 49
-0.6
 49
0.3
 49
-0.6
  0
ENDTAB
  0
TABLE
  2
LAYER
 70
    12
  0
LAYER
  2
0
 70
     0
 62
     7
  6
CONTINUOUS
  0
LAYER
  2
BASIS
 70
     0
 62
     6
  6
DASHDOT
  0
LAYER
  2
OUTLINE
 70
     0
 62
     3
  6
CONTINUOUS
  0
LAYER
  2
DETAIL
 70
     0
 62
     5
  6
CONTINUOUS
  0
LAYER
  2
SIZE
 70
     0
 62
    30
  6
CONTINUOUS
  0
LAYER
  2
ARRANGE
 70
     0
 62
     1
  6
CONTINUOUS
  0
LAYER
  2
DEFPOINTS
 70
     0
 62
     7
  6
CONTINUOUS
  0
LAYER
  2
ETC
 70
     0
 62
    61
  6
CONTINUOUS
  0
LAYER
  2
FIX
 70
     0
 62
    11
  6
CONTINUOUS
  0
LAYER
  2
NOTE
 70
     0
 62
     4
  6
CONTINUOUS
  0
LAYER
  2
SERVICESPACE
 70
     0
 62
     2
  6
DASHDOT
  0
LAYER
  2
SYMBOLLINE
 70
     0
 62
    15
  6
CONTINUOUS
  0
ENDTAB
  0
TABLE
  2
STYLE
 70
     1
  0
STYLE
  2
STANDARD
 70
     0
 40
64.0
 41
0.9
 50
0.0
 71
     0
 42
64.0
  3
SIMPLEX.shx
  4
BIGFONT.shx
  0
ENDTAB
  0
TABLE
  2
VIEW
 70
     1
  0
VIEW
  2
ALL
 70
     0
 40
4282.619808
 10
0.0
 20
41.309904
 41
5940.0
 11
0.0
 21
0.0
 31
1.0
 12
0.0
 22
0.0
 32
0.0
 42
50.0
 43
0.0
 44
0.0
 50
0.0
 71
     0
  0
ENDTAB
  0
TABLE
  2
UCS
 70
     0
  0
ENDTAB
  0
TABLE
  2
APPID
 70
     2
  0
APPID
  2
ACAD
 70
     0
  0
APPID
  2
AUTOCAD_POSTSCRIPT_FIGURE
 70
     0
  0
ENDTAB
  0
TABLE
  2
DIMSTYLE
 70
     1
  0
DIMSTYLE
  2
STANDARD
 70
     0
  3

  4

  5

  6

  7

 40
1.0
 41
0.18
 42
0.0625
 43
0.38
 44
0.18
 45
0.0
 46
0.0
 47
0.0
 48
0.0
140
0.18
141
0.09
142
0.0
143
25.4
144
1.0
145
0.0
146
1.0
147
0.09
 71
     0
 72
     0
 73
     1
 74
     1
 75
     0
 76
     0
 77
     0
 78
     0
170
     0
171
     2
172
     0
173
     0
174
     0
175
     0
176
     7
177
     7
178
     7
  0
ENDTAB
  0
ENDSEC
  0
SECTION
  2
BLOCKS
  0
BLOCK
  8
0
  2
$MODEL_SPACE
 70
     0
 10
0.0
 20
0.0
 30
0.0
  3
$MODEL_SPACE
  1

  0
ENDBLK
  5
24D9
  8
0
  0
BLOCK
 67
     1
  8
0
  2
$PAPER_SPACE
 70
     0
 10
0.0
 20
0.0
 30
0.0
  3
$PAPER_SPACE
  1

  0
ENDBLK
  5
24DB
 67
     1
  8
0
  0
BLOCK
  8
0
  2
DOT1
 70
     0
 10
0.0
 20
0.0
 30
0.0
  3
DOT1
  1

  0
CIRCLE
  5
21A8
  8
SIZE
  6
CONTINUOUS
 62
     7
 10
0.0
 20
0.0
 30
0.0
 40
3.0
  0
ENDBLK
  5
21A9
  8
0
  0
BLOCK
  8
0
  2
_ORIGIN
 70
     0
 10
0.0
 20
0.0
 30
0.0
  3
_ORIGIN
  1

  0
CIRCLE
  5
21AC
  8
0
  6
CONTINUOUS
 62
     7
 10
0.0
 20
0.0
 30
0.0
 40
0.5
  0
LINE
  5
21AD
  8
0
  6
CONTINUOUS
 62
     7
 10
0.0
 20
0.0
 30
0.0
 11
-1.0
 21
0.0
 31
0.0
  0
ENDBLK
  5
21AE
  8
0
  0
ENDSEC
  0
SECTION
  2
ENTITIES
  0
TEXT
  5
21AF
  8
ETC
  6
CONTINUOUS
 62
    61
 10
169.555919
 20
402.488237
 30
0.0
 40
40.0
  1
V-08PP5-BL_6
 41
0.9
  0
TEXT
  5
21B0
  8
ETC
  6
CONTINUOUS
 62
    61
 10
167.981459
 20
330.098079
 30
0.0
 40
40.0
  1
換気扇
 41
0.9
  0
LINE
  5
21B1
  8
OUTLINE
  6
CONTINUOUS
 62
     3
 10
31.70796799999999
 20
61.63752599999999
 30
0.0
 11
-31.29203200000001
 21
61.63752599999999
 31
0.0
  0
LINE
  5
21B2
  8
OUTLINE
  6
CONTINUOUS
 62
     3
 10
42.16453899999999
 20
61.63752599999999
 30
0.0
 11
-41.74860299999999
 21
61.63752599999999
 31
0.0
  0
LINE
  5
21B3
  8
OUTLINE
  6
CONTINUOUS
 62
     3
 10
26.67660800000002
 20
80.467164
 30
0.0
 11
-26.32339199999998
 21
80.467164
 31
0.0
  0
LINE
  5
21B4
  8
OUTLINE
  6
CONTINUOUS
 62
     3
 10
-80.0
 20
0.0
 30
0.0
 11
80.0
 21
0.0
 31
0.0
  0
LINE
  5
21B5
  8
OUTLINE
  6
CONTINUOUS
 62
     3
 10
-72.0
 20
-19.5
 30
0.0
 11
72.0
 21
-19.5
 31
0.0
  0
LINE
  5
21B6
  8
DETAIL
  6
CONTINUOUS
 62
     5
 10
1.585012000000006
 20
32.290374
 30
0.0
 11
-29.60411399999998
 21
32.459453
 31
0.0
  0
LINE
  5
21B7
  8
DETAIL
  6
CONTINUOUS
 62
     5
 10
1.585012000000006
 20
32.290374
 30
0.0
 11
-32.18099000000001
 21
32.459453
 31
0.0
  0
LINE
  5
21B8
  8
DETAIL
  6
CONTINUOUS
 62
     5
 10
26.67660800000002
 20
80.467164
 30
0.0
 11
-26.32339199999998
 21
80.467164
 31
0.0
  0
LINE
  5
21B9
  8
DETAIL
  6
CONTINUOUS
 62
     5
 10
42.16453899999999
 20
61.63752599999999
 30
0.0
 11
-41.74860299999999
 21
61.63752599999999
 31
0.0
  0
LINE
  5
21BA
  8
DETAIL
  6
CONTINUOUS
 62
     5
 10
31.70796799999999
 20
61.63752599999999
 30
0.0
 11
-31.29203200000001
 21
61.63752599999999
 31
0.0
  0
LINE
  5
21BB
  8
DETAIL
  6
CONTINUOUS
 62
     5
 10
-40.75412399999999
 20
62.681614
 30
0.0
 11
40.343671
 21
62.63186899999999
 31
0.0
  0
LINE
  5
21BC
  8
DETAIL
  6
CONTINUOUS
 62
     5
 10
40.370632
 20
69.057605
 30
0.0
 11
-40.629368
 21
69.057605
 31
0.0
  0
LINE
  5
21BD
  8
DETAIL
  6
CONTINUOUS
 62
     5
 10
-46.75247299999999
 20
32.396985
 30
0.0
 11
-47.38609599999999
 21
0.0
 31
0.0
  0
LINE
  5
21BE
  8
DETAIL
  6
CONTINUOUS
 62
     5
 10
-34.08106699999999
 20
41.110978
 30
0.0
 11
-33.825425
 21
36.237372
 31
0.0
  0
LINE
  5
21BF
  8
DETAIL
  6
CONTINUOUS
 62
     5
 10
-34.08106699999999
 20
41.110978
 30
0.0
 11
-33.825425
 21
36.237372
 31
0.0
  0
LINE
  5
21C0
  8
DETAIL
  6
CONTINUOUS
 62
     5
 10
-33.23946000000001
 20
33.963556
 30
0.0
 11
-32.87802099999999
 21
33.33171
 31
0.0
  0
LINE
  5
21C1
  8
DETAIL
  6
CONTINUOUS
 62
     5
 10
-33.23946000000001
 20
33.963556
 30
0.0
 11
-32.87802099999999
 21
33.33171
 31
0.0
  0
LINE
  5
21C2
  8
DETAIL
  6
CONTINUOUS
 62
     5
 10
-33.51622499999999
 20
34.665377
 30
0.0
 11
-33.23946000000001
 21
33.963556
 31
0.0
  0
LINE
  5
21C3
  8
DETAIL
  6
CONTINUOUS
 62
     5
 10
-33.70522700000001
 20
35.423234
 30
0.0
 11
-33.51622499999999
 21
34.665377
 31
0.0
  0
LINE
  5
21C4
  8
DETAIL
  6
CONTINUOUS
 62
     5
 10
-33.70522700000001
 20
35.423234
 30
0.0
 11
-33.51622499999999
 21
34.665377
 31
0.0
  0
LINE
  5
21C5
  8
DETAIL
  6
CONTINUOUS
 62
     5
 10
-33.51622499999999
 20
34.665377
 30
0.0
 11
-33.23946000000001
 21
33.963556
 31
0.0
  0
LINE
  5
21C6
  8
DETAIL
  6
CONTINUOUS
 62
     5
 10
-33.82805099999999
 20
36.238982
 30
0.0
 11
-33.70522700000001
 21
35.423234
 31
0.0
  0
LINE
  5
21C7
  8
DETAIL
  6
CONTINUOUS
 62
     5
 10
-32.87802099999999
 20
33.33171
 30
0.0
 11
-32.18099000000001
 21
32.459453
 31
0.0
  0
LINE
  5
21C8
  8
DETAIL
  6
CONTINUOUS
 62
     5
 10
-32.02579599999999
 20
40.744819
 30
0.0
 11
-31.746667
 21
35.965506
 31
0.0
  0
LINE
  5
21C9
  8
DETAIL
  6
CONTINUOUS
 62
     5
 10
-32.02579599999999
 20
40.744819
 30
0.0
 11
-31.746667
 21
35.965506
 31
0.0
  0
LINE
  5
21CA
  8
DETAIL
  6
CONTINUOUS
 62
     5
 10
-31.45798500000001
 20
34.429468
 30
0.0
 11
-31.751969
 21
35.990677
 31
0.0
  0
LINE
  5
21CB
  8
DETAIL
  6
CONTINUOUS
 62
     5
 10
-31.45798500000001
 20
34.429468
 30
0.0
 11
-31.751969
 21
35.990677
 31
0.0
  0
LINE
  5
21CC
  8
DETAIL
  6
CONTINUOUS
 62
     5
 10
-31.09889999999999
 20
33.814082
 30
0.0
 11
-31.46458200000001
 21
34.445952
 31
0.0
  0
LINE
  5
21CD
  8
DETAIL
  6
CONTINUOUS
 62
     5
 10
-31.09889999999999
 20
33.814082
 30
0.0
 11
-31.46458200000001
 21
34.445952
 31
0.0
  0
LINE
  5
21CE
  8
DETAIL
  6
CONTINUOUS
 62
     5
 10
-30.64662200000001
 20
33.262184
 30
0.0
 11
-31.09889999999999
 21
33.814082
 31
0.0
  0
LINE
  5
21CF
  8
DETAIL
  6
CONTINUOUS
 62
     5
 10
-30.64662200000001
 20
33.262184
 30
0.0
 11
-31.09889999999999
 21
33.814082
 31
0.0
  0
LINE
  5
21D0
  8
DETAIL
  6
CONTINUOUS
 62
     5
 10
-29.60411399999998
 20
32.459453
 30
0.0
 11
-30.64662200000001
 21
33.262184
 31
0.0
  0
LINE
  5
21D1
  8
DETAIL
  6
CONTINUOUS
 62
     5
 10
-29.60411399999998
 20
32.459453
 30
0.0
 11
-30.64662200000001
 21
33.262184
 31
0.0
  0
LINE
  5
21D2
  8
DETAIL
  6
CONTINUOUS
 62
     5
 10
-31.495587
 20
69.283227
 30
0.0
 11
-31.37835999999999
 21
75.99915899999999
 31
0.0
  0
ARC
  5
21D3
  8
DETAIL
  6
CONTINUOUS
 62
     5
 10
-26.32339199999998
 20
75.467164
 30
0.0
 40
5.0
 50
90.0
 51
180.0
  0
LINE
  5
21D4
  8
DETAIL
  6
CONTINUOUS
 62
     5
 10
-31.29203200000001
 20
69.137526
 30
0.0
 11
-31.29203200000001
 21
61.63752599999999
 31
0.0
  0
LINE
  5
21D5
  8
DETAIL
  6
CONTINUOUS
 62
     5
 10
-41.74860299999999
 20
61.63752599999999
 30
0.0
 11
-31.29203200000001
 21
61.63752599999999
 31
0.0
  0
LINE
  5
21D6
  8
DETAIL
  6
CONTINUOUS
 62
     5
 10
-32.321776
 20
45.45763
 30
0.0
 11
-32.02579599999999
 21
40.744819
 31
0.0
  0
LINE
  5
21D7
  8
DETAIL
  6
CONTINUOUS
 62
     5
 10
-31.62582899999998
 20
42.309259
 30
0.0
 11
-31.70163099999999
 21
46.651965
 31
0.0
  0
LINE
  5
21D8
  8
DETAIL
  6
CONTINUOUS
 62
     5
 10
-30.94359399999999
 20
47.621955
 30
0.0
 11
-31.14343
 21
47.333364
 31
0.0
  0
LINE
  5
21D9
  8
DETAIL
  6
CONTINUOUS
 62
     5
 10
-34.38297900000001
 20
46.005715
 30
0.0
 11
-34.08106699999999
 21
41.110978
 31
0.0
  0
LINE
  5
21DA
  8
DETAIL
  6
CONTINUOUS
 62
     5
 10
-34.12404799999999
 20
47.159203
 30
0.0
 11
-33.44399200000001
 21
48.091712
 31
0.0
  0
LINE
  5
21DB
  8
DETAIL
  6
CONTINUOUS
 62
     5
 10
-34.24976899999999
 20
46.896045
 30
0.0
 11
-34.12404799999999
 21
47.159203
 31
0.0
  0
LINE
  5
21DC
  8
DETAIL
  6
CONTINUOUS
 62
     5
 10
-34.335658
 20
46.612533
 30
0.0
 11
-34.24976899999999
 21
46.896045
 31
0.0
  0
LINE
  5
21DD
  8
DETAIL
  6
CONTINUOUS
 62
     5
 10
-34.380608
 20
46.31222
 30
0.0
 11
-34.335658
 21
46.612533
 31
0.0
  0
LINE
  5
21DE
  8
DETAIL
  6
CONTINUOUS
 62
     5
 10
-34.38297900000001
 20
46.005715
 30
0.0
 11
-34.380608
 21
46.31222
 31
0.0
  0
LINE
  5
21DF
  8
DETAIL
  6
CONTINUOUS
 62
     5
 10
-32.31710699999999
 20
45.649129
 30
0.0
 11
-32.321776
 21
45.45763
 31
0.0
  0
LINE
  5
21E0
  8
DETAIL
  6
CONTINUOUS
 62
     5
 10
-32.279416
 20
45.833004
 30
0.0
 11
-32.31710699999999
 21
45.649129
 31
0.0
  0
LINE
  5
21E1
  8
DETAIL
  6
CONTINUOUS
 62
     5
 10
-32.21011999999999
 20
46.002465
 30
0.0
 11
-32.279416
 21
45.833004
 31
0.0
  0
LINE
  5
21E2
  8
DETAIL
  6
CONTINUOUS
 62
     5
 10
-32.111864
 20
46.151078
 30
0.0
 11
-32.21011999999999
 21
46.002465
 31
0.0
  0
LINE
  5
21E3
  8
DETAIL
  6
CONTINUOUS
 62
     5
 10
-36.09756400000001
 20
46.894911
 30
0.0
 11
-36.200121
 21
46.611095
 31
0.0
  0
LINE
  5
21E4
  8
DETAIL
  6
CONTINUOUS
 62
     5
 10
-35.95667699999998
 20
47.158599
 30
0.0
 11
-36.09756400000001
 21
46.894911
 31
0.0
  0
LINE
  5
21E5
  8
DETAIL
  6
CONTINUOUS
 62
     5
 10
-35.782479
 20
47.39261
 30
0.0
 11
-35.95667699999998
 21
47.158599
 31
0.0
  0
LINE
  5
21E6
  8
DETAIL
  6
CONTINUOUS
 62
     5
 10
-32.111864
 20
46.151078
 30
0.0
 11
-31.14343
 21
47.333364
 31
0.0
  0
LINE
  5
21E7
  8
DETAIL
  6
CONTINUOUS
 62
     5
 10
-35.782479
 20
47.39261
 30
0.0
 11
-36.08479399999999
 21
47.045467
 31
0.0
  0
LINE
  5
21E8
  8
DETAIL
  6
CONTINUOUS
 62
     5
 10
-36.15672799999999
 20
46.817811
 30
0.0
 11
-34.27347
 21
46.817811
 31
0.0
  0
LINE
  5
21E9
  8
DETAIL
  6
CONTINUOUS
 62
     5
 10
-35.782479
 20
47.39261
 30
0.0
 11
-36.08479399999999
 21
47.045467
 31
0.0
  0
LINE
  5
21EA
  8
DETAIL
  6
CONTINUOUS
 62
     5
 10
-32.111864
 20
46.151078
 30
0.0
 11
-31.14343
 21
47.333364
 31
0.0
  0
LINE
  5
21EB
  8
DETAIL
  6
CONTINUOUS
 62
     5
 10
-35.782479
 20
47.39261
 30
0.0
 11
-35.95667699999998
 21
47.158599
 31
0.0
  0
LINE
  5
21EC
  8
DETAIL
  6
CONTINUOUS
 62
     5
 10
-35.95667699999998
 20
47.158599
 30
0.0
 11
-36.09756400000001
 21
46.894911
 31
0.0
  0
LINE
  5
21ED
  8
DETAIL
  6
CONTINUOUS
 62
     5
 10
-36.09756400000001
 20
46.894911
 30
0.0
 11
-36.200121
 21
46.611095
 31
0.0
  0
LINE
  5
21EE
  8
DETAIL
  6
CONTINUOUS
 62
     5
 10
-32.111864
 20
46.151078
 30
0.0
 11
-32.21011999999999
 21
46.002465
 31
0.0
  0
LINE
  5
21EF
  8
DETAIL
  6
CONTINUOUS
 62
     5
 10
-32.21011999999999
 20
46.002465
 30
0.0
 11
-32.279416
 21
45.833004
 31
0.0
  0
LINE
  5
21F0
  8
DETAIL
  6
CONTINUOUS
 62
     5
 10
-32.279416
 20
45.833004
 30
0.0
 11
-32.31710699999999
 21
45.649129
 31
0.0
  0
LINE
  5
21F1
  8
DETAIL
  6
CONTINUOUS
 62
     5
 10
-32.31710699999999
 20
45.649129
 30
0.0
 11
-32.321776
 21
45.45763
 31
0.0
  0
LINE
  5
21F2
  8
DETAIL
  6
CONTINUOUS
 62
     5
 10
-34.38297900000001
 20
46.005715
 30
0.0
 11
-34.380608
 21
46.31222
 31
0.0
  0
LINE
  5
21F3
  8
DETAIL
  6
CONTINUOUS
 62
     5
 10
-34.380608
 20
46.31222
 30
0.0
 11
-34.335658
 21
46.612533
 31
0.0
  0
LINE
  5
21F4
  8
DETAIL
  6
CONTINUOUS
 62
     5
 10
-34.335658
 20
46.612533
 30
0.0
 11
-34.24976899999999
 21
46.896045
 31
0.0
  0
LINE
  5
21F5
  8
DETAIL
  6
CONTINUOUS
 62
     5
 10
-34.24976899999999
 20
46.896045
 30
0.0
 11
-34.12404799999999
 21
47.159203
 31
0.0
  0
LINE
  5
21F6
  8
DETAIL
  6
CONTINUOUS
 62
     5
 10
-34.12404799999999
 20
47.159203
 30
0.0
 11
-33.96302900000001
 21
47.39261
 31
0.0
  0
LINE
  5
21F7
  8
DETAIL
  6
CONTINUOUS
 62
     5
 10
-34.38297900000001
 20
46.005715
 30
0.0
 11
-34.08106699999999
 21
41.110978
 31
0.0
  0
LINE
  5
21F8
  8
DETAIL
  6
CONTINUOUS
 62
     5
 10
-30.94359399999999
 20
47.621955
 30
0.0
 11
-31.14343
 21
47.333364
 31
0.0
  0
LINE
  5
21F9
  8
DETAIL
  6
CONTINUOUS
 62
     5
 10
-31.62582899999998
 20
42.309259
 30
0.0
 11
-31.70163099999999
 21
46.651965
 31
0.0
  0
LINE
  5
21FA
  8
DETAIL
  6
CONTINUOUS
 62
     5
 10
-32.321776
 20
45.45763
 30
0.0
 11
-32.02579599999999
 21
40.744819
 31
0.0
  0
LINE
  5
21FB
  8
DETAIL
  6
CONTINUOUS
 62
     5
 10
-36.15672799999999
 20
46.817811
 30
0.0
 11
-34.27347
 21
46.817811
 31
0.0
  0
LINE
  5
21FC
  8
DETAIL
  6
CONTINUOUS
 62
     5
 10
-30.84572399999999
 20
53.239942
 30
0.0
 11
-30.617401
 21
49.045323
 31
0.0
  0
LINE
  5
21FD
  8
DETAIL
  6
CONTINUOUS
 62
     5
 10
-31.07061300000001
 20
57.437568
 30
0.0
 11
-30.84572399999999
 21
53.239942
 31
0.0
  0
LINE
  5
21FE
  8
DETAIL
  6
CONTINUOUS
 62
     5
 10
-33.41878700000001
 20
53.25791
 30
0.0
 11
-33.44399200000001
 21
48.091712
 31
0.0
  0
LINE
  5
21FF
  8
DETAIL
  6
CONTINUOUS
 62
     5
 10
-33.09050399999998
 20
57.425099
 30
0.0
 11
-33.41878700000001
 21
53.25791
 31
0.0
  0
LINE
  5
2200
  8
DETAIL
  6
CONTINUOUS
 62
     5
 10
-30.67986199999999
 20
48.296237
 30
0.0
 11
-30.787294
 21
47.946656
 31
0.0
  0
LINE
  5
2201
  8
DETAIL
  6
CONTINUOUS
 62
     5
 10
-30.622546
 20
48.666669
 30
0.0
 11
-30.67986199999999
 21
48.296237
 31
0.0
  0
LINE
  5
2202
  8
DETAIL
  6
CONTINUOUS
 62
     5
 10
-30.617401
 20
49.045323
 30
0.0
 11
-30.622546
 21
48.666669
 31
0.0
  0
LINE
  5
2203
  8
DETAIL
  6
CONTINUOUS
 62
     5
 10
-30.617401
 20
49.045323
 30
0.0
 11
-30.622546
 21
48.666669
 31
0.0
  0
LINE
  5
2204
  8
DETAIL
  6
CONTINUOUS
 62
     5
 10
-30.622546
 20
48.666669
 30
0.0
 11
-30.67986199999999
 21
48.296237
 31
0.0
  0
LINE
  5
2205
  8
DETAIL
  6
CONTINUOUS
 62
     5
 10
-30.67986199999999
 20
48.296237
 30
0.0
 11
-30.787294
 21
47.946656
 31
0.0
  0
LINE
  5
2206
  8
DETAIL
  6
CONTINUOUS
 62
     5
 10
-33.09050399999998
 20
57.425099
 30
0.0
 11
-33.41878700000001
 21
53.25791
 31
0.0
  0
LINE
  5
2207
  8
DETAIL
  6
CONTINUOUS
 62
     5
 10
-33.41878700000001
 20
53.25791
 30
0.0
 11
-33.44399200000001
 21
48.091712
 31
0.0
  0
LINE
  5
2208
  8
DETAIL
  6
CONTINUOUS
 62
     5
 10
-31.07061300000001
 20
57.437568
 30
0.0
 11
-30.84572399999999
 21
53.239942
 31
0.0
  0
LINE
  5
2209
  8
DETAIL
  6
CONTINUOUS
 62
     5
 10
-30.84572399999999
 20
53.239942
 30
0.0
 11
-30.617401
 21
49.045323
 31
0.0
  0
LINE
  5
220A
  8
DETAIL
  6
CONTINUOUS
 62
     5
 10
-30.787294
 20
47.946656
 30
0.0
 11
-30.94359399999999
 21
47.621955
 31
0.0
  0
LINE
  5
220B
  8
DETAIL
  6
CONTINUOUS
 62
     5
 10
-30.787294
 20
47.946656
 30
0.0
 11
-30.94359399999999
 21
47.621955
 31
0.0
  0
LINE
  5
220C
  8
DETAIL
  6
CONTINUOUS
 62
     5
 10
-33.22033400000001
 20
61.63752599999999
 30
0.0
 11
-33.22033400000001
 21
62.630463
 31
0.0
  0
LINE
  5
220D
  8
DETAIL
  6
CONTINUOUS
 62
     5
 10
-34.41185899999999
 20
61.63752599999999
 30
0.0
 11
-34.41185899999999
 21
62.630463
 31
0.0
  0
LINE
  5
220E
  8
DETAIL
  6
CONTINUOUS
 62
     5
 10
-33.22044099999999
 20
62.630463
 30
0.0
 11
-34.411753
 21
62.630463
 31
0.0
  0
LINE
  5
220F
  8
DETAIL
  6
CONTINUOUS
 62
     5
 10
-33.22044099999999
 20
62.630463
 30
0.0
 11
-34.411753
 21
62.630463
 31
0.0
  0
LINE
  5
2210
  8
DETAIL
  6
CONTINUOUS
 62
     5
 10
-34.41185899999999
 20
61.63752599999999
 30
0.0
 11
-34.41185899999999
 21
62.630463
 31
0.0
  0
LINE
  5
2211
  8
DETAIL
  6
CONTINUOUS
 62
     5
 10
-33.22033400000001
 20
61.63752599999999
 30
0.0
 11
-33.22033400000001
 21
62.630463
 31
0.0
  0
LINE
  5
2212
  8
DETAIL
  6
CONTINUOUS
 62
     5
 10
-31.29203200000001
 20
61.63752599999999
 30
0.0
 11
-31.07061300000001
 21
57.437568
 31
0.0
  0
LINE
  5
2213
  8
DETAIL
  6
CONTINUOUS
 62
     5
 10
-33.30863500000001
 20
61.63752599999999
 30
0.0
 11
-33.09050399999998
 21
57.425099
 31
0.0
  0
LINE
  5
2214
  8
DETAIL
  6
CONTINUOUS
 62
     5
 10
-33.30863500000001
 20
61.63752599999999
 30
0.0
 11
-33.09050399999998
 21
57.425099
 31
0.0
  0
LINE
  5
2215
  8
DETAIL
  6
CONTINUOUS
 62
     5
 10
-31.29203200000001
 20
61.63752599999999
 30
0.0
 11
-31.07061300000001
 21
57.437568
 31
0.0
  0
LINE
  5
2216
  8
DETAIL
  6
CONTINUOUS
 62
     5
 10
-46.10687
 20
32.534479
 30
0.0
 11
-45.952209
 21
32.603873
 31
0.0
  0
LINE
  5
2217
  8
DETAIL
  6
CONTINUOUS
 62
     5
 10
-45.952209
 20
32.603873
 30
0.0
 11
-45.78707399999999
 21
32.808974
 31
0.0
  0
LINE
  5
2218
  8
DETAIL
  6
CONTINUOUS
 62
     5
 10
-45.78707399999999
 20
32.808974
 30
0.0
 11
-45.620008
 21
33.138126
 31
0.0
  0
LINE
  5
2219
  8
DETAIL
  6
CONTINUOUS
 62
     5
 10
-45.620008
 20
33.138126
 30
0.0
 11
-45.45644899999999
 21
33.582633
 31
0.0
  0
LINE
  5
221A
  8
DETAIL
  6
CONTINUOUS
 62
     5
 10
-45.45644899999999
 20
33.582633
 30
0.0
 11
-45.30317799999999
 21
34.132309
 31
0.0
  0
LINE
  5
221B
  8
DETAIL
  6
CONTINUOUS
 62
     5
 10
-45.30317799999999
 20
34.132309
 30
0.0
 11
-45.16938999999999
 21
34.763731
 31
0.0
  0
LINE
  5
221C
  8
DETAIL
  6
CONTINUOUS
 62
     5
 10
-45.16938999999999
 20
34.763731
 30
0.0
 11
-45.059952
 21
35.464953
 31
0.0
  0
LINE
  5
221D
  8
DETAIL
  6
CONTINUOUS
 62
     5
 10
-46.757964
 20
32.409196
 30
0.0
 11
-46.10687
 21
32.520522
 31
0.0
  0
LINE
  5
221E
  8
DETAIL
  6
CONTINUOUS
 62
     5
 10
-44.979805
 20
36.222054
 30
0.0
 11
-44.933773
 21
37.005162
 31
0.0
  0
LINE
  5
221F
  8
DETAIL
  6
CONTINUOUS
 62
     5
 10
-45.059952
 20
35.464953
 30
0.0
 11
-44.979805
 21
36.222054
 31
0.0
  0
LINE
  5
2220
  8
DETAIL
  6
CONTINUOUS
 62
     5
 10
-44.933773
 20
37.005162
 30
0.0
 11
-44.566374
 21
41.877056
 31
0.0
  0
LINE
  5
2221
  8
DETAIL
  6
CONTINUOUS
 62
     5
 10
-45.059952
 20
35.464953
 30
0.0
 11
-44.979805
 21
36.222054
 31
0.0
  0
LINE
  5
2222
  8
DETAIL
  6
CONTINUOUS
 62
     5
 10
-44.979805
 20
36.222054
 30
0.0
 11
-44.933773
 21
37.005162
 31
0.0
  0
LINE
  5
2223
  8
DETAIL
  6
CONTINUOUS
 62
     5
 10
-46.757964
 20
32.409196
 30
0.0
 11
-46.10687
 21
32.520522
 31
0.0
  0
LINE
  5
2224
  8
DETAIL
  6
CONTINUOUS
 62
     5
 10
-45.16938999999999
 20
34.763731
 30
0.0
 11
-45.059952
 21
35.464953
 31
0.0
  0
LINE
  5
2225
  8
DETAIL
  6
CONTINUOUS
 62
     5
 10
-45.30317799999999
 20
34.132309
 30
0.0
 11
-45.16938999999999
 21
34.763731
 31
0.0
  0
LINE
  5
2226
  8
DETAIL
  6
CONTINUOUS
 62
     5
 10
-45.45644899999999
 20
33.582633
 30
0.0
 11
-45.30317799999999
 21
34.132309
 31
0.0
  0
LINE
  5
2227
  8
DETAIL
  6
CONTINUOUS
 62
     5
 10
-45.620008
 20
33.138126
 30
0.0
 11
-45.45644899999999
 21
33.582633
 31
0.0
  0
LINE
  5
2228
  8
DETAIL
  6
CONTINUOUS
 62
     5
 10
-45.78707399999999
 20
32.808974
 30
0.0
 11
-45.620008
 21
33.138126
 31
0.0
  0
LINE
  5
2229
  8
DETAIL
  6
CONTINUOUS
 62
     5
 10
-45.952209
 20
32.603873
 30
0.0
 11
-45.78707399999999
 21
32.808974
 31
0.0
  0
LINE
  5
222A
  8
DETAIL
  6
CONTINUOUS
 62
     5
 10
-46.10687
 20
32.534479
 30
0.0
 11
-45.952209
 21
32.603873
 31
0.0
  0
LINE
  5
222B
  8
DETAIL
  6
CONTINUOUS
 62
     5
 10
-36.399824
 20
46.547783
 30
0.0
 11
-36.25895800000001
 21
46.811465
 31
0.0
  0
LINE
  5
222C
  8
DETAIL
  6
CONTINUOUS
 62
     5
 10
-36.50236799999999
 20
46.263966
 30
0.0
 11
-36.399824
 21
46.547783
 31
0.0
  0
LINE
  5
222D
  8
DETAIL
  6
CONTINUOUS
 62
     5
 10
-36.56533899999999
 20
45.963957
 30
0.0
 11
-36.50236799999999
 21
46.263966
 31
0.0
  0
LINE
  5
222E
  8
DETAIL
  6
CONTINUOUS
 62
     5
 10
-36.586713
 20
45.658571
 30
0.0
 11
-36.56533899999999
 21
45.963957
 31
0.0
  0
LINE
  5
222F
  8
DETAIL
  6
CONTINUOUS
 62
     5
 10
-36.26309699999999
 20
46.311091
 30
0.0
 11
-36.28447199999999
 21
46.005715
 31
0.0
  0
LINE
  5
2230
  8
DETAIL
  6
CONTINUOUS
 62
     5
 10
-37.27995300000001
 20
45.963987
 30
0.0
 11
-37.304565
 21
45.658571
 31
0.0
  0
LINE
  5
2231
  8
DETAIL
  6
CONTINUOUS
 62
     5
 10
-37.21393
 20
46.264046
 30
0.0
 11
-37.27995300000001
 21
45.963987
 31
0.0
  0
LINE
  5
2232
  8
DETAIL
  6
CONTINUOUS
 62
     5
 10
-37.108632
 20
46.547905
 30
0.0
 11
-37.21393
 21
46.264046
 31
0.0
  0
LINE
  5
2233
  8
DETAIL
  6
CONTINUOUS
 62
     5
 10
-36.96538699999999
 20
46.811562
 30
0.0
 11
-37.108632
 21
46.547905
 31
0.0
  0
LINE
  5
2234
  8
DETAIL
  6
CONTINUOUS
 62
     5
 10
-36.78935099999998
 20
47.045467
 30
0.0
 11
-36.96538699999999
 21
46.811562
 31
0.0
  0
LINE
  5
2235
  8
DETAIL
  6
CONTINUOUS
 62
     5
 10
-36.78935099999998
 20
47.045467
 30
0.0
 11
-36.48432199999999
 21
47.39261
 31
0.0
  0
LINE
  5
2236
  8
DETAIL
  6
CONTINUOUS
 62
     5
 10
-42.95138399999999
 20
46.811562
 30
0.0
 11
-42.777389
 21
47.045467
 31
0.0
  0
LINE
  5
2237
  8
DETAIL
  6
CONTINUOUS
 62
     5
 10
-43.09232799999999
 20
46.547905
 30
0.0
 11
-42.95138399999999
 21
46.811562
 31
0.0
  0
LINE
  5
2238
  8
DETAIL
  6
CONTINUOUS
 62
     5
 10
-43.195149
 20
46.264046
 30
0.0
 11
-43.09232799999999
 21
46.547905
 31
0.0
  0
LINE
  5
2239
  8
DETAIL
  6
CONTINUOUS
 62
     5
 10
-43.25855299999999
 20
45.963987
 30
0.0
 11
-43.195149
 21
46.264046
 31
0.0
  0
LINE
  5
223A
  8
DETAIL
  6
CONTINUOUS
 62
     5
 10
-43.28049999999999
 20
45.658571
 30
0.0
 11
-43.25855299999999
 21
45.963987
 31
0.0
  0
LINE
  5
223B
  8
DETAIL
  6
CONTINUOUS
 62
     5
 10
-42.956627
 20
46.311122
 30
0.0
 11
-42.978579
 21
46.005715
 31
0.0
  0
LINE
  5
223C
  8
DETAIL
  6
CONTINUOUS
 62
     5
 10
-42.893215
 20
46.611176
 30
0.0
 11
-42.956627
 21
46.311122
 31
0.0
  0
LINE
  5
223D
  8
DETAIL
  6
CONTINUOUS
 62
     5
 10
-42.79038
 20
46.895036
 30
0.0
 11
-42.893215
 21
46.611176
 31
0.0
  0
LINE
  5
223E
  8
DETAIL
  6
CONTINUOUS
 62
     5
 10
-42.64941499999999
 20
47.158697
 30
0.0
 11
-42.79038
 21
46.895036
 31
0.0
  0
LINE
  5
223F
  8
DETAIL
  6
CONTINUOUS
 62
     5
 10
-42.47538999999999
 20
47.39261
 30
0.0
 11
-42.64941499999999
 21
47.158697
 31
0.0
  0
LINE
  5
2240
  8
DETAIL
  6
CONTINUOUS
 62
     5
 10
-43.693513
 20
45.963957
 30
0.0
 11
-43.717553
 21
45.658571
 31
0.0
  0
LINE
  5
2241
  8
DETAIL
  6
CONTINUOUS
 62
     5
 10
-43.62792399999999
 20
46.263966
 30
0.0
 11
-43.693513
 21
45.963957
 31
0.0
  0
LINE
  5
2242
  8
DETAIL
  6
CONTINUOUS
 62
     5
 10
-43.522903
 20
46.547783
 30
0.0
 11
-43.62792399999999
 21
46.263966
 31
0.0
  0
LINE
  5
2243
  8
DETAIL
  6
CONTINUOUS
 62
     5
 10
-43.37973599999999
 20
46.811465
 30
0.0
 11
-43.522903
 21
46.547783
 31
0.0
  0
LINE
  5
2244
  8
DETAIL
  6
CONTINUOUS
 62
     5
 10
-43.20353
 20
47.045467
 30
0.0
 11
-43.37973599999999
 21
46.811465
 31
0.0
  0
LINE
  5
2245
  8
DETAIL
  6
CONTINUOUS
 62
     5
 10
-44.27812499999999
 20
46.612533
 30
0.0
 11
-44.35310699999999
 21
46.31222
 31
0.0
  0
LINE
  5
2246
  8
DETAIL
  6
CONTINUOUS
 62
     5
 10
-44.16388499999999
 20
46.896045
 30
0.0
 11
-44.27812499999999
 21
46.612533
 31
0.0
  0
LINE
  5
2247
  8
DETAIL
  6
CONTINUOUS
 62
     5
 10
-44.011849
 20
47.159203
 30
0.0
 11
-44.16388499999999
 21
46.896045
 31
0.0
  0
LINE
  5
2248
  8
DETAIL
  6
CONTINUOUS
 62
     5
 10
-43.827489
 20
47.39261
 30
0.0
 11
-44.011849
 21
47.159203
 31
0.0
  0
LINE
  5
2249
  8
DETAIL
  6
CONTINUOUS
 62
     5
 10
-42.47538999999999
 20
47.39261
 30
0.0
 11
-42.777389
 21
47.045467
 31
0.0
  0
LINE
  5
224A
  8
DETAIL
  6
CONTINUOUS
 62
     5
 10
-43.20353
 20
47.045467
 30
0.0
 11
-42.898186
 21
47.39261
 31
0.0
  0
LINE
  5
224B
  8
DETAIL
  6
CONTINUOUS
 62
     5
 10
-42.898186
 20
47.39261
 30
0.0
 11
-42.47538999999999
 21
47.39261
 31
0.0
  0
LINE
  5
224C
  8
DETAIL
  6
CONTINUOUS
 62
     5
 10
-42.81835699999999
 20
46.817811
 30
0.0
 11
-36.96199200000001
 21
46.817811
 31
0.0
  0
LINE
  5
224D
  8
DETAIL
  6
CONTINUOUS
 62
     5
 10
-44.195409
 20
46.817811
 30
0.0
 11
-43.37629
 21
46.817811
 31
0.0
  0
LINE
  5
224E
  8
DETAIL
  6
CONTINUOUS
 62
     5
 10
-43.20353
 20
47.045467
 30
0.0
 11
-42.898186
 21
47.39261
 31
0.0
  0
LINE
  5
224F
  8
DETAIL
  6
CONTINUOUS
 62
     5
 10
-42.47538999999999
 20
47.39261
 30
0.0
 11
-42.777389
 21
47.045467
 31
0.0
  0
LINE
  5
2250
  8
DETAIL
  6
CONTINUOUS
 62
     5
 10
-43.827489
 20
47.39261
 30
0.0
 11
-44.011849
 21
47.159203
 31
0.0
  0
LINE
  5
2251
  8
DETAIL
  6
CONTINUOUS
 62
     5
 10
-44.011849
 20
47.159203
 30
0.0
 11
-44.16388499999999
 21
46.896045
 31
0.0
  0
LINE
  5
2252
  8
DETAIL
  6
CONTINUOUS
 62
     5
 10
-44.16388499999999
 20
46.896045
 30
0.0
 11
-44.27812499999999
 21
46.612533
 31
0.0
  0
LINE
  5
2253
  8
DETAIL
  6
CONTINUOUS
 62
     5
 10
-44.27812499999999
 20
46.612533
 30
0.0
 11
-44.35310699999999
 21
46.31222
 31
0.0
  0
LINE
  5
2254
  8
DETAIL
  6
CONTINUOUS
 62
     5
 10
-43.20353
 20
47.045467
 30
0.0
 11
-43.37973599999999
 21
46.811465
 31
0.0
  0
LINE
  5
2255
  8
DETAIL
  6
CONTINUOUS
 62
     5
 10
-43.37973599999999
 20
46.811465
 30
0.0
 11
-43.522903
 21
46.547783
 31
0.0
  0
LINE
  5
2256
  8
DETAIL
  6
CONTINUOUS
 62
     5
 10
-43.522903
 20
46.547783
 30
0.0
 11
-43.62792399999999
 21
46.263966
 31
0.0
  0
LINE
  5
2257
  8
DETAIL
  6
CONTINUOUS
 62
     5
 10
-43.62792399999999
 20
46.263966
 30
0.0
 11
-43.693513
 21
45.963957
 31
0.0
  0
LINE
  5
2258
  8
DETAIL
  6
CONTINUOUS
 62
     5
 10
-43.693513
 20
45.963957
 30
0.0
 11
-43.717553
 21
45.658571
 31
0.0
  0
LINE
  5
2259
  8
DETAIL
  6
CONTINUOUS
 62
     5
 10
-42.47538999999999
 20
47.39261
 30
0.0
 11
-42.64941499999999
 21
47.158697
 31
0.0
  0
LINE
  5
225A
  8
DETAIL
  6
CONTINUOUS
 62
     5
 10
-42.64941499999999
 20
47.158697
 30
0.0
 11
-42.79038
 21
46.895036
 31
0.0
  0
LINE
  5
225B
  8
DETAIL
  6
CONTINUOUS
 62
     5
 10
-42.79038
 20
46.895036
 30
0.0
 11
-42.893215
 21
46.611176
 31
0.0
  0
LINE
  5
225C
  8
DETAIL
  6
CONTINUOUS
 62
     5
 10
-42.893215
 20
46.611176
 30
0.0
 11
-42.956627
 21
46.311122
 31
0.0
  0
LINE
  5
225D
  8
DETAIL
  6
CONTINUOUS
 62
     5
 10
-42.956627
 20
46.311122
 30
0.0
 11
-42.978579
 21
46.005715
 31
0.0
  0
LINE
  5
225E
  8
DETAIL
  6
CONTINUOUS
 62
     5
 10
-43.28049999999999
 20
45.658571
 30
0.0
 11
-43.25855299999999
 21
45.963987
 31
0.0
  0
LINE
  5
225F
  8
DETAIL
  6
CONTINUOUS
 62
     5
 10
-43.25855299999999
 20
45.963987
 30
0.0
 11
-43.195149
 21
46.264046
 31
0.0
  0
LINE
  5
2260
  8
DETAIL
  6
CONTINUOUS
 62
     5
 10
-43.195149
 20
46.264046
 30
0.0
 11
-43.09232799999999
 21
46.547905
 31
0.0
  0
LINE
  5
2261
  8
DETAIL
  6
CONTINUOUS
 62
     5
 10
-43.09232799999999
 20
46.547905
 30
0.0
 11
-42.95138399999999
 21
46.811562
 31
0.0
  0
LINE
  5
2262
  8
DETAIL
  6
CONTINUOUS
 62
     5
 10
-42.95138399999999
 20
46.811562
 30
0.0
 11
-42.777389
 21
47.045467
 31
0.0
  0
LINE
  5
2263
  8
DETAIL
  6
CONTINUOUS
 62
     5
 10
-36.78935099999998
 20
47.045467
 30
0.0
 11
-36.48432199999999
 21
47.39261
 31
0.0
  0
LINE
  5
2264
  8
DETAIL
  6
CONTINUOUS
 62
     5
 10
-36.78935099999998
 20
47.045467
 30
0.0
 11
-36.96538699999999
 21
46.811562
 31
0.0
  0
LINE
  5
2265
  8
DETAIL
  6
CONTINUOUS
 62
     5
 10
-36.96538699999999
 20
46.811562
 30
0.0
 11
-37.108632
 21
46.547905
 31
0.0
  0
LINE
  5
2266
  8
DETAIL
  6
CONTINUOUS
 62
     5
 10
-37.108632
 20
46.547905
 30
0.0
 11
-37.21393
 21
46.264046
 31
0.0
  0
LINE
  5
2267
  8
DETAIL
  6
CONTINUOUS
 62
     5
 10
-37.21393
 20
46.264046
 30
0.0
 11
-37.27995300000001
 21
45.963987
 31
0.0
  0
LINE
  5
2268
  8
DETAIL
  6
CONTINUOUS
 62
     5
 10
-37.27995300000001
 20
45.963987
 30
0.0
 11
-37.304565
 21
45.658571
 31
0.0
  0
LINE
  5
2269
  8
DETAIL
  6
CONTINUOUS
 62
     5
 10
-36.26309699999999
 20
46.311091
 30
0.0
 11
-36.28447199999999
 21
46.005715
 31
0.0
  0
LINE
  5
226A
  8
DETAIL
  6
CONTINUOUS
 62
     5
 10
-36.586713
 20
45.658571
 30
0.0
 11
-36.56533899999999
 21
45.963957
 31
0.0
  0
LINE
  5
226B
  8
DETAIL
  6
CONTINUOUS
 62
     5
 10
-36.56533899999999
 20
45.963957
 30
0.0
 11
-36.50236799999999
 21
46.263966
 31
0.0
  0
LINE
  5
226C
  8
DETAIL
  6
CONTINUOUS
 62
     5
 10
-36.50236799999999
 20
46.263966
 30
0.0
 11
-36.399824
 21
46.547783
 31
0.0
  0
LINE
  5
226D
  8
DETAIL
  6
CONTINUOUS
 62
     5
 10
-36.399824
 20
46.547783
 30
0.0
 11
-36.25895800000001
 21
46.811465
 31
0.0
  0
LINE
  5
226E
  8
DETAIL
  6
CONTINUOUS
 62
     5
 10
-44.195409
 20
46.817811
 30
0.0
 11
-43.37629
 21
46.817811
 31
0.0
  0
LINE
  5
226F
  8
DETAIL
  6
CONTINUOUS
 62
     5
 10
-42.81835699999999
 20
46.817811
 30
0.0
 11
-36.96199200000001
 21
46.817811
 31
0.0
  0
LINE
  5
2270
  8
DETAIL
  6
CONTINUOUS
 62
     5
 10
-42.898186
 20
47.39261
 30
0.0
 11
-42.47538999999999
 21
47.39261
 31
0.0
  0
LINE
  5
2271
  8
DETAIL
  6
CONTINUOUS
 62
     5
 10
-44.57369
 20
41.110978
 30
0.0
 11
-44.386128
 21
46.005715
 31
0.0
  0
LINE
  5
2272
  8
DETAIL
  6
CONTINUOUS
 62
     5
 10
-44.57369
 20
41.110978
 30
0.0
 11
-44.386128
 21
46.005715
 31
0.0
  0
LINE
  5
2273
  8
DETAIL
  6
CONTINUOUS
 62
     5
 10
-44.35310699999999
 20
46.31222
 30
0.0
 11
-44.386128
 21
46.005715
 31
0.0
  0
LINE
  5
2274
  8
DETAIL
  6
CONTINUOUS
 62
     5
 10
-44.35310699999999
 20
46.31222
 30
0.0
 11
-44.386128
 21
46.005715
 31
0.0
  0
LINE
  5
2275
  8
DETAIL
  6
CONTINUOUS
 62
     5
 10
-36.51128299999999
 20
56.452448
 30
0.0
 11
-36.52140199999999
 21
56.655509
 31
0.0
  0
LINE
  5
2276
  8
DETAIL
  6
CONTINUOUS
 62
     5
 10
-36.47495599999999
 20
56.249489
 30
0.0
 11
-36.51128299999999
 21
56.452448
 31
0.0
  0
LINE
  5
2277
  8
DETAIL
  6
CONTINUOUS
 62
     5
 10
-36.43859799999998
 20
56.140843
 30
0.0
 11
-36.47495599999999
 21
56.249489
 31
0.0
  0
LINE
  5
2278
  8
DETAIL
  6
CONTINUOUS
 62
     5
 10
-39.54969399999999
 20
55.679901
 30
0.0
 11
-36.95965899999999
 21
55.679901
 31
0.0
  0
LINE
  5
2279
  8
DETAIL
  6
CONTINUOUS
 62
     5
 10
-36.52140199999999
 20
56.655509
 30
0.0
 11
-40.01403999999999
 21
56.655509
 31
0.0
  0
LINE
  5
227A
  8
DETAIL
  6
CONTINUOUS
 62
     5
 10
-39.66244699999999
 20
55.70623999999999
 30
0.0
 11
-39.54969399999999
 21
55.679901
 31
0.0
  0
LINE
  5
227B
  8
DETAIL
  6
CONTINUOUS
 62
     5
 10
-39.76602800000001
 20
55.783154
 30
0.0
 11
-39.66244699999999
 21
55.70623999999999
 31
0.0
  0
LINE
  5
227C
  8
DETAIL
  6
CONTINUOUS
 62
     5
 10
-39.85431299999999
 20
55.903341
 30
0.0
 11
-39.76602800000001
 21
55.783154
 31
0.0
  0
LINE
  5
227D
  8
DETAIL
  6
CONTINUOUS
 62
     5
 10
-39.92415299999999
 20
56.05732
 30
0.0
 11
-39.85431299999999
 21
55.903341
 31
0.0
  0
LINE
  5
227E
  8
DETAIL
  6
CONTINUOUS
 62
     5
 10
-39.975876
 20
56.243457
 30
0.0
 11
-39.92415299999999
 21
56.05732
 31
0.0
  0
LINE
  5
227F
  8
DETAIL
  6
CONTINUOUS
 62
     5
 10
-40.00594100000001
 20
56.44798
 30
0.0
 11
-39.975876
 21
56.243457
 31
0.0
  0
LINE
  5
2280
  8
DETAIL
  6
CONTINUOUS
 62
     5
 10
-40.01403999999999
 20
56.655509
 30
0.0
 11
-40.00594100000001
 21
56.44798
 31
0.0
  0
LINE
  5
2281
  8
DETAIL
  6
CONTINUOUS
 62
     5
 10
-42.15133299999999
 20
53.214198
 30
0.0
 11
-41.95171499999999
 21
57.425099
 31
0.0
  0
LINE
  5
2282
  8
DETAIL
  6
CONTINUOUS
 62
     5
 10
-43.14718099999999
 20
48.091712
 30
0.0
 11
-42.15133299999999
 21
53.214198
 31
0.0
  0
LINE
  5
2283
  8
DETAIL
  6
CONTINUOUS
 62
     5
 10
-36.350213
 20
56.44798
 30
0.0
 11
-36.332053
 21
56.655509
 31
0.0
  0
LINE
  5
2284
  8
DETAIL
  6
CONTINUOUS
 62
     5
 10
-36.39739900000001
 20
56.243457
 30
0.0
 11
-36.350213
 21
56.44798
 31
0.0
  0
LINE
  5
2285
  8
DETAIL
  6
CONTINUOUS
 62
     5
 10
-36.47213099999999
 20
56.05732
 30
0.0
 11
-36.39739900000001
 21
56.243457
 31
0.0
  0
LINE
  5
2286
  8
DETAIL
  6
CONTINUOUS
 62
     5
 10
-36.56850699999998
 20
55.903341
 30
0.0
 11
-36.47213099999999
 21
56.05732
 31
0.0
  0
LINE
  5
2287
  8
DETAIL
  6
CONTINUOUS
 62
     5
 10
-36.686002
 20
55.783154
 30
0.0
 11
-36.56850699999998
 21
55.903341
 31
0.0
  0
LINE
  5
2288
  8
DETAIL
  6
CONTINUOUS
 62
     5
 10
-36.819287
 20
55.70623999999999
 30
0.0
 11
-36.686002
 21
55.783154
 31
0.0
  0
LINE
  5
2289
  8
DETAIL
  6
CONTINUOUS
 62
     5
 10
-36.95965899999999
 20
55.679901
 30
0.0
 11
-36.819287
 21
55.70623999999999
 31
0.0
  0
LINE
  5
228A
  8
DETAIL
  6
CONTINUOUS
 62
     5
 10
-36.95965899999999
 20
55.679901
 30
0.0
 11
-36.819287
 21
55.70623999999999
 31
0.0
  0
LINE
  5
228B
  8
DETAIL
  6
CONTINUOUS
 62
     5
 10
-36.819287
 20
55.70623999999999
 30
0.0
 11
-36.686002
 21
55.783154
 31
0.0
  0
LINE
  5
228C
  8
DETAIL
  6
CONTINUOUS
 62
     5
 10
-36.686002
 20
55.783154
 30
0.0
 11
-36.56850699999998
 21
55.903341
 31
0.0
  0
LINE
  5
228D
  8
DETAIL
  6
CONTINUOUS
 62
     5
 10
-36.56850699999998
 20
55.903341
 30
0.0
 11
-36.47213099999999
 21
56.05732
 31
0.0
  0
LINE
  5
228E
  8
DETAIL
  6
CONTINUOUS
 62
     5
 10
-36.47213099999999
 20
56.05732
 30
0.0
 11
-36.39739900000001
 21
56.243457
 31
0.0
  0
LINE
  5
228F
  8
DETAIL
  6
CONTINUOUS
 62
     5
 10
-36.39739900000001
 20
56.243457
 30
0.0
 11
-36.350213
 21
56.44798
 31
0.0
  0
LINE
  5
2290
  8
DETAIL
  6
CONTINUOUS
 62
     5
 10
-36.350213
 20
56.44798
 30
0.0
 11
-36.332053
 21
56.655509
 31
0.0
  0
LINE
  5
2291
  8
DETAIL
  6
CONTINUOUS
 62
     5
 10
-43.14718099999999
 20
48.091712
 30
0.0
 11
-42.15133299999999
 21
53.214198
 31
0.0
  0
LINE
  5
2292
  8
DETAIL
  6
CONTINUOUS
 62
     5
 10
-42.15133299999999
 20
53.214198
 30
0.0
 11
-41.95171499999999
 21
57.425099
 31
0.0
  0
LINE
  5
2293
  8
DETAIL
  6
CONTINUOUS
 62
     5
 10
-40.01403999999999
 20
56.655509
 30
0.0
 11
-40.00594100000001
 21
56.44798
 31
0.0
  0
LINE
  5
2294
  8
DETAIL
  6
CONTINUOUS
 62
     5
 10
-40.00594100000001
 20
56.44798
 30
0.0
 11
-39.975876
 21
56.243457
 31
0.0
  0
LINE
  5
2295
  8
DETAIL
  6
CONTINUOUS
 62
     5
 10
-39.975876
 20
56.243457
 30
0.0
 11
-39.92415299999999
 21
56.05732
 31
0.0
  0
LINE
  5
2296
  8
DETAIL
  6
CONTINUOUS
 62
     5
 10
-39.92415299999999
 20
56.05732
 30
0.0
 11
-39.85431299999999
 21
55.903341
 31
0.0
  0
LINE
  5
2297
  8
DETAIL
  6
CONTINUOUS
 62
     5
 10
-39.85431299999999
 20
55.903341
 30
0.0
 11
-39.76602800000001
 21
55.783154
 31
0.0
  0
LINE
  5
2298
  8
DETAIL
  6
CONTINUOUS
 62
     5
 10
-39.76602800000001
 20
55.783154
 30
0.0
 11
-39.66244699999999
 21
55.70623999999999
 31
0.0
  0
LINE
  5
2299
  8
DETAIL
  6
CONTINUOUS
 62
     5
 10
-39.66244699999999
 20
55.70623999999999
 30
0.0
 11
-39.54969399999999
 21
55.679901
 31
0.0
  0
LINE
  5
229A
  8
DETAIL
  6
CONTINUOUS
 62
     5
 10
-36.52140199999999
 20
56.655509
 30
0.0
 11
-40.01403999999999
 21
56.655509
 31
0.0
  0
LINE
  5
229B
  8
DETAIL
  6
CONTINUOUS
 62
     5
 10
-39.54969399999999
 20
55.679901
 30
0.0
 11
-36.95965899999999
 21
55.679901
 31
0.0
  0
LINE
  5
229C
  8
DETAIL
  6
CONTINUOUS
 62
     5
 10
-36.43859799999998
 20
56.140843
 30
0.0
 11
-36.47495599999999
 21
56.249489
 31
0.0
  0
LINE
  5
229D
  8
DETAIL
  6
CONTINUOUS
 62
     5
 10
-36.47495599999999
 20
56.249489
 30
0.0
 11
-36.51128299999999
 21
56.452448
 31
0.0
  0
LINE
  5
229E
  8
DETAIL
  6
CONTINUOUS
 62
     5
 10
-36.51128299999999
 20
56.452448
 30
0.0
 11
-36.52140199999999
 21
56.655509
 31
0.0
  0
LINE
  5
229F
  8
DETAIL
  6
CONTINUOUS
 62
     5
 10
-43.14718099999999
 20
48.091712
 30
0.0
 11
-43.827489
 21
47.39261
 31
0.0
  0
LINE
  5
22A0
  8
DETAIL
  6
CONTINUOUS
 62
     5
 10
-43.14718099999999
 20
48.091712
 30
0.0
 11
-43.827489
 21
47.39261
 31
0.0
  0
LINE
  5
22A1
  8
DETAIL
  6
CONTINUOUS
 62
     5
 10
-37.36914099999998
 20
61.63752599999999
 30
0.0
 11
-37.36914099999998
 21
62.630463
 31
0.0
  0
LINE
  5
22A2
  8
DETAIL
  6
CONTINUOUS
 62
     5
 10
-38.560666
 20
61.63752599999999
 30
0.0
 11
-38.560666
 21
62.630463
 31
0.0
  0
LINE
  5
22A3
  8
DETAIL
  6
CONTINUOUS
 62
     5
 10
-37.369247
 20
62.630463
 30
0.0
 11
-38.56055899999998
 21
62.630463
 31
0.0
  0
LINE
  5
22A4
  8
DETAIL
  6
CONTINUOUS
 62
     5
 10
-37.369247
 20
62.630463
 30
0.0
 11
-38.56055899999998
 21
62.630463
 31
0.0
  0
LINE
  5
22A5
  8
DETAIL
  6
CONTINUOUS
 62
     5
 10
-38.560666
 20
61.63752599999999
 30
0.0
 11
-38.560666
 21
62.630463
 31
0.0
  0
LINE
  5
22A6
  8
DETAIL
  6
CONTINUOUS
 62
     5
 10
-37.36914099999998
 20
61.63752599999999
 30
0.0
 11
-37.36914099999998
 21
62.630463
 31
0.0
  0
LINE
  5
22A7
  8
DETAIL
  6
CONTINUOUS
 62
     5
 10
-36.47119499999999
 20
61.63752599999999
 30
0.0
 11
-36.52140199999999
 21
56.655509
 31
0.0
  0
LINE
  5
22A8
  8
DETAIL
  6
CONTINUOUS
 62
     5
 10
-36.22915699999999
 20
61.63752599999999
 30
0.0
 11
-36.332053
 21
56.655509
 31
0.0
  0
LINE
  5
22A9
  8
DETAIL
  6
CONTINUOUS
 62
     5
 10
-39.95886899999999
 20
61.63752599999999
 30
0.0
 11
-40.01403999999999
 21
56.655509
 31
0.0
  0
LINE
  5
22AA
  8
DETAIL
  6
CONTINUOUS
 62
     5
 10
-41.95171499999999
 20
57.425099
 30
0.0
 11
-41.74860299999999
 21
61.63752599999999
 31
0.0
  0
LINE
  5
22AB
  8
DETAIL
  6
CONTINUOUS
 62
     5
 10
-41.95171499999999
 20
57.425099
 30
0.0
 11
-41.74860299999999
 21
61.63752599999999
 31
0.0
  0
LINE
  5
22AC
  8
DETAIL
  6
CONTINUOUS
 62
     5
 10
-39.95886899999999
 20
61.63752599999999
 30
0.0
 11
-40.01403999999999
 21
56.655509
 31
0.0
  0
LINE
  5
22AD
  8
DETAIL
  6
CONTINUOUS
 62
     5
 10
-36.22915699999999
 20
61.63752599999999
 30
0.0
 11
-36.332053
 21
56.655509
 31
0.0
  0
LINE
  5
22AE
  8
DETAIL
  6
CONTINUOUS
 62
     5
 10
-36.47119499999999
 20
61.63752599999999
 30
0.0
 11
-36.52140199999999
 21
56.655509
 31
0.0
  0
LINE
  5
22AF
  8
DETAIL
  6
CONTINUOUS
 62
     5
 10
-36.586713
 20
45.658571
 30
0.0
 11
-36.65313499999999
 21
13.976529
 31
0.0
  0
LINE
  5
22B0
  8
DETAIL
  6
CONTINUOUS
 62
     5
 10
-43.14718099999999
 20
48.091712
 30
0.0
 11
-33.44399200000001
 21
48.091712
 31
0.0
  0
LINE
  5
22B1
  8
DETAIL
  6
CONTINUOUS
 62
     5
 10
-36.25895800000001
 20
46.811465
 30
0.0
 11
-36.08479399999999
 21
47.045467
 31
0.0
  0
LINE
  5
22B2
  8
DETAIL
  6
CONTINUOUS
 62
     5
 10
-36.200121
 20
46.611095
 30
0.0
 11
-36.26309699999999
 21
46.311091
 31
0.0
  0
LINE
  5
22B3
  8
DETAIL
  6
CONTINUOUS
 62
     5
 10
-36.48432199999999
 20
47.39261
 30
0.0
 11
-35.782479
 21
47.39261
 31
0.0
  0
LINE
  5
22B4
  8
DETAIL
  6
CONTINUOUS
 62
     5
 10
-36.200121
 20
46.611095
 30
0.0
 11
-36.26309699999999
 21
46.311091
 31
0.0
  0
LINE
  5
22B5
  8
DETAIL
  6
CONTINUOUS
 62
     5
 10
-36.25895800000001
 20
46.811465
 30
0.0
 11
-36.08479399999999
 21
47.045467
 31
0.0
  0
LINE
  5
22B6
  8
DETAIL
  6
CONTINUOUS
 62
     5
 10
-36.48432199999999
 20
47.39261
 30
0.0
 11
-35.782479
 21
47.39261
 31
0.0
  0
LINE
  5
22B7
  8
DETAIL
  6
CONTINUOUS
 62
     5
 10
-40.75412399999999
 20
62.681614
 30
0.0
 11
-40.729799
 21
69.195899
 31
0.0
  0
LINE
  5
22B8
  8
DETAIL
  6
CONTINUOUS
 62
     5
 10
-36.28447199999999
 20
46.005715
 30
0.0
 11
-36.33789300000001
 21
0.116816
 31
0.0
  0
LINE
  5
22B9
  8
DETAIL
  6
CONTINUOUS
 62
     5
 10
-36.586713
 20
45.658571
 30
0.0
 11
-36.77926199999999
 21
0.135824999999997
 31
0.0
  0
LINE
  5
22BA
  8
DETAIL
  6
CONTINUOUS
 62
     5
 10
-37.304565
 20
45.658571
 30
0.0
 11
-37.69229300000001
 21
0.218792999999998
 31
0.0
  0
LINE
  5
22BB
  8
DETAIL
  6
CONTINUOUS
 62
     5
 10
-42.978579
 20
46.005715
 30
0.0
 11
-43.08746599999999
 21
0.135824999999997
 31
0.0
  0
LINE
  5
22BC
  8
DETAIL
  6
CONTINUOUS
 62
     5
 10
-43.28049999999999
 20
45.658571
 30
0.0
 11
-43.585482
 21
0.135824999999997
 31
0.0
  0
LINE
  5
22BD
  8
DETAIL
  6
CONTINUOUS
 62
     5
 10
-43.717553
 20
45.658571
 30
0.0
 11
-44.00049799999999
 21
0.135824999999997
 31
0.0
  0
LINE
  5
22BE
  8
DETAIL
  6
CONTINUOUS
 62
     5
 10
-43.717553
 20
45.658571
 30
0.0
 11
-44.00049799999999
 21
0.135824999999997
 31
0.0
  0
LINE
  5
22BF
  8
DETAIL
  6
CONTINUOUS
 62
     5
 10
-43.28049999999999
 20
45.658571
 30
0.0
 11
-43.585482
 21
0.135824999999997
 31
0.0
  0
LINE
  5
22C0
  8
DETAIL
  6
CONTINUOUS
 62
     5
 10
-42.978579
 20
46.005715
 30
0.0
 11
-43.08746599999999
 21
0.135824999999997
 31
0.0
  0
LINE
  5
22C1
  8
DETAIL
  6
CONTINUOUS
 62
     5
 10
-37.304565
 20
45.658571
 30
0.0
 11
-37.69229300000001
 21
0.218792999999998
 31
0.0
  0
LINE
  5
22C2
  8
DETAIL
  6
CONTINUOUS
 62
     5
 10
-36.28447199999999
 20
46.005715
 30
0.0
 11
-36.33789300000001
 21
0.116816
 31
0.0
  0
LINE
  5
22C3
  8
DETAIL
  6
CONTINUOUS
 62
     5
 10
31.504413
 20
69.283227
 30
0.0
 11
31.667145
 21
75.518309
 31
0.0
  0
LINE
  5
22C4
  8
DETAIL
  6
CONTINUOUS
 62
     5
 10
40.343671
 20
62.63186899999999
 30
0.0
 11
40.352521
 21
69.066216
 31
0.0
  0
ARC
  5
22C5
  8
DETAIL
  6
CONTINUOUS
 62
     5
 10
26.67660800000002
 20
75.467164
 30
0.0
 40
5.0
 50
0.0
 51
90.0
  0
LINE
  5
22C6
  8
DETAIL
  6
CONTINUOUS
 62
     5
 10
31.70796799999999
 20
61.63752599999999
 30
0.0
 11
31.70796799999999
 21
69.137526
 31
0.0
  0
LINE
  5
22C7
  8
DETAIL
  6
CONTINUOUS
 62
     5
 10
36.90025800000001
 20
47.39261
 30
0.0
 11
36.19841500000001
 21
47.39261
 31
0.0
  0
LINE
  5
22C8
  8
DETAIL
  6
CONTINUOUS
 62
     5
 10
43.46900500000001
 20
48.06182
 30
0.0
 11
33.765815
 21
48.06182
 31
0.0
  0
LINE
  5
22C9
  8
DETAIL
  6
CONTINUOUS
 62
     5
 10
36.67489399999999
 20
46.811465
 30
0.0
 11
36.50073
 21
47.045467
 31
0.0
  0
LINE
  5
22CA
  8
DETAIL
  6
CONTINUOUS
 62
     5
 10
36.61605700000001
 20
46.611095
 30
0.0
 11
36.679033
 21
46.311091
 31
0.0
  0
LINE
  5
22CB
  8
DETAIL
  6
CONTINUOUS
 62
     5
 10
42.16453899999999
 20
61.63752599999999
 30
0.0
 11
31.70796799999999
 21
61.63752599999999
 31
0.0
  0
LINE
  5
22CC
  8
DETAIL
  6
CONTINUOUS
 62
     5
 10
36.90025800000001
 20
47.39261
 30
0.0
 11
36.19841500000001
 21
47.39261
 31
0.0
  0
LINE
  5
22CD
  8
DETAIL
  6
CONTINUOUS
 62
     5
 10
36.61605700000001
 20
46.611095
 30
0.0
 11
36.679033
 21
46.311091
 31
0.0
  0
LINE
  5
22CE
  8
DETAIL
  6
CONTINUOUS
 62
     5
 10
36.67489399999999
 20
46.811465
 30
0.0
 11
36.50073
 21
47.045467
 31
0.0
  0
LINE
  5
22CF
  8
DETAIL
  6
CONTINUOUS
 62
     5
 10
43.64100999999999
 20
48.06182
 30
0.0
 11
33.83172000000002
 21
48.06182
 31
0.0
  0
LINE
  5
22D0
  8
DETAIL
  6
CONTINUOUS
 62
     5
 10
45.62533200000001
 20
35.201178
 30
0.0
 11
44.98962600000002
 21
41.110978
 31
0.0
  0
LINE
  5
22D1
  8
DETAIL
  6
CONTINUOUS
 62
     5
 10
36.88713100000001
 20
61.63752599999999
 30
0.0
 11
36.93733800000001
 21
56.655509
 31
0.0
  0
LINE
  5
22D2
  8
DETAIL
  6
CONTINUOUS
 62
     5
 10
36.645093
 20
61.63752599999999
 30
0.0
 11
36.74798900000002
 21
56.655509
 31
0.0
  0
LINE
  5
22D3
  8
DETAIL
  6
CONTINUOUS
 62
     5
 10
40.37480500000001
 20
61.63752599999999
 30
0.0
 11
40.42997600000001
 21
56.655509
 31
0.0
  0
LINE
  5
22D4
  8
DETAIL
  6
CONTINUOUS
 62
     5
 10
43.24528900000001
 20
56.48160799999999
 30
0.0
 11
42.16453899999999
 21
61.63752599999999
 31
0.0
  0
LINE
  5
22D5
  8
DETAIL
  6
CONTINUOUS
 62
     5
 10
43.24528900000001
 20
56.48160799999999
 30
0.0
 11
42.16453899999999
 21
61.63752599999999
 31
0.0
  0
LINE
  5
22D6
  8
DETAIL
  6
CONTINUOUS
 62
     5
 10
40.37480500000001
 20
61.63752599999999
 30
0.0
 11
40.42997600000001
 21
56.655509
 31
0.0
  0
LINE
  5
22D7
  8
DETAIL
  6
CONTINUOUS
 62
     5
 10
36.645093
 20
61.63752599999999
 30
0.0
 11
36.74798900000002
 21
56.655509
 31
0.0
  0
LINE
  5
22D8
  8
DETAIL
  6
CONTINUOUS
 62
     5
 10
36.88713100000001
 20
61.63752599999999
 30
0.0
 11
36.93733800000001
 21
56.655509
 31
0.0
  0
LINE
  5
22D9
  8
DETAIL
  6
CONTINUOUS
 62
     5
 10
37.785077
 20
61.63752599999999
 30
0.0
 11
37.785077
 21
62.630463
 31
0.0
  0
LINE
  5
22DA
  8
DETAIL
  6
CONTINUOUS
 62
     5
 10
38.97660200000001
 20
61.63752599999999
 30
0.0
 11
38.97660200000001
 21
62.630463
 31
0.0
  0
LINE
  5
22DB
  8
DETAIL
  6
CONTINUOUS
 62
     5
 10
37.78518300000002
 20
62.630463
 30
0.0
 11
38.976495
 21
62.630463
 31
0.0
  0
LINE
  5
22DC
  8
DETAIL
  6
CONTINUOUS
 62
     5
 10
37.78518300000002
 20
62.630463
 30
0.0
 11
38.976495
 21
62.630463
 31
0.0
  0
LINE
  5
22DD
  8
DETAIL
  6
CONTINUOUS
 62
     5
 10
38.97660200000001
 20
61.63752599999999
 30
0.0
 11
38.97660200000001
 21
62.630463
 31
0.0
  0
LINE
  5
22DE
  8
DETAIL
  6
CONTINUOUS
 62
     5
 10
37.785077
 20
61.63752599999999
 30
0.0
 11
37.785077
 21
62.630463
 31
0.0
  0
LINE
  5
22DF
  8
DETAIL
  6
CONTINUOUS
 62
     5
 10
43.64100999999999
 20
48.06182
 30
0.0
 11
44.243425
 21
47.39261
 31
0.0
  0
LINE
  5
22E0
  8
DETAIL
  6
CONTINUOUS
 62
     5
 10
43.62925899999999
 20
48.06182
 30
0.0
 11
44.243425
 21
47.39261
 31
0.0
  0
LINE
  5
22E1
  8
DETAIL
  6
CONTINUOUS
 62
     5
 10
36.92721800000001
 20
56.452448
 30
0.0
 11
36.93733800000001
 21
56.655509
 31
0.0
  0
LINE
  5
22E2
  8
DETAIL
  6
CONTINUOUS
 62
     5
 10
36.89089200000001
 20
56.249489
 30
0.0
 11
36.92721800000001
 21
56.452448
 31
0.0
  0
LINE
  5
22E3
  8
DETAIL
  6
CONTINUOUS
 62
     5
 10
36.854534
 20
56.140843
 30
0.0
 11
36.89089200000001
 21
56.249489
 31
0.0
  0
LINE
  5
22E4
  8
DETAIL
  6
CONTINUOUS
 62
     5
 10
39.96563
 20
55.679901
 30
0.0
 11
37.375595
 21
55.679901
 31
0.0
  0
LINE
  5
22E5
  8
DETAIL
  6
CONTINUOUS
 62
     5
 10
36.93733800000001
 20
56.655509
 30
0.0
 11
40.42997600000001
 21
56.655509
 31
0.0
  0
LINE
  5
22E6
  8
DETAIL
  6
CONTINUOUS
 62
     5
 10
40.078383
 20
55.70623999999999
 30
0.0
 11
39.96563
 21
55.679901
 31
0.0
  0
LINE
  5
22E7
  8
DETAIL
  6
CONTINUOUS
 62
     5
 10
40.18196399999999
 20
55.783154
 30
0.0
 11
40.078383
 21
55.70623999999999
 31
0.0
  0
LINE
  5
22E8
  8
DETAIL
  6
CONTINUOUS
 62
     5
 10
40.27024800000001
 20
55.903341
 30
0.0
 11
40.18196399999999
 21
55.783154
 31
0.0
  0
LINE
  5
22E9
  8
DETAIL
  6
CONTINUOUS
 62
     5
 10
40.34008900000001
 20
56.05732
 30
0.0
 11
40.27024800000001
 21
55.903341
 31
0.0
  0
LINE
  5
22EA
  8
DETAIL
  6
CONTINUOUS
 62
     5
 10
40.39181200000002
 20
56.243457
 30
0.0
 11
40.34008900000001
 21
56.05732
 31
0.0
  0
LINE
  5
22EB
  8
DETAIL
  6
CONTINUOUS
 62
     5
 10
40.42187699999999
 20
56.44798
 30
0.0
 11
40.39181200000002
 21
56.243457
 31
0.0
  0
LINE
  5
22EC
  8
DETAIL
  6
CONTINUOUS
 62
     5
 10
40.42997600000001
 20
56.655509
 30
0.0
 11
40.42187699999999
 21
56.44798
 31
0.0
  0
LINE
  5
22ED
  8
DETAIL
  6
CONTINUOUS
 62
     5
 10
43.444907
 20
52.270707
 30
0.0
 11
43.24528900000001
 21
56.48160799999999
 31
0.0
  0
LINE
  5
22EE
  8
DETAIL
  6
CONTINUOUS
 62
     5
 10
43.64100999999999
 20
48.06182
 30
0.0
 11
43.444907
 21
52.270707
 31
0.0
  0
LINE
  5
22EF
  8
DETAIL
  6
CONTINUOUS
 62
     5
 10
36.76614800000002
 20
56.44798
 30
0.0
 11
36.74798900000002
 21
56.655509
 31
0.0
  0
LINE
  5
22F0
  8
DETAIL
  6
CONTINUOUS
 62
     5
 10
36.813335
 20
56.243457
 30
0.0
 11
36.76614800000002
 21
56.44798
 31
0.0
  0
LINE
  5
22F1
  8
DETAIL
  6
CONTINUOUS
 62
     5
 10
36.88806700000001
 20
56.05732
 30
0.0
 11
36.813335
 21
56.243457
 31
0.0
  0
LINE
  5
22F2
  8
DETAIL
  6
CONTINUOUS
 62
     5
 10
36.984443
 20
55.903341
 30
0.0
 11
36.88806700000001
 21
56.05732
 31
0.0
  0
LINE
  5
22F3
  8
DETAIL
  6
CONTINUOUS
 62
     5
 10
37.10193699999999
 20
55.783154
 30
0.0
 11
36.984443
 21
55.903341
 31
0.0
  0
LINE
  5
22F4
  8
DETAIL
  6
CONTINUOUS
 62
     5
 10
37.23522299999999
 20
55.70623999999999
 30
0.0
 11
37.10193699999999
 21
55.783154
 31
0.0
  0
LINE
  5
22F5
  8
DETAIL
  6
CONTINUOUS
 62
     5
 10
37.375595
 20
55.679901
 30
0.0
 11
37.23522299999999
 21
55.70623999999999
 31
0.0
  0
LINE
  5
22F6
  8
DETAIL
  6
CONTINUOUS
 62
     5
 10
37.375595
 20
55.679901
 30
0.0
 11
37.23522299999999
 21
55.70623999999999
 31
0.0
  0
LINE
  5
22F7
  8
DETAIL
  6
CONTINUOUS
 62
     5
 10
37.23522299999999
 20
55.70623999999999
 30
0.0
 11
37.10193699999999
 21
55.783154
 31
0.0
  0
LINE
  5
22F8
  8
DETAIL
  6
CONTINUOUS
 62
     5
 10
37.10193699999999
 20
55.783154
 30
0.0
 11
36.984443
 21
55.903341
 31
0.0
  0
LINE
  5
22F9
  8
DETAIL
  6
CONTINUOUS
 62
     5
 10
36.984443
 20
55.903341
 30
0.0
 11
36.88806700000001
 21
56.05732
 31
0.0
  0
LINE
  5
22FA
  8
DETAIL
  6
CONTINUOUS
 62
     5
 10
36.88806700000001
 20
56.05732
 30
0.0
 11
36.813335
 21
56.243457
 31
0.0
  0
LINE
  5
22FB
  8
DETAIL
  6
CONTINUOUS
 62
     5
 10
36.813335
 20
56.243457
 30
0.0
 11
36.76614800000002
 21
56.44798
 31
0.0
  0
LINE
  5
22FC
  8
DETAIL
  6
CONTINUOUS
 62
     5
 10
36.76614800000002
 20
56.44798
 30
0.0
 11
36.74798900000002
 21
56.655509
 31
0.0
  0
LINE
  5
22FD
  8
DETAIL
  6
CONTINUOUS
 62
     5
 10
43.64100999999999
 20
48.06182
 30
0.0
 11
43.444907
 21
52.270707
 31
0.0
  0
LINE
  5
22FE
  8
DETAIL
  6
CONTINUOUS
 62
     5
 10
43.444907
 20
52.270707
 30
0.0
 11
43.24528900000001
 21
56.48160799999999
 31
0.0
  0
LINE
  5
22FF
  8
DETAIL
  6
CONTINUOUS
 62
     5
 10
40.42997600000001
 20
56.655509
 30
0.0
 11
40.42187699999999
 21
56.44798
 31
0.0
  0
LINE
  5
2300
  8
DETAIL
  6
CONTINUOUS
 62
     5
 10
40.42187699999999
 20
56.44798
 30
0.0
 11
40.39181200000002
 21
56.243457
 31
0.0
  0
LINE
  5
2301
  8
DETAIL
  6
CONTINUOUS
 62
     5
 10
40.39181200000002
 20
56.243457
 30
0.0
 11
40.34008900000001
 21
56.05732
 31
0.0
  0
LINE
  5
2302
  8
DETAIL
  6
CONTINUOUS
 62
     5
 10
40.34008900000001
 20
56.05732
 30
0.0
 11
40.27024800000001
 21
55.903341
 31
0.0
  0
LINE
  5
2303
  8
DETAIL
  6
CONTINUOUS
 62
     5
 10
40.27024800000001
 20
55.903341
 30
0.0
 11
40.18196399999999
 21
55.783154
 31
0.0
  0
LINE
  5
2304
  8
DETAIL
  6
CONTINUOUS
 62
     5
 10
40.18196399999999
 20
55.783154
 30
0.0
 11
40.078383
 21
55.70623999999999
 31
0.0
  0
LINE
  5
2305
  8
DETAIL
  6
CONTINUOUS
 62
     5
 10
40.078383
 20
55.70623999999999
 30
0.0
 11
39.96563
 21
55.679901
 31
0.0
  0
LINE
  5
2306
  8
DETAIL
  6
CONTINUOUS
 62
     5
 10
36.93733800000001
 20
56.655509
 30
0.0
 11
40.42997600000001
 21
56.655509
 31
0.0
  0
LINE
  5
2307
  8
DETAIL
  6
CONTINUOUS
 62
     5
 10
39.96563
 20
55.679901
 30
0.0
 11
37.375595
 21
55.679901
 31
0.0
  0
LINE
  5
2308
  8
DETAIL
  6
CONTINUOUS
 62
     5
 10
36.854534
 20
56.140843
 30
0.0
 11
36.89089200000001
 21
56.249489
 31
0.0
  0
LINE
  5
2309
  8
DETAIL
  6
CONTINUOUS
 62
     5
 10
36.89089200000001
 20
56.249489
 30
0.0
 11
36.92721800000001
 21
56.452448
 31
0.0
  0
LINE
  5
230A
  8
DETAIL
  6
CONTINUOUS
 62
     5
 10
36.92721800000001
 20
56.452448
 30
0.0
 11
36.93733800000001
 21
56.655509
 31
0.0
  0
LINE
  5
230B
  8
DETAIL
  6
CONTINUOUS
 62
     5
 10
44.76904300000001
 20
46.31222
 30
0.0
 11
44.802064
 21
46.005715
 31
0.0
  0
LINE
  5
230C
  8
DETAIL
  6
CONTINUOUS
 62
     5
 10
44.76904300000001
 20
46.31222
 30
0.0
 11
44.802064
 21
46.005715
 31
0.0
  0
LINE
  5
230D
  8
DETAIL
  6
CONTINUOUS
 62
     5
 10
44.98962600000002
 20
41.110978
 30
0.0
 11
44.802064
 21
46.005715
 31
0.0
  0
LINE
  5
230E
  8
DETAIL
  6
CONTINUOUS
 62
     5
 10
44.98962600000002
 20
41.110978
 30
0.0
 11
44.802064
 21
46.005715
 31
0.0
  0
LINE
  5
230F
  8
DETAIL
  6
CONTINUOUS
 62
     5
 10
43.314122
 20
47.39261
 30
0.0
 11
42.89132499999999
 21
47.39261
 31
0.0
  0
LINE
  5
2310
  8
DETAIL
  6
CONTINUOUS
 62
     5
 10
43.23429300000001
 20
46.817811
 30
0.0
 11
37.377928
 21
46.817811
 31
0.0
  0
LINE
  5
2311
  8
DETAIL
  6
CONTINUOUS
 62
     5
 10
44.611345
 20
46.817811
 30
0.0
 11
43.792226
 21
46.817811
 31
0.0
  0
LINE
  5
2312
  8
DETAIL
  6
CONTINUOUS
 62
     5
 10
36.81575900000001
 20
46.547783
 30
0.0
 11
36.67489399999999
 21
46.811465
 31
0.0
  0
LINE
  5
2313
  8
DETAIL
  6
CONTINUOUS
 62
     5
 10
36.91830400000001
 20
46.263966
 30
0.0
 11
36.81575900000001
 21
46.547783
 31
0.0
  0
LINE
  5
2314
  8
DETAIL
  6
CONTINUOUS
 62
     5
 10
36.98127500000001
 20
45.963957
 30
0.0
 11
36.91830400000001
 21
46.263966
 31
0.0
  0
LINE
  5
2315
  8
DETAIL
  6
CONTINUOUS
 62
     5
 10
37.00264899999999
 20
45.658571
 30
0.0
 11
36.98127500000001
 21
45.963957
 31
0.0
  0
LINE
  5
2316
  8
DETAIL
  6
CONTINUOUS
 62
     5
 10
36.679033
 20
46.311091
 30
0.0
 11
36.70040800000001
 21
46.005715
 31
0.0
  0
LINE
  5
2317
  8
DETAIL
  6
CONTINUOUS
 62
     5
 10
37.69588899999999
 20
45.963987
 30
0.0
 11
37.72050100000001
 21
45.658571
 31
0.0
  0
LINE
  5
2318
  8
DETAIL
  6
CONTINUOUS
 62
     5
 10
37.62986599999999
 20
46.264046
 30
0.0
 11
37.69588899999999
 21
45.963987
 31
0.0
  0
LINE
  5
2319
  8
DETAIL
  6
CONTINUOUS
 62
     5
 10
37.52456800000002
 20
46.547905
 30
0.0
 11
37.62986599999999
 21
46.264046
 31
0.0
  0
LINE
  5
231A
  8
DETAIL
  6
CONTINUOUS
 62
     5
 10
37.38132300000001
 20
46.811562
 30
0.0
 11
37.52456800000002
 21
46.547905
 31
0.0
  0
LINE
  5
231B
  8
DETAIL
  6
CONTINUOUS
 62
     5
 10
37.205287
 20
47.045467
 30
0.0
 11
37.38132300000001
 21
46.811562
 31
0.0
  0
LINE
  5
231C
  8
DETAIL
  6
CONTINUOUS
 62
     5
 10
37.205287
 20
47.045467
 30
0.0
 11
36.90025800000001
 21
47.39261
 31
0.0
  0
LINE
  5
231D
  8
DETAIL
  6
CONTINUOUS
 62
     5
 10
43.36732000000001
 20
46.811562
 30
0.0
 11
43.19332500000002
 21
47.045467
 31
0.0
  0
LINE
  5
231E
  8
DETAIL
  6
CONTINUOUS
 62
     5
 10
43.508264
 20
46.547905
 30
0.0
 11
43.36732000000001
 21
46.811562
 31
0.0
  0
LINE
  5
231F
  8
DETAIL
  6
CONTINUOUS
 62
     5
 10
43.611085
 20
46.264046
 30
0.0
 11
43.508264
 21
46.547905
 31
0.0
  0
LINE
  5
2320
  8
DETAIL
  6
CONTINUOUS
 62
     5
 10
43.67448899999999
 20
45.963987
 30
0.0
 11
43.611085
 21
46.264046
 31
0.0
  0
LINE
  5
2321
  8
DETAIL
  6
CONTINUOUS
 62
     5
 10
43.69643600000001
 20
45.658571
 30
0.0
 11
43.67448899999999
 21
45.963987
 31
0.0
  0
LINE
  5
2322
  8
DETAIL
  6
CONTINUOUS
 62
     5
 10
43.37256300000001
 20
46.311122
 30
0.0
 11
43.39451500000001
 21
46.005715
 31
0.0
  0
LINE
  5
2323
  8
DETAIL
  6
CONTINUOUS
 62
     5
 10
43.30915100000001
 20
46.611176
 30
0.0
 11
43.37256300000001
 21
46.311122
 31
0.0
  0
LINE
  5
2324
  8
DETAIL
  6
CONTINUOUS
 62
     5
 10
43.20631600000002
 20
46.895036
 30
0.0
 11
43.30915100000001
 21
46.611176
 31
0.0
  0
LINE
  5
2325
  8
DETAIL
  6
CONTINUOUS
 62
     5
 10
43.06535099999999
 20
47.158697
 30
0.0
 11
43.20631600000002
 21
46.895036
 31
0.0
  0
LINE
  5
2326
  8
DETAIL
  6
CONTINUOUS
 62
     5
 10
42.89132499999999
 20
47.39261
 30
0.0
 11
43.06535099999999
 21
47.158697
 31
0.0
  0
LINE
  5
2327
  8
DETAIL
  6
CONTINUOUS
 62
     5
 10
44.10944900000001
 20
45.963957
 30
0.0
 11
44.133489
 21
45.658571
 31
0.0
  0
LINE
  5
2328
  8
DETAIL
  6
CONTINUOUS
 62
     5
 10
44.04386
 20
46.263966
 30
0.0
 11
44.10944900000001
 21
45.963957
 31
0.0
  0
LINE
  5
2329
  8
DETAIL
  6
CONTINUOUS
 62
     5
 10
43.938839
 20
46.547783
 30
0.0
 11
44.04386
 21
46.263966
 31
0.0
  0
LINE
  5
232A
  8
DETAIL
  6
CONTINUOUS
 62
     5
 10
43.795672
 20
46.811465
 30
0.0
 11
43.938839
 21
46.547783
 31
0.0
  0
LINE
  5
232B
  8
DETAIL
  6
CONTINUOUS
 62
     5
 10
43.61946600000002
 20
47.045467
 30
0.0
 11
43.795672
 21
46.811465
 31
0.0
  0
LINE
  5
232C
  8
DETAIL
  6
CONTINUOUS
 62
     5
 10
44.694061
 20
46.612533
 30
0.0
 11
44.76904300000001
 21
46.31222
 31
0.0
  0
LINE
  5
232D
  8
DETAIL
  6
CONTINUOUS
 62
     5
 10
44.57982100000001
 20
46.896045
 30
0.0
 11
44.694061
 21
46.612533
 31
0.0
  0
LINE
  5
232E
  8
DETAIL
  6
CONTINUOUS
 62
     5
 10
44.427784
 20
47.159203
 30
0.0
 11
44.57982100000001
 21
46.896045
 31
0.0
  0
LINE
  5
232F
  8
DETAIL
  6
CONTINUOUS
 62
     5
 10
44.243425
 20
47.39261
 30
0.0
 11
44.427784
 21
47.159203
 31
0.0
  0
LINE
  5
2330
  8
DETAIL
  6
CONTINUOUS
 62
     5
 10
42.89132499999999
 20
47.39261
 30
0.0
 11
43.19332500000002
 21
47.045467
 31
0.0
  0
LINE
  5
2331
  8
DETAIL
  6
CONTINUOUS
 62
     5
 10
43.61946600000002
 20
47.045467
 30
0.0
 11
43.314122
 21
47.39261
 31
0.0
  0
LINE
  5
2332
  8
DETAIL
  6
CONTINUOUS
 62
     5
 10
44.611345
 20
46.817811
 30
0.0
 11
43.792226
 21
46.817811
 31
0.0
  0
LINE
  5
2333
  8
DETAIL
  6
CONTINUOUS
 62
     5
 10
43.23429300000001
 20
46.817811
 30
0.0
 11
37.377928
 21
46.817811
 31
0.0
  0
LINE
  5
2334
  8
DETAIL
  6
CONTINUOUS
 62
     5
 10
43.314122
 20
47.39261
 30
0.0
 11
42.89132499999999
 21
47.39261
 31
0.0
  0
LINE
  5
2335
  8
DETAIL
  6
CONTINUOUS
 62
     5
 10
43.61946600000002
 20
47.045467
 30
0.0
 11
43.314122
 21
47.39261
 31
0.0
  0
LINE
  5
2336
  8
DETAIL
  6
CONTINUOUS
 62
     5
 10
42.89132499999999
 20
47.39261
 30
0.0
 11
43.19332500000002
 21
47.045467
 31
0.0
  0
LINE
  5
2337
  8
DETAIL
  6
CONTINUOUS
 62
     5
 10
44.243425
 20
47.39261
 30
0.0
 11
44.427784
 21
47.159203
 31
0.0
  0
LINE
  5
2338
  8
DETAIL
  6
CONTINUOUS
 62
     5
 10
44.427784
 20
47.159203
 30
0.0
 11
44.57982100000001
 21
46.896045
 31
0.0
  0
LINE
  5
2339
  8
DETAIL
  6
CONTINUOUS
 62
     5
 10
44.57982100000001
 20
46.896045
 30
0.0
 11
44.694061
 21
46.612533
 31
0.0
  0
LINE
  5
233A
  8
DETAIL
  6
CONTINUOUS
 62
     5
 10
44.694061
 20
46.612533
 30
0.0
 11
44.76904300000001
 21
46.31222
 31
0.0
  0
LINE
  5
233B
  8
DETAIL
  6
CONTINUOUS
 62
     5
 10
43.61946600000002
 20
47.045467
 30
0.0
 11
43.795672
 21
46.811465
 31
0.0
  0
LINE
  5
233C
  8
DETAIL
  6
CONTINUOUS
 62
     5
 10
43.795672
 20
46.811465
 30
0.0
 11
43.938839
 21
46.547783
 31
0.0
  0
LINE
  5
233D
  8
DETAIL
  6
CONTINUOUS
 62
     5
 10
43.938839
 20
46.547783
 30
0.0
 11
44.04386
 21
46.263966
 31
0.0
  0
LINE
  5
233E
  8
DETAIL
  6
CONTINUOUS
 62
     5
 10
44.04386
 20
46.263966
 30
0.0
 11
44.10944900000001
 21
45.963957
 31
0.0
  0
LINE
  5
233F
  8
DETAIL
  6
CONTINUOUS
 62
     5
 10
44.10944900000001
 20
45.963957
 30
0.0
 11
44.133489
 21
45.658571
 31
0.0
  0
LINE
  5
2340
  8
DETAIL
  6
CONTINUOUS
 62
     5
 10
42.89132499999999
 20
47.39261
 30
0.0
 11
43.06535099999999
 21
47.158697
 31
0.0
  0
LINE
  5
2341
  8
DETAIL
  6
CONTINUOUS
 62
     5
 10
43.06535099999999
 20
47.158697
 30
0.0
 11
43.20631600000002
 21
46.895036
 31
0.0
  0
LINE
  5
2342
  8
DETAIL
  6
CONTINUOUS
 62
     5
 10
43.20631600000002
 20
46.895036
 30
0.0
 11
43.30915100000001
 21
46.611176
 31
0.0
  0
LINE
  5
2343
  8
DETAIL
  6
CONTINUOUS
 62
     5
 10
43.30915100000001
 20
46.611176
 30
0.0
 11
43.37256300000001
 21
46.311122
 31
0.0
  0
LINE
  5
2344
  8
DETAIL
  6
CONTINUOUS
 62
     5
 10
43.37256300000001
 20
46.311122
 30
0.0
 11
43.39451500000001
 21
46.005715
 31
0.0
  0
LINE
  5
2345
  8
DETAIL
  6
CONTINUOUS
 62
     5
 10
43.69643600000001
 20
45.658571
 30
0.0
 11
43.67448899999999
 21
45.963987
 31
0.0
  0
LINE
  5
2346
  8
DETAIL
  6
CONTINUOUS
 62
     5
 10
43.67448899999999
 20
45.963987
 30
0.0
 11
43.611085
 21
46.264046
 31
0.0
  0
LINE
  5
2347
  8
DETAIL
  6
CONTINUOUS
 62
     5
 10
43.611085
 20
46.264046
 30
0.0
 11
43.508264
 21
46.547905
 31
0.0
  0
LINE
  5
2348
  8
DETAIL
  6
CONTINUOUS
 62
     5
 10
43.508264
 20
46.547905
 30
0.0
 11
43.36732000000001
 21
46.811562
 31
0.0
  0
LINE
  5
2349
  8
DETAIL
  6
CONTINUOUS
 62
     5
 10
43.36732000000001
 20
46.811562
 30
0.0
 11
43.19332500000002
 21
47.045467
 31
0.0
  0
LINE
  5
234A
  8
DETAIL
  6
CONTINUOUS
 62
     5
 10
37.205287
 20
47.045467
 30
0.0
 11
36.90025800000001
 21
47.39261
 31
0.0
  0
LINE
  5
234B
  8
DETAIL
  6
CONTINUOUS
 62
     5
 10
37.205287
 20
47.045467
 30
0.0
 11
37.38132300000001
 21
46.811562
 31
0.0
  0
LINE
  5
234C
  8
DETAIL
  6
CONTINUOUS
 62
     5
 10
37.38132300000001
 20
46.811562
 30
0.0
 11
37.52456800000002
 21
46.547905
 31
0.0
  0
LINE
  5
234D
  8
DETAIL
  6
CONTINUOUS
 62
     5
 10
37.52456800000002
 20
46.547905
 30
0.0
 11
37.62986599999999
 21
46.264046
 31
0.0
  0
LINE
  5
234E
  8
DETAIL
  6
CONTINUOUS
 62
     5
 10
37.62986599999999
 20
46.264046
 30
0.0
 11
37.69588899999999
 21
45.963987
 31
0.0
  0
LINE
  5
234F
  8
DETAIL
  6
CONTINUOUS
 62
     5
 10
37.69588899999999
 20
45.963987
 30
0.0
 11
37.72050100000001
 21
45.658571
 31
0.0
  0
LINE
  5
2350
  8
DETAIL
  6
CONTINUOUS
 62
     5
 10
36.679033
 20
46.311091
 30
0.0
 11
36.70040800000001
 21
46.005715
 31
0.0
  0
LINE
  5
2351
  8
DETAIL
  6
CONTINUOUS
 62
     5
 10
37.00264899999999
 20
45.658571
 30
0.0
 11
36.98127500000001
 21
45.963957
 31
0.0
  0
LINE
  5
2352
  8
DETAIL
  6
CONTINUOUS
 62
     5
 10
36.98127500000001
 20
45.963957
 30
0.0
 11
36.91830400000001
 21
46.263966
 31
0.0
  0
LINE
  5
2353
  8
DETAIL
  6
CONTINUOUS
 62
     5
 10
36.91830400000001
 20
46.263966
 30
0.0
 11
36.81575900000001
 21
46.547783
 31
0.0
  0
LINE
  5
2354
  8
DETAIL
  6
CONTINUOUS
 62
     5
 10
36.81575900000001
 20
46.547783
 30
0.0
 11
36.67489399999999
 21
46.811465
 31
0.0
  0
LINE
  5
2355
  8
DETAIL
  6
CONTINUOUS
 62
     5
 10
46.46522100000001
 20
32.311109
 30
0.0
 11
46.31056000000001
 21
32.380503
 31
0.0
  0
LINE
  5
2356
  8
DETAIL
  6
CONTINUOUS
 62
     5
 10
46.31056000000001
 20
32.380503
 30
0.0
 11
46.14542500000002
 21
32.585604
 31
0.0
  0
LINE
  5
2357
  8
DETAIL
  6
CONTINUOUS
 62
     5
 10
46.14542500000002
 20
32.585604
 30
0.0
 11
45.97835900000001
 21
32.914756
 31
0.0
  0
LINE
  5
2358
  8
DETAIL
  6
CONTINUOUS
 62
     5
 10
47.11631500000001
 20
32.311109
 30
0.0
 11
46.46522100000001
 21
32.311109
 31
0.0
  0
LINE
  5
2359
  8
DETAIL
  6
CONTINUOUS
 62
     5
 10
45.674511
 20
34.485676
 30
0.0
 11
45.628479
 21
35.268784
 31
0.0
  0
LINE
  5
235A
  8
DETAIL
  6
CONTINUOUS
 62
     5
 10
45.754659
 20
33.728576
 30
0.0
 11
45.674511
 21
34.485676
 31
0.0
  0
LINE
  5
235B
  8
DETAIL
  6
CONTINUOUS
 62
     5
 10
45.754659
 20
33.728576
 30
0.0
 11
45.674511
 21
34.485676
 31
0.0
  0
LINE
  5
235C
  8
DETAIL
  6
CONTINUOUS
 62
     5
 10
45.674511
 20
34.485676
 30
0.0
 11
45.628479
 21
35.268784
 31
0.0
  0
LINE
  5
235D
  8
DETAIL
  6
CONTINUOUS
 62
     5
 10
47.19425699999999
 20
32.314818
 30
0.0
 11
46.46522100000001
 21
32.311109
 31
0.0
  0
LINE
  5
235E
  8
DETAIL
  6
CONTINUOUS
 62
     5
 10
45.98048800000001
 20
32.911674
 30
0.0
 11
45.754659
 21
33.728576
 31
0.0
  0
LINE
  5
235F
  8
DETAIL
  6
CONTINUOUS
 62
     5
 10
46.14542500000002
 20
32.585604
 30
0.0
 11
45.97835900000001
 21
32.914756
 31
0.0
  0
LINE
  5
2360
  8
DETAIL
  6
CONTINUOUS
 62
     5
 10
46.31056000000001
 20
32.380503
 30
0.0
 11
46.14542500000002
 21
32.585604
 31
0.0
  0
LINE
  5
2361
  8
DETAIL
  6
CONTINUOUS
 62
     5
 10
46.46522100000001
 20
32.311109
 30
0.0
 11
46.31056000000001
 21
32.380503
 31
0.0
  0
LINE
  5
2362
  8
DETAIL
  6
CONTINUOUS
 62
     5
 10
34.49700300000001
 20
41.110978
 30
0.0
 11
34.19118800000001
 21
36.227292
 31
0.0
  0
LINE
  5
2363
  8
DETAIL
  6
CONTINUOUS
 62
     5
 10
34.49700300000001
 20
41.110978
 30
0.0
 11
34.19118800000001
 21
36.227292
 31
0.0
  0
LINE
  5
2364
  8
DETAIL
  6
CONTINUOUS
 62
     5
 10
31.70796799999999
 20
61.63752599999999
 30
0.0
 11
31.486549
 21
57.437568
 31
0.0
  0
LINE
  5
2365
  8
DETAIL
  6
CONTINUOUS
 62
     5
 10
33.724571
 20
61.63752599999999
 30
0.0
 11
33.50644
 21
57.425099
 31
0.0
  0
LINE
  5
2366
  8
DETAIL
  6
CONTINUOUS
 62
     5
 10
33.724571
 20
61.63752599999999
 30
0.0
 11
33.50644
 21
57.425099
 31
0.0
  0
LINE
  5
2367
  8
DETAIL
  6
CONTINUOUS
 62
     5
 10
31.70796799999999
 20
61.63752599999999
 30
0.0
 11
31.486549
 21
57.437568
 31
0.0
  0
LINE
  5
2368
  8
DETAIL
  6
CONTINUOUS
 62
     5
 10
33.63627
 20
61.63752599999999
 30
0.0
 11
33.63627
 21
62.630463
 31
0.0
  0
LINE
  5
2369
  8
DETAIL
  6
CONTINUOUS
 62
     5
 10
34.82779500000001
 20
61.63752599999999
 30
0.0
 11
34.82779500000001
 21
62.630463
 31
0.0
  0
LINE
  5
236A
  8
DETAIL
  6
CONTINUOUS
 62
     5
 10
33.63637700000001
 20
62.630463
 30
0.0
 11
34.82768799999999
 21
62.630463
 31
0.0
  0
LINE
  5
236B
  8
DETAIL
  6
CONTINUOUS
 62
     5
 10
33.63637700000001
 20
62.630463
 30
0.0
 11
34.82768799999999
 21
62.630463
 31
0.0
  0
LINE
  5
236C
  8
DETAIL
  6
CONTINUOUS
 62
     5
 10
34.82779500000001
 20
61.63752599999999
 30
0.0
 11
34.82779500000001
 21
62.630463
 31
0.0
  0
LINE
  5
236D
  8
DETAIL
  6
CONTINUOUS
 62
     5
 10
33.63627
 20
61.63752599999999
 30
0.0
 11
33.63627
 21
62.630463
 31
0.0
  0
LINE
  5
236E
  8
DETAIL
  6
CONTINUOUS
 62
     5
 10
31.20322999999999
 20
47.946656
 30
0.0
 11
31.35953000000001
 21
47.621955
 31
0.0
  0
LINE
  5
236F
  8
DETAIL
  6
CONTINUOUS
 62
     5
 10
34.37896499999999
 20
47.39261
 30
0.0
 11
33.765815
 21
48.06182
 31
0.0
  0
LINE
  5
2370
  8
DETAIL
  6
CONTINUOUS
 62
     5
 10
34.37896499999999
 20
47.39261
 30
0.0
 11
33.765815
 21
48.06182
 31
0.0
  0
LINE
  5
2371
  8
DETAIL
  6
CONTINUOUS
 62
     5
 10
31.20322999999999
 20
47.946656
 30
0.0
 11
31.35953000000001
 21
47.621955
 31
0.0
  0
LINE
  5
2372
  8
DETAIL
  6
CONTINUOUS
 62
     5
 10
31.26165900000001
 20
53.239942
 30
0.0
 11
31.03333700000002
 21
49.045323
 31
0.0
  0
LINE
  5
2373
  8
DETAIL
  6
CONTINUOUS
 62
     5
 10
31.486549
 20
57.437568
 30
0.0
 11
31.26165900000001
 21
53.239942
 31
0.0
  0
LINE
  5
2374
  8
DETAIL
  6
CONTINUOUS
 62
     5
 10
33.68508500000002
 20
53.276167
 30
0.0
 11
33.83172000000002
 21
48.06182
 31
0.0
  0
LINE
  5
2375
  8
DETAIL
  6
CONTINUOUS
 62
     5
 10
33.50535300000001
 20
57.45318899999999
 30
0.0
 11
33.68508500000002
 21
53.276167
 31
0.0
  0
LINE
  5
2376
  8
DETAIL
  6
CONTINUOUS
 62
     5
 10
31.095798
 20
48.296237
 30
0.0
 11
31.20322999999999
 21
47.946656
 31
0.0
  0
LINE
  5
2377
  8
DETAIL
  6
CONTINUOUS
 62
     5
 10
31.03848100000002
 20
48.666669
 30
0.0
 11
31.095798
 21
48.296237
 31
0.0
  0
LINE
  5
2378
  8
DETAIL
  6
CONTINUOUS
 62
     5
 10
31.03333700000002
 20
49.045323
 30
0.0
 11
31.03848100000002
 21
48.666669
 31
0.0
  0
LINE
  5
2379
  8
DETAIL
  6
CONTINUOUS
 62
     5
 10
31.03333700000002
 20
49.045323
 30
0.0
 11
31.03848100000002
 21
48.666669
 31
0.0
  0
LINE
  5
237A
  8
DETAIL
  6
CONTINUOUS
 62
     5
 10
31.03848100000002
 20
48.666669
 30
0.0
 11
31.095798
 21
48.296237
 31
0.0
  0
LINE
  5
237B
  8
DETAIL
  6
CONTINUOUS
 62
     5
 10
31.095798
 20
48.296237
 30
0.0
 11
31.20322999999999
 21
47.946656
 31
0.0
  0
LINE
  5
237C
  8
DETAIL
  6
CONTINUOUS
 62
     5
 10
33.50535300000001
 20
57.45318899999999
 30
0.0
 11
33.68508500000002
 21
53.276167
 31
0.0
  0
LINE
  5
237D
  8
DETAIL
  6
CONTINUOUS
 62
     5
 10
33.68508500000002
 20
53.276167
 30
0.0
 11
33.83172000000002
 21
48.06182
 31
0.0
  0
LINE
  5
237E
  8
DETAIL
  6
CONTINUOUS
 62
     5
 10
31.486549
 20
57.437568
 30
0.0
 11
31.26165900000001
 21
53.239942
 31
0.0
  0
LINE
  5
237F
  8
DETAIL
  6
CONTINUOUS
 62
     5
 10
31.26165900000001
 20
53.239942
 30
0.0
 11
31.03333700000002
 21
49.045323
 31
0.0
  0
LINE
  5
2380
  8
DETAIL
  6
CONTINUOUS
 62
     5
 10
36.572664
 20
46.817811
 30
0.0
 11
34.68940499999999
 21
46.817811
 31
0.0
  0
LINE
  5
2381
  8
DETAIL
  6
CONTINUOUS
 62
     5
 10
32.73771200000002
 20
45.45763
 30
0.0
 11
32.441731
 21
40.744819
 31
0.0
  0
LINE
  5
2382
  8
DETAIL
  6
CONTINUOUS
 62
     5
 10
32.083214
 20
42.91307
 30
0.0
 11
32.11756700000001
 21
46.651965
 31
0.0
  0
LINE
  5
2383
  8
DETAIL
  6
CONTINUOUS
 62
     5
 10
31.35953000000001
 20
47.621955
 30
0.0
 11
31.55936600000001
 21
47.333364
 31
0.0
  0
LINE
  5
2384
  8
DETAIL
  6
CONTINUOUS
 62
     5
 10
34.79891499999999
 20
46.005715
 30
0.0
 11
34.49700300000001
 21
41.110978
 31
0.0
  0
LINE
  5
2385
  8
DETAIL
  6
CONTINUOUS
 62
     5
 10
34.539984
 20
47.159203
 30
0.0
 11
34.37896499999999
 21
47.39261
 31
0.0
  0
LINE
  5
2386
  8
DETAIL
  6
CONTINUOUS
 62
     5
 10
34.665705
 20
46.896045
 30
0.0
 11
34.539984
 21
47.159203
 31
0.0
  0
LINE
  5
2387
  8
DETAIL
  6
CONTINUOUS
 62
     5
 10
34.75159400000001
 20
46.612533
 30
0.0
 11
34.665705
 21
46.896045
 31
0.0
  0
LINE
  5
2388
  8
DETAIL
  6
CONTINUOUS
 62
     5
 10
34.79654400000001
 20
46.31222
 30
0.0
 11
34.75159400000001
 21
46.612533
 31
0.0
  0
LINE
  5
2389
  8
DETAIL
  6
CONTINUOUS
 62
     5
 10
34.79891499999999
 20
46.005715
 30
0.0
 11
34.79654400000001
 21
46.31222
 31
0.0
  0
LINE
  5
238A
  8
DETAIL
  6
CONTINUOUS
 62
     5
 10
32.73304300000001
 20
45.649129
 30
0.0
 11
32.73771200000002
 21
45.45763
 31
0.0
  0
LINE
  5
238B
  8
DETAIL
  6
CONTINUOUS
 62
     5
 10
32.69535200000001
 20
45.833004
 30
0.0
 11
32.73304300000001
 21
45.649129
 31
0.0
  0
LINE
  5
238C
  8
DETAIL
  6
CONTINUOUS
 62
     5
 10
32.62605600000001
 20
46.002465
 30
0.0
 11
32.69535200000001
 21
45.833004
 31
0.0
  0
LINE
  5
238D
  8
DETAIL
  6
CONTINUOUS
 62
     5
 10
32.52779900000002
 20
46.151078
 30
0.0
 11
32.62605600000001
 21
46.002465
 31
0.0
  0
LINE
  5
238E
  8
DETAIL
  6
CONTINUOUS
 62
     5
 10
36.51349999999999
 20
46.894911
 30
0.0
 11
36.61605700000001
 21
46.611095
 31
0.0
  0
LINE
  5
238F
  8
DETAIL
  6
CONTINUOUS
 62
     5
 10
36.372612
 20
47.158599
 30
0.0
 11
36.51349999999999
 21
46.894911
 31
0.0
  0
LINE
  5
2390
  8
DETAIL
  6
CONTINUOUS
 62
     5
 10
36.19841500000001
 20
47.39261
 30
0.0
 11
36.372612
 21
47.158599
 31
0.0
  0
LINE
  5
2391
  8
DETAIL
  6
CONTINUOUS
 62
     5
 10
32.52779900000002
 20
46.151078
 30
0.0
 11
31.55936600000001
 21
47.333364
 31
0.0
  0
LINE
  5
2392
  8
DETAIL
  6
CONTINUOUS
 62
     5
 10
36.19841500000001
 20
47.39261
 30
0.0
 11
36.50073
 21
47.045467
 31
0.0
  0
LINE
  5
2393
  8
DETAIL
  6
CONTINUOUS
 62
     5
 10
36.572664
 20
46.817811
 30
0.0
 11
34.68940499999999
 21
46.817811
 31
0.0
  0
LINE
  5
2394
  8
DETAIL
  6
CONTINUOUS
 62
     5
 10
36.19841500000001
 20
47.39261
 30
0.0
 11
36.50073
 21
47.045467
 31
0.0
  0
LINE
  5
2395
  8
DETAIL
  6
CONTINUOUS
 62
     5
 10
32.52779900000002
 20
46.151078
 30
0.0
 11
31.55936600000001
 21
47.333364
 31
0.0
  0
LINE
  5
2396
  8
DETAIL
  6
CONTINUOUS
 62
     5
 10
36.19841500000001
 20
47.39261
 30
0.0
 11
36.372612
 21
47.158599
 31
0.0
  0
LINE
  5
2397
  8
DETAIL
  6
CONTINUOUS
 62
     5
 10
36.372612
 20
47.158599
 30
0.0
 11
36.51349999999999
 21
46.894911
 31
0.0
  0
LINE
  5
2398
  8
DETAIL
  6
CONTINUOUS
 62
     5
 10
36.51349999999999
 20
46.894911
 30
0.0
 11
36.61605700000001
 21
46.611095
 31
0.0
  0
LINE
  5
2399
  8
DETAIL
  6
CONTINUOUS
 62
     5
 10
32.52779900000002
 20
46.151078
 30
0.0
 11
32.62605600000001
 21
46.002465
 31
0.0
  0
LINE
  5
239A
  8
DETAIL
  6
CONTINUOUS
 62
     5
 10
32.62605600000001
 20
46.002465
 30
0.0
 11
32.69535200000001
 21
45.833004
 31
0.0
  0
LINE
  5
239B
  8
DETAIL
  6
CONTINUOUS
 62
     5
 10
32.69535200000001
 20
45.833004
 30
0.0
 11
32.73304300000001
 21
45.649129
 31
0.0
  0
LINE
  5
239C
  8
DETAIL
  6
CONTINUOUS
 62
     5
 10
32.73304300000001
 20
45.649129
 30
0.0
 11
32.73771200000002
 21
45.45763
 31
0.0
  0
LINE
  5
239D
  8
DETAIL
  6
CONTINUOUS
 62
     5
 10
34.79891499999999
 20
46.005715
 30
0.0
 11
34.79654400000001
 21
46.31222
 31
0.0
  0
LINE
  5
239E
  8
DETAIL
  6
CONTINUOUS
 62
     5
 10
34.79654400000001
 20
46.31222
 30
0.0
 11
34.75159400000001
 21
46.612533
 31
0.0
  0
LINE
  5
239F
  8
DETAIL
  6
CONTINUOUS
 62
     5
 10
34.75159400000001
 20
46.612533
 30
0.0
 11
34.665705
 21
46.896045
 31
0.0
  0
LINE
  5
23A0
  8
DETAIL
  6
CONTINUOUS
 62
     5
 10
34.665705
 20
46.896045
 30
0.0
 11
34.539984
 21
47.159203
 31
0.0
  0
LINE
  5
23A1
  8
DETAIL
  6
CONTINUOUS
 62
     5
 10
34.539984
 20
47.159203
 30
0.0
 11
34.37896499999999
 21
47.39261
 31
0.0
  0
LINE
  5
23A2
  8
DETAIL
  6
CONTINUOUS
 62
     5
 10
34.79891499999999
 20
46.005715
 30
0.0
 11
34.49700300000001
 21
41.110978
 31
0.0
  0
LINE
  5
23A3
  8
DETAIL
  6
CONTINUOUS
 62
     5
 10
31.35953000000001
 20
47.621955
 30
0.0
 11
31.55936600000001
 21
47.333364
 31
0.0
  0
LINE
  5
23A4
  8
DETAIL
  6
CONTINUOUS
 62
     5
 10
32.083214
 20
42.91307
 30
0.0
 11
32.11756700000001
 21
46.651965
 31
0.0
  0
LINE
  5
23A5
  8
DETAIL
  6
CONTINUOUS
 62
     5
 10
32.73771200000002
 20
45.45763
 30
0.0
 11
32.441731
 21
40.744819
 31
0.0
  0
LINE
  5
23A6
  8
DETAIL
  6
CONTINUOUS
 62
     5
 10
31.82374799999999
 20
34.419389
 30
0.0
 11
32.11773099999999
 21
35.980597
 31
0.0
  0
LINE
  5
23A7
  8
DETAIL
  6
CONTINUOUS
 62
     5
 10
31.464663
 20
33.804003
 30
0.0
 11
31.83034499999999
 21
34.435872
 31
0.0
  0
LINE
  5
23A8
  8
DETAIL
  6
CONTINUOUS
 62
     5
 10
31.01238499999999
 20
33.252105
 30
0.0
 11
31.464663
 21
33.804003
 31
0.0
  0
LINE
  5
23A9
  8
DETAIL
  6
CONTINUOUS
 62
     5
 10
30.48669699999999
 20
32.804988
 30
0.0
 11
31.01238499999999
 21
33.252105
 31
0.0
  0
LINE
  5
23AA
  8
DETAIL
  6
CONTINUOUS
 62
     5
 10
29.89619999999999
 20
32.473906
 30
0.0
 11
30.48669699999999
 21
32.804988
 31
0.0
  0
LINE
  5
23AB
  8
DETAIL
  6
CONTINUOUS
 62
     5
 10
33.605223
 20
33.953477
 30
0.0
 11
33.24378400000001
 21
33.32163
 31
0.0
  0
LINE
  5
23AC
  8
DETAIL
  6
CONTINUOUS
 62
     5
 10
33.88198800000001
 20
34.655297
 30
0.0
 11
33.605223
 21
33.953477
 31
0.0
  0
LINE
  5
23AD
  8
DETAIL
  6
CONTINUOUS
 62
     5
 10
34.07098999999999
 20
35.413155
 30
0.0
 11
33.88198800000001
 21
34.655297
 31
0.0
  0
LINE
  5
23AE
  8
DETAIL
  6
CONTINUOUS
 62
     5
 10
34.193814
 20
36.228903
 30
0.0
 11
34.07098999999999
 21
35.413155
 31
0.0
  0
LINE
  5
23AF
  8
DETAIL
  6
CONTINUOUS
 62
     5
 10
32.41586000000001
 20
40.643872
 30
0.0
 11
32.11243000000002
 21
35.955426
 31
0.0
  0
LINE
  5
23B0
  8
DETAIL
  6
CONTINUOUS
 62
     5
 10
32.41586000000001
 20
40.643872
 30
0.0
 11
32.11243000000002
 21
35.955426
 31
0.0
  0
LINE
  5
23B1
  8
DETAIL
  6
CONTINUOUS
 62
     5
 10
34.07098999999999
 20
35.413155
 30
0.0
 11
33.88198800000001
 21
34.655297
 31
0.0
  0
LINE
  5
23B2
  8
DETAIL
  6
CONTINUOUS
 62
     5
 10
33.88198800000001
 20
34.655297
 30
0.0
 11
33.605223
 21
33.953477
 31
0.0
  0
LINE
  5
23B3
  8
DETAIL
  6
CONTINUOUS
 62
     5
 10
33.605223
 20
33.953477
 30
0.0
 11
33.24378400000001
 21
33.32163
 31
0.0
  0
LINE
  5
23B4
  8
DETAIL
  6
CONTINUOUS
 62
     5
 10
33.24378400000001
 20
33.32163
 30
0.0
 11
32.82341
 21
32.757142
 31
0.0
  0
LINE
  5
23B5
  8
DETAIL
  6
CONTINUOUS
 62
     5
 10
32.28303
 20
32.327613
 30
0.0
 11
31.62779399999999
 21
32.299547
 31
0.0
  0
LINE
  5
23B6
  8
DETAIL
  6
CONTINUOUS
 62
     5
 10
29.27632
 20
32.295828
 30
0.0
 11
29.89619999999999
 21
32.473906
 31
0.0
  0
LINE
  5
23B7
  8
DETAIL
  6
CONTINUOUS
 62
     5
 10
29.89619999999999
 20
32.473906
 30
0.0
 11
30.48669699999999
 21
32.804988
 31
0.0
  0
LINE
  5
23B8
  8
DETAIL
  6
CONTINUOUS
 62
     5
 10
30.48669699999999
 20
32.804988
 30
0.0
 11
31.01238499999999
 21
33.252105
 31
0.0
  0
LINE
  5
23B9
  8
DETAIL
  6
CONTINUOUS
 62
     5
 10
31.01238499999999
 20
33.252105
 30
0.0
 11
31.464663
 21
33.804003
 31
0.0
  0
LINE
  5
23BA
  8
DETAIL
  6
CONTINUOUS
 62
     5
 10
31.464663
 20
33.804003
 30
0.0
 11
31.83034499999999
 21
34.435872
 31
0.0
  0
LINE
  5
23BB
  8
DETAIL
  6
CONTINUOUS
 62
     5
 10
31.82374799999999
 20
34.419389
 30
0.0
 11
32.11773099999999
 21
35.980597
 31
0.0
  0
LINE
  5
23BC
  8
DETAIL
  6
CONTINUOUS
 62
     5
 10
36.70040800000001
 20
46.005715
 30
0.0
 11
36.741331
 21
0.1349889999999974
 31
0.0
  0
LINE
  5
23BD
  8
DETAIL
  6
CONTINUOUS
 62
     5
 10
37.00264899999999
 20
45.658571
 30
0.0
 11
37.07156800000001
 21
0.1349889999999974
 31
0.0
  0
LINE
  5
23BE
  8
DETAIL
  6
CONTINUOUS
 62
     5
 10
37.72050100000001
 20
45.658571
 30
0.0
 11
38.12832600000002
 21
0.1349889999999974
 31
0.0
  0
LINE
  5
23BF
  8
DETAIL
  6
CONTINUOUS
 62
     5
 10
43.39451500000001
 20
46.005715
 30
0.0
 11
43.544217
 21
0.1349889999999974
 31
0.0
  0
LINE
  5
23C0
  8
DETAIL
  6
CONTINUOUS
 62
     5
 10
43.69643600000001
 20
45.658571
 30
0.0
 11
43.94050100000001
 21
0.1349889999999974
 31
0.0
  0
LINE
  5
23C1
  8
DETAIL
  6
CONTINUOUS
 62
     5
 10
44.133489
 20
45.658571
 30
0.0
 11
44.46888000000001
 21
0.1349889999999974
 31
0.0
  0
LINE
  5
23C2
  8
DETAIL
  6
CONTINUOUS
 62
     5
 10
44.133489
 20
45.658571
 30
0.0
 11
44.46888000000001
 21
0.1349889999999974
 31
0.0
  0
LINE
  5
23C3
  8
DETAIL
  6
CONTINUOUS
 62
     5
 10
43.69643600000001
 20
45.658571
 30
0.0
 11
43.94050100000001
 21
0.1349889999999974
 31
0.0
  0
LINE
  5
23C4
  8
DETAIL
  6
CONTINUOUS
 62
     5
 10
43.39451500000001
 20
46.005715
 30
0.0
 11
43.544217
 21
0.1349889999999974
 31
0.0
  0
LINE
  5
23C5
  8
DETAIL
  6
CONTINUOUS
 62
     5
 10
37.72050100000001
 20
45.658571
 30
0.0
 11
38.12832600000002
 21
0.1349889999999974
 31
0.0
  0
LINE
  5
23C6
  8
DETAIL
  6
CONTINUOUS
 62
     5
 10
37.00264899999999
 20
45.658571
 30
0.0
 11
37.07156800000001
 21
0.1349889999999974
 31
0.0
  0
LINE
  5
23C7
  8
DETAIL
  6
CONTINUOUS
 62
     5
 10
36.70040800000001
 20
46.005715
 30
0.0
 11
36.741331
 21
0.1349889999999974
 31
0.0
  0
LINE
  5
23C8
  8
DETAIL
  6
CONTINUOUS
 62
     5
 10
47.197698
 20
32.207826
 30
0.0
 11
47.718456
 21
0.1099850000000018
 31
0.0
  0
LINE
  5
23C9
  8
DETAIL
  6
CONTINUOUS
 62
     5
 10
1.585012000000006
 20
32.290374
 30
0.0
 11
31.49162100000001
 21
32.290374
 31
0.0
  0
LINE
  5
23CA
  8
SIZE
  6
CONTINUOUS
 62
    30
 10
80.0
 20
-29.739194
 30
0.0
 11
80.0
 21
-345.118934
 31
0.0
  0
LINE
  5
23CB
  8
SIZE
  6
CONTINUOUS
 62
    30
 10
-80.0
 20
-29.739194
 30
0.0
 11
-80.0
 21
-345.118934
 31
0.0
  0
LINE
  5
23CC
  8
SIZE
  6
CONTINUOUS
 62
    30
 10
68.0
 20
-325.118934
 30
0.0
 11
-68.0
 21
-325.118934
 31
0.0
  0
LINE
  5
23CD
  8
SIZE
  6
CONTINUOUS
 62
    30
 10
-345.607412
 20
-325.118934
 30
0.0
 11
-80.0
 21
-325.118934
 31
0.0
  0
TEXT
  5
23CE
  8
SIZE
  6
CONTINUOUS
 62
    30
 10
-326.3674125714286
 20
-300.118934
 30
0.0
 40
64.0
  1
□160
 41
0.9
 72
     1
 11
-219.395984
 21
-300.118934
 31
0.0
  0
CIRCLE
  5
23CF
  8
SIZE
  6
CONTINUOUS
 62
    30
 10
80.0
 20
-325.118934
 30
0.0
 40
6.0
  0
LINE
  5
23D0
  8
SIZE
  6
CONTINUOUS
 62
    30
 10
80.0
 20
-325.118934
 30
0.0
 11
68.0
 21
-325.118934
 31
0.0
  0
CIRCLE
  5
23D1
  8
SIZE
  6
CONTINUOUS
 62
    30
 10
-80.0
 20
-325.118934
 30
0.0
 40
6.0
  0
LINE
  5
23D2
  8
SIZE
  6
CONTINUOUS
 62
    30
 10
-80.0
 20
-325.118934
 30
0.0
 11
-68.0
 21
-325.118934
 31
0.0
  0
POINT
  5
23D3
  8
DEFPOINTS
  6
CONTINUOUS
 62
    30
 10
80.0
 20
-9.739193999999998
 30
0.0
  0
POINT
  5
23D4
  8
DEFPOINTS
  6
CONTINUOUS
 62
    30
 10
-80.0
 20
-9.739193999999998
 30
0.0
  0
POINT
  5
23D5
  8
DEFPOINTS
  6
CONTINUOUS
 62
    30
 10
-80.0
 20
-325.118934
 30
0.0
  0
LINE
  5
23D6
  8
SIZE
  6
CONTINUOUS
 62
    30
 10
47.5
 20
68.0
 30
0.0
 11
47.5
 21
320.235707
 31
0.0
  0
LINE
  5
23D7
  8
SIZE
  6
CONTINUOUS
 62
    30
 10
-47.5
 20
68.0
 30
0.0
 11
-47.5
 21
320.235707
 31
0.0
  0
LINE
  5
23D8
  8
SIZE
  6
CONTINUOUS
 62
    30
 10
59.5
 20
300.235707
 30
0.0
 11
71.5
 21
300.235707
 31
0.0
  0
LINE
  5
23D9
  8
SIZE
  6
CONTINUOUS
 62
    30
 10
-59.5
 20
300.235707
 30
0.0
 11
-71.5
 21
300.235707
 31
0.0
  0
LINE
  5
23DA
  8
SIZE
  6
CONTINUOUS
 62
    30
 10
47.5
 20
300.235707
 30
0.0
 11
-47.5
 21
300.235707
 31
0.0
  0
CIRCLE
  5
23DB
  8
SIZE
  6
CONTINUOUS
 62
    30
 10
47.5
 20
300.235707
 30
0.0
 40
6.0
  0
LINE
  5
23DC
  8
SIZE
  6
CONTINUOUS
 62
    30
 10
47.5
 20
300.235707
 30
0.0
 11
59.5
 21
300.235707
 31
0.0
  0
CIRCLE
  5
23DD
  8
SIZE
  6
CONTINUOUS
 62
    30
 10
-47.5
 20
300.235707
 30
0.0
 40
6.0
  0
LINE
  5
23DE
  8
SIZE
  6
CONTINUOUS
 62
    30
 10
-47.5
 20
300.235707
 30
0.0
 11
-59.5
 21
300.235707
 31
0.0
  0
TEXT
  5
23DF
  8
SIZE
  6
CONTINUOUS
 62
    30
 10
-79.54285714285714
 20
325.235707
 30
0.0
 40
64.0
  1
φ95
 41
0.9
 72
     1
 11
0.0
 21
325.235707
 31
0.0
  0
POINT
  5
23E0
  8
DEFPOINTS
  6
CONTINUOUS
 62
    30
 10
47.5
 20
48.0
 30
0.0
  0
POINT
  5
23E1
  8
DEFPOINTS
  6
CONTINUOUS
 62
    30
 10
-47.5
 20
48.0
 30
0.0
  0
POINT
  5
23E2
  8
DEFPOINTS
  6
CONTINUOUS
 62
    30
 10
-47.5
 20
300.235707
 30
0.0
  0
LINE
  5
23E3
  8
DETAIL
  6
CONTINUOUS
 62
     5
 10
-72.0
 20
-19.5
 30
0.0
 11
72.0
 21
-19.5
 31
0.0
  0
POINT
  5
23E4
  8
ARRANGE
  6
CONTINUOUS
 62
     1
 10
0.0
 20
0.0
 30
0.0
  0
CIRCLE
  5
23E5
  8
ARRANGE
  6
CONTINUOUS
 62
     1
 10
0.0
 20
0.0
 30
0.0
 40
40.0
  0
LINE
  5
23E6
  8
SIZE
  6
CONTINUOUS
 62
    30
 10
31.5
 20
95.5
 30
0.0
 11
31.5
 21
233.526217
 31
0.0
  0
LINE
  5
23E7
  8
SIZE
  6
CONTINUOUS
 62
    30
 10
-31.5
 20
95.5
 30
0.0
 11
-31.5
 21
233.526217
 31
0.0
  0
LINE
  5
23E8
  8
SIZE
  6
CONTINUOUS
 62
    30
 10
43.5
 20
213.526217
 30
0.0
 11
55.5
 21
213.526217
 31
0.0
  0
LINE
  5
23E9
  8
SIZE
  6
CONTINUOUS
 62
    30
 10
-43.5
 20
213.526217
 30
0.0
 11
-55.5
 21
213.526217
 31
0.0
  0
LINE
  5
23EA
  8
SIZE
  6
CONTINUOUS
 62
    30
 10
271.583845
 20
213.526217
 30
0.0
 11
31.5
 21
213.526217
 31
0.0
  0
TEXT
  5
23EB
  8
SIZE
  6
CONTINUOUS
 62
    30
 10
91.61241685714288
 20
238.526217
 30
0.0
 40
64.0
  1
φ63
 41
0.9
 72
     1
 11
171.155274
 21
238.526217
 31
0.0
  0
LINE
  5
23EC
  8
SIZE
  6
CONTINUOUS
 62
    30
 10
31.5
 20
213.526217
 30
0.0
 11
-31.5
 21
213.526217
 31
0.0
  0
LINE
  5
23ED
  8
SIZE
  6
CONTINUOUS
 62
    30
 10
31.5
 20
213.526217
 30
0.0
 11
-31.5
 21
213.526217
 31
0.0
  0
CIRCLE
  5
23EE
  8
SIZE
  6
CONTINUOUS
 62
    30
 10
31.5
 20
213.526217
 30
0.0
 40
6.0
  0
LINE
  5
23EF
  8
SIZE
  6
CONTINUOUS
 62
    30
 10
31.5
 20
213.526217
 30
0.0
 11
43.5
 21
213.526217
 31
0.0
  0
CIRCLE
  5
23F0
  8
SIZE
  6
CONTINUOUS
 62
    30
 10
-31.5
 20
213.526217
 30
0.0
 40
6.0
  0
LINE
  5
23F1
  8
SIZE
  6
CONTINUOUS
 62
    30
 10
-31.5
 20
213.526217
 30
0.0
 11
-43.5
 21
213.526217
 31
0.0
  0
POINT
  5
23F2
  8
DEFPOINTS
  6
CONTINUOUS
 62
    30
 10
31.5
 20
75.5
 30
0.0
  0
POINT
  5
23F3
  8
DEFPOINTS
  6
CONTINUOUS
 62
    30
 10
-31.5
 20
75.5
 30
0.0
  0
POINT
  5
23F4
  8
DEFPOINTS
  6
CONTINUOUS
 62
    30
 10
-31.5
 20
213.526217
 30
0.0
  0
LINE
  5
23F5
  8
SIZE
  6
CONTINUOUS
 62
    30
 10
70.0
 20
-40.00000000000001
 30
0.0
 11
70.0
 21
-226.697502
 31
0.0
  0
LINE
  5
23F6
  8
SIZE
  6
CONTINUOUS
 62
    30
 10
-70.0
 20
-40.00000000000001
 30
0.0
 11
-70.0
 21
-226.697502
 31
0.0
  0
LINE
  5
23F7
  8
SIZE
  6
CONTINUOUS
 62
    30
 10
82.0
 20
-206.697502
 30
0.0
 11
94.0
 21
-206.697502
 31
0.0
  0
LINE
  5
23F8
  8
SIZE
  6
CONTINUOUS
 62
    30
 10
-82.0
 20
-206.697502
 30
0.0
 11
-94.0
 21
-206.697502
 31
0.0
  0
LINE
  5
23F9
  8
SIZE
  6
CONTINUOUS
 62
    30
 10
70.0
 20
-206.697502
 30
0.0
 11
-70.0
 21
-206.697502
 31
0.0
  0
CIRCLE
  5
23FA
  8
SIZE
  6
CONTINUOUS
 62
    30
 10
70.0
 20
-206.697502
 30
0.0
 40
6.0
  0
LINE
  5
23FB
  8
SIZE
  6
CONTINUOUS
 62
    30
 10
70.0
 20
-206.697502
 30
0.0
 11
82.0
 21
-206.697502
 31
0.0
  0
CIRCLE
  5
23FC
  8
SIZE
  6
CONTINUOUS
 62
    30
 10
-70.0
 20
-206.697502
 30
0.0
 40
6.0
  0
LINE
  5
23FD
  8
SIZE
  6
CONTINUOUS
 62
    30
 10
-70.0
 20
-206.697502
 30
0.0
 11
-82.0
 21
-206.697502
 31
0.0
  0
TEXT
  5
23FE
  8
SIZE
  6
CONTINUOUS
 62
    30
 10
-86.4
 20
-181.697502
 30
0.0
 40
64.0
  1
140
 41
0.9
 72
     1
 11
0.0
 21
-181.697502
 31
0.0
  0
POINT
  5
23FF
  8
DEFPOINTS
  6
CONTINUOUS
 62
    30
 10
70.0
 20
-20.0
 30
0.0
  0
POINT
  5
2400
  8
DEFPOINTS
  6
CONTINUOUS
 62
    30
 10
-70.0
 20
-20.0
 30
0.0
  0
POINT
  5
2401
  8
DEFPOINTS
  6
CONTINUOUS
 62
    30
 10
-70.0
 20
-206.697502
 30
0.0
  0
LINE
  5
2402
  8
DETAIL
  6
CONTINUOUS
 62
     5
 10
-80.0
 20
0.0
 30
0.0
 11
80.0
 21
0.0
 31
0.0
  0
LINE
  5
2403
  8
OUTLINE
  6
CONTINUOUS
 62
     3
 10
-46.75247299999999
 20
32.396985
 30
0.0
 11
-47.38609599999999
 21
0.0
 31
0.0
  0
CIRCLE
  5
2404
  8
FIX
  6
CONTINUOUS
 62
    11
 10
-70.0
 20
0.0
 30
0.0
 40
2.5
  0
LINE
  5
2405
  8
NOTE
  6
CONTINUOUS
 62
     4
 10
-70.0
 20
20.0
 30
0.0
 11
-70.0
 21
-20.0
 31
0.0
  0
LINE
  5
2406
  8
BASIS
  6
DASHDOT
 62
     6
 10
0.0
 20
-61.462944
 30
0.0
 11
0.0
 21
106.756139
 31
0.0
  0
LINE
  5
2407
  8
NOTE
  6
CONTINUOUS
 62
     4
 10
-70.0
 20
0.0
 30
0.0
 11
-110.899559
 21
135.321451
 31
0.0
  0
LINE
  5
2408
  8
NOTE
  6
CONTINUOUS
 62
     4
 10
-89.13844399999999
 20
35.12435
 30
0.0
 11
-70.0
 21
0.0
 31
0.0
  0
LINE
  5
2409
  8
NOTE
  6
CONTINUOUS
 62
     4
 10
-70.0
 20
0.0
 30
0.0
 11
-69.012203
 21
39.987801
 31
0.0
  0
LINE
  5
240A
  8
OUTLINE
  6
CONTINUOUS
 62
     3
 10
-48.0
 20
0.0
 30
0.0
 11
-80.0
 21
0.0
 31
0.0
  0
LINE
  5
240B
  8
NOTE
  6
CONTINUOUS
 62
     4
 10
-90.0
 20
0.0
 30
0.0
 11
-50.0
 21
0.0
 31
0.0
  0
LINE
  5
240C
  8
DETAIL
  6
CONTINUOUS
 62
     5
 10
-48.0
 20
0.0
 30
0.0
 11
-80.0
 21
0.0
 31
0.0
  0
LINE
  5
240D
  8
OUTLINE
  6
CONTINUOUS
 62
     3
 10
-80.0
 20
-9.739193999999998
 30
0.0
 11
-80.0
 21
0.0
 31
0.0
  0
ARC
  5
240E
  8
OUTLINE
  6
CONTINUOUS
 62
     3
 10
-70.334564
 20
-9.97618
 30
0.0
 40
9.668341
 50
178.59545
 51
260.0809469999999
  0
ARC
  5
240F
  8
DETAIL
  6
CONTINUOUS
 62
     5
 10
-70.334564
 20
-9.97618
 30
0.0
 40
9.668341
 50
178.59545
 51
260.0809469999999
  0
LINE
  5
2410
  8
DETAIL
  6
CONTINUOUS
 62
     5
 10
-80.0
 20
-9.739193999999998
 30
0.0
 11
-80.0
 21
0.0
 31
0.0
  0
TEXT
  5
2411
  8
NOTE
  6
CONTINUOUS
 62
     4
 10
-929.141406
 20
152.251559
 30
0.0
 40
64.0
  1
2ヶ所×4×10取付用長穴
 41
0.9
  0
LINE
  5
2412
  8
NOTE
  6
CONTINUOUS
 62
     4
 10
-110.899559
 20
135.321451
 30
0.0
 11
-938.955453
 21
133.354192
 31
0.0
  0
LINE
  5
2413
  8
OUTLINE
  6
CONTINUOUS
 62
     3
 10
-40.754125
 20
62.681614
 30
0.0
 11
-40.729799
 21
69.195899
 31
0.0
  0
LINE
  5
2414
  8
OUTLINE
  6
CONTINUOUS
 62
     3
 10
-41.95171499999999
 20
57.425099
 30
0.0
 11
-41.74860299999999
 21
61.63752599999999
 31
0.0
  0
LINE
  5
2415
  8
OUTLINE
  6
CONTINUOUS
 62
     3
 10
-41.95171499999999
 20
57.425099
 30
0.0
 11
-41.74860299999999
 21
61.63752599999999
 31
0.0
  0
LINE
  5
2416
  8
OUTLINE
  6
CONTINUOUS
 62
     3
 10
-37.36914099999998
 20
61.63752599999999
 30
0.0
 11
-37.36914099999998
 21
62.630463
 31
0.0
  0
LINE
  5
2417
  8
OUTLINE
  6
CONTINUOUS
 62
     3
 10
-38.560666
 20
61.63752599999999
 30
0.0
 11
-38.560666
 21
62.630463
 31
0.0
  0
LINE
  5
2418
  8
OUTLINE
  6
CONTINUOUS
 62
     3
 10
-37.369247
 20
62.630463
 30
0.0
 11
-38.56055899999998
 21
62.630463
 31
0.0
  0
LINE
  5
2419
  8
OUTLINE
  6
CONTINUOUS
 62
     3
 10
-37.369247
 20
62.630463
 30
0.0
 11
-38.56055899999998
 21
62.630463
 31
0.0
  0
LINE
  5
241A
  8
OUTLINE
  6
CONTINUOUS
 62
     3
 10
-38.560666
 20
61.63752599999999
 30
0.0
 11
-38.560666
 21
62.630463
 31
0.0
  0
LINE
  5
241B
  8
OUTLINE
  6
CONTINUOUS
 62
     3
 10
-37.36914099999998
 20
61.63752599999999
 30
0.0
 11
-37.36914099999998
 21
62.630463
 31
0.0
  0
LINE
  5
241C
  8
OUTLINE
  6
CONTINUOUS
 62
     3
 10
-43.14718099999999
 20
48.091712
 30
0.0
 11
-43.827489
 21
47.39261
 31
0.0
  0
LINE
  5
241D
  8
OUTLINE
  6
CONTINUOUS
 62
     3
 10
-43.14718099999999
 20
48.091712
 30
0.0
 11
-43.827489
 21
47.39261
 31
0.0
  0
LINE
  5
241E
  8
OUTLINE
  6
CONTINUOUS
 62
     3
 10
-42.15133299999999
 20
53.214199
 30
0.0
 11
-41.95171499999999
 21
57.425099
 31
0.0
  0
LINE
  5
241F
  8
OUTLINE
  6
CONTINUOUS
 62
     3
 10
-43.14718099999999
 20
48.091712
 30
0.0
 11
-42.15133299999999
 21
53.214199
 31
0.0
  0
LINE
  5
2420
  8
OUTLINE
  6
CONTINUOUS
 62
     3
 10
-43.14718099999999
 20
48.091712
 30
0.0
 11
-42.15133299999999
 21
53.214199
 31
0.0
  0
LINE
  5
2421
  8
OUTLINE
  6
CONTINUOUS
 62
     3
 10
-42.15133299999999
 20
53.214199
 30
0.0
 11
-41.95171499999999
 21
57.425099
 31
0.0
  0
LINE
  5
2422
  8
OUTLINE
  6
CONTINUOUS
 62
     3
 10
-44.35310699999999
 20
46.31222
 30
0.0
 11
-44.386128
 21
46.005715
 31
0.0
  0
LINE
  5
2423
  8
OUTLINE
  6
CONTINUOUS
 62
     3
 10
-44.35310699999999
 20
46.31222
 30
0.0
 11
-44.386128
 21
46.005715
 31
0.0
  0
LINE
  5
2424
  8
OUTLINE
  6
CONTINUOUS
 62
     3
 10
-44.57369
 20
41.110978
 30
0.0
 11
-44.386128
 21
46.005715
 31
0.0
  0
LINE
  5
2425
  8
OUTLINE
  6
CONTINUOUS
 62
     3
 10
-44.57369
 20
41.110978
 30
0.0
 11
-44.386128
 21
46.005715
 31
0.0
  0
LINE
  5
2426
  8
OUTLINE
  6
CONTINUOUS
 62
     3
 10
-44.27812499999999
 20
46.612534
 30
0.0
 11
-44.35310699999999
 21
46.31222
 31
0.0
  0
LINE
  5
2427
  8
OUTLINE
  6
CONTINUOUS
 62
     3
 10
-44.16388499999999
 20
46.896045
 30
0.0
 11
-44.27812499999999
 21
46.612534
 31
0.0
  0
LINE
  5
2428
  8
OUTLINE
  6
CONTINUOUS
 62
     3
 10
-44.011849
 20
47.159203
 30
0.0
 11
-44.16388499999999
 21
46.896045
 31
0.0
  0
LINE
  5
2429
  8
OUTLINE
  6
CONTINUOUS
 62
     3
 10
-43.827489
 20
47.39261
 30
0.0
 11
-44.011849
 21
47.159203
 31
0.0
  0
LINE
  5
242A
  8
OUTLINE
  6
CONTINUOUS
 62
     3
 10
-43.827489
 20
47.39261
 30
0.0
 11
-44.011849
 21
47.159203
 31
0.0
  0
LINE
  5
242B
  8
OUTLINE
  6
CONTINUOUS
 62
     3
 10
-44.011849
 20
47.159203
 30
0.0
 11
-44.16388499999999
 21
46.896045
 31
0.0
  0
LINE
  5
242C
  8
OUTLINE
  6
CONTINUOUS
 62
     3
 10
-44.16388499999999
 20
46.896045
 30
0.0
 11
-44.27812499999999
 21
46.612534
 31
0.0
  0
LINE
  5
242D
  8
OUTLINE
  6
CONTINUOUS
 62
     3
 10
-44.27812499999999
 20
46.612534
 30
0.0
 11
-44.35310699999999
 21
46.31222
 31
0.0
  0
LINE
  5
242E
  8
OUTLINE
  6
CONTINUOUS
 62
     3
 10
-46.10687
 20
32.534479
 30
0.0
 11
-45.952209
 21
32.603873
 31
0.0
  0
LINE
  5
242F
  8
OUTLINE
  6
CONTINUOUS
 62
     3
 10
-45.952209
 20
32.603873
 30
0.0
 11
-45.78707399999999
 21
32.808974
 31
0.0
  0
LINE
  5
2430
  8
OUTLINE
  6
CONTINUOUS
 62
     3
 10
-45.78707399999999
 20
32.808974
 30
0.0
 11
-45.620008
 21
33.138126
 31
0.0
  0
LINE
  5
2431
  8
OUTLINE
  6
CONTINUOUS
 62
     3
 10
-45.620008
 20
33.138126
 30
0.0
 11
-45.45644899999999
 21
33.582633
 31
0.0
  0
LINE
  5
2432
  8
OUTLINE
  6
CONTINUOUS
 62
     3
 10
-45.45644899999999
 20
33.582633
 30
0.0
 11
-45.30317799999999
 21
34.132309
 31
0.0
  0
LINE
  5
2433
  8
OUTLINE
  6
CONTINUOUS
 62
     3
 10
-45.30317799999999
 20
34.132309
 30
0.0
 11
-45.16938999999999
 21
34.763732
 31
0.0
  0
LINE
  5
2434
  8
OUTLINE
  6
CONTINUOUS
 62
     3
 10
-45.16938999999999
 20
34.763732
 30
0.0
 11
-45.059952
 21
35.464953
 31
0.0
  0
LINE
  5
2435
  8
OUTLINE
  6
CONTINUOUS
 62
     3
 10
-46.757964
 20
32.409196
 30
0.0
 11
-46.10687
 21
32.520523
 31
0.0
  0
LINE
  5
2436
  8
OUTLINE
  6
CONTINUOUS
 62
     3
 10
-44.979805
 20
36.222054
 30
0.0
 11
-44.933773
 21
37.005162
 31
0.0
  0
LINE
  5
2437
  8
OUTLINE
  6
CONTINUOUS
 62
     3
 10
-45.059952
 20
35.464953
 30
0.0
 11
-44.979805
 21
36.222054
 31
0.0
  0
LINE
  5
2438
  8
OUTLINE
  6
CONTINUOUS
 62
     3
 10
-44.933773
 20
37.005162
 30
0.0
 11
-44.56637499999999
 21
41.877057
 31
0.0
  0
LINE
  5
2439
  8
OUTLINE
  6
CONTINUOUS
 62
     3
 10
-45.059952
 20
35.464953
 30
0.0
 11
-44.979805
 21
36.222054
 31
0.0
  0
LINE
  5
243A
  8
OUTLINE
  6
CONTINUOUS
 62
     3
 10
-44.979805
 20
36.222054
 30
0.0
 11
-44.933773
 21
37.005162
 31
0.0
  0
LINE
  5
243B
  8
OUTLINE
  6
CONTINUOUS
 62
     3
 10
-46.757964
 20
32.409196
 30
0.0
 11
-46.10687
 21
32.520523
 31
0.0
  0
LINE
  5
243C
  8
OUTLINE
  6
CONTINUOUS
 62
     3
 10
-45.16938999999999
 20
34.763732
 30
0.0
 11
-45.059952
 21
35.464953
 31
0.0
  0
LINE
  5
243D
  8
OUTLINE
  6
CONTINUOUS
 62
     3
 10
-45.30317799999999
 20
34.132309
 30
0.0
 11
-45.16938999999999
 21
34.763732
 31
0.0
  0
LINE
  5
243E
  8
OUTLINE
  6
CONTINUOUS
 62
     3
 10
-45.45644899999999
 20
33.582633
 30
0.0
 11
-45.30317799999999
 21
34.132309
 31
0.0
  0
LINE
  5
243F
  8
OUTLINE
  6
CONTINUOUS
 62
     3
 10
-45.620008
 20
33.138126
 30
0.0
 11
-45.45644899999999
 21
33.582633
 31
0.0
  0
LINE
  5
2440
  8
OUTLINE
  6
CONTINUOUS
 62
     3
 10
-45.78707399999999
 20
32.808974
 30
0.0
 11
-45.620008
 21
33.138126
 31
0.0
  0
LINE
  5
2441
  8
OUTLINE
  6
CONTINUOUS
 62
     3
 10
-45.952209
 20
32.603873
 30
0.0
 11
-45.78707399999999
 21
32.808974
 31
0.0
  0
LINE
  5
2442
  8
OUTLINE
  6
CONTINUOUS
 62
     3
 10
-46.10687
 20
32.534479
 30
0.0
 11
-45.952209
 21
32.603873
 31
0.0
  0
LINE
  5
2443
  8
OUTLINE
  6
CONTINUOUS
 62
     3
 10
-33.22033400000001
 20
61.63752599999999
 30
0.0
 11
-33.22033400000001
 21
62.630463
 31
0.0
  0
LINE
  5
2444
  8
OUTLINE
  6
CONTINUOUS
 62
     3
 10
-34.41185899999999
 20
61.63752599999999
 30
0.0
 11
-34.41185899999999
 21
62.630463
 31
0.0
  0
LINE
  5
2445
  8
OUTLINE
  6
CONTINUOUS
 62
     3
 10
-33.22044099999999
 20
62.630463
 30
0.0
 11
-34.411753
 21
62.630463
 31
0.0
  0
LINE
  5
2446
  8
OUTLINE
  6
CONTINUOUS
 62
     3
 10
-33.22044099999999
 20
62.630463
 30
0.0
 11
-34.411753
 21
62.630463
 31
0.0
  0
LINE
  5
2447
  8
OUTLINE
  6
CONTINUOUS
 62
     3
 10
-34.41185899999999
 20
61.63752599999999
 30
0.0
 11
-34.41185899999999
 21
62.630463
 31
0.0
  0
LINE
  5
2448
  8
OUTLINE
  6
CONTINUOUS
 62
     3
 10
-33.22033400000001
 20
61.63752599999999
 30
0.0
 11
-33.22033400000001
 21
62.630463
 31
0.0
  0
LINE
  5
2449
  8
OUTLINE
  6
CONTINUOUS
 62
     3
 10
-41.74860299999999
 20
61.63752599999999
 30
0.0
 11
-31.29203200000001
 21
61.63752599999999
 31
0.0
  0
LINE
  5
244A
  8
OUTLINE
  6
CONTINUOUS
 62
     3
 10
-31.29203200000001
 20
62.67581
 30
0.0
 11
-31.29203200000001
 21
61.63752599999999
 31
0.0
  0
ARC
  5
244B
  8
OUTLINE
  6
CONTINUOUS
 62
     3
 10
-26.32339199999998
 20
75.467164
 30
0.0
 40
5.0
 50
90.0
 51
180.0
  0
LINE
  5
244C
  8
OUTLINE
  6
CONTINUOUS
 62
     3
 10
-31.495587
 20
69.283227
 30
0.0
 11
-31.37835999999999
 21
75.99915999999999
 31
0.0
  0
LINE
  5
244D
  8
OUTLINE
  6
CONTINUOUS
 62
     3
 10
-31.29203200000001
 20
69.057605
 30
0.0
 11
-40.629368
 21
69.057605
 31
0.0
  0
LINE
  5
244E
  8
OUTLINE
  6
CONTINUOUS
 62
     3
 10
-40.754125
 20
62.681614
 30
0.0
 11
-31.29203200000001
 21
62.67581
 31
0.0
  0
LINE
  5
244F
  8
SIZE
  6
CONTINUOUS
 62
    30
 10
110.0
 20
48.0
 30
0.0
 11
347.972278
 21
48.0
 31
0.0
  0
LINE
  5
2450
  8
SIZE
  6
CONTINUOUS
 62
    30
 10
110.0
 20
0.0
 30
0.0
 11
347.972278
 21
0.0
 31
0.0
  0
LINE
  5
2451
  8
SIZE
  6
CONTINUOUS
 62
    30
 10
327.972278
 20
60.0
 30
0.0
 11
327.972278
 21
72.0
 31
0.0
  0
LINE
  5
2452
  8
SIZE
  6
CONTINUOUS
 62
    30
 10
327.972278
 20
-12.0
 30
0.0
 11
327.972278
 21
-24.0
 31
0.0
  0
LINE
  5
2453
  8
SIZE
  6
CONTINUOUS
 62
    30
 10
327.972278
 20
221.039543
 30
0.0
 11
327.972278
 21
48.0
 31
0.0
  0
TEXT
  5
2454
  8
SIZE
  6
CONTINUOUS
 62
    30
 10
302.972278
 20
94.55382914285713
 30
0.0
 40
64.0
  1
48
 50
90.0
 41
0.9
 72
     1
 11
302.972278
 21
149.410972
 31
0.0
  0
LINE
  5
2455
  8
SIZE
  6
CONTINUOUS
 62
    30
 10
327.972278
 20
48.0
 30
0.0
 11
327.972278
 21
0.0
 31
0.0
  0
LINE
  5
2456
  8
SIZE
  6
CONTINUOUS
 62
    30
 10
327.972278
 20
48.0
 30
0.0
 11
327.972278
 21
0.0
 31
0.0
  0
CIRCLE
  5
2457
  8
SIZE
  6
CONTINUOUS
 62
    30
 10
327.972278
 20
48.0
 30
0.0
 40
6.0
  0
LINE
  5
2458
  8
SIZE
  6
CONTINUOUS
 62
    30
 10
327.972278
 20
48.0
 30
0.0
 11
327.972278
 21
60.0
 31
0.0
  0
CIRCLE
  5
2459
  8
SIZE
  6
CONTINUOUS
 62
    30
 10
327.972278
 20
0.0
 30
0.0
 40
6.0
  0
LINE
  5
245A
  8
SIZE
  6
CONTINUOUS
 62
    30
 10
327.972278
 20
0.0
 30
0.0
 11
327.972278
 21
-12.0
 31
0.0
  0
POINT
  5
245B
  8
DEFPOINTS
  6
CONTINUOUS
 62
    30
 10
90.0
 20
48.0
 30
0.0
  0
POINT
  5
245C
  8
DEFPOINTS
  6
CONTINUOUS
 62
    30
 10
90.0
 20
0.0
 30
0.0
  0
POINT
  5
245D
  8
DEFPOINTS
  6
CONTINUOUS
 62
    30
 10
327.972278
 20
0.0
 30
0.0
  0
CIRCLE
  5
245E
  8
FIX
  6
CONTINUOUS
 62
    11
 10
70.0
 20
0.0
 30
0.0
 40
2.5
  0
LINE
  5
245F
  8
SIZE
  6
CONTINUOUS
 62
    30
 10
110.0
 20
0.0
 30
0.0
 11
466.457481
 21
0.0
 31
0.0
  0
LINE
  5
2460
  8
SIZE
  6
CONTINUOUS
 62
    30
 10
46.5
 20
80.5
 30
0.0
 11
466.457481
 21
80.5
 31
0.0
  0
LINE
  5
2461
  8
SIZE
  6
CONTINUOUS
 62
    30
 10
446.457481
 20
12.0
 30
0.0
 11
446.457481
 21
68.5
 31
0.0
  0
LINE
  5
2462
  8
SIZE
  6
CONTINUOUS
 62
    30
 10
446.457481
 20
319.486725
 30
0.0
 11
446.457481
 21
80.5
 31
0.0
  0
TEXT
  5
2463
  8
SIZE
  6
CONTINUOUS
 62
    30
 10
421.457481
 20
110.715297
 30
0.0
 40
64.0
  1
80.5
 50
90.0
 41
0.9
 72
     1
 11
421.457481
 21
206.715297
 31
0.0
  0
CIRCLE
  5
2464
  8
SIZE
  6
CONTINUOUS
 62
    30
 10
446.457481
 20
0.0
 30
0.0
 40
6.0
  0
LINE
  5
2465
  8
SIZE
  6
CONTINUOUS
 62
    30
 10
446.457481
 20
0.0
 30
0.0
 11
446.457481
 21
12.0
 31
0.0
  0
CIRCLE
  5
2466
  8
SIZE
  6
CONTINUOUS
 62
    30
 10
446.457481
 20
80.5
 30
0.0
 40
6.0
  0
LINE
  5
2467
  8
SIZE
  6
CONTINUOUS
 62
    30
 10
446.457481
 20
80.5
 30
0.0
 11
446.457481
 21
68.5
 31
0.0
  0
POINT
  5
2468
  8
DEFPOINTS
  6
CONTINUOUS
 62
    30
 10
90.0
 20
0.0
 30
0.0
  0
POINT
  5
2469
  8
DEFPOINTS
  6
CONTINUOUS
 62
    30
 10
26.5
 20
80.5
 30
0.0
  0
POINT
  5
246A
  8
DEFPOINTS
  6
CONTINUOUS
 62
    30
 10
446.457481
 20
80.5
 30
0.0
  0
LINE
  5
246B
  8
SIZE
  6
CONTINUOUS
 62
    30
 10
110.0
 20
0.0
 30
0.0
 11
466.457481
 21
0.0
 31
0.0
  0
LINE
  5
246C
  8
SIZE
  6
CONTINUOUS
 62
    30
 10
92.0
 20
-19.5
 30
0.0
 11
466.457481
 21
-19.5
 31
0.0
  0
LINE
  5
246D
  8
SIZE
  6
CONTINUOUS
 62
    30
 10
446.457481
 20
12.0
 30
0.0
 11
446.457481
 21
24.0
 31
0.0
  0
LINE
  5
246E
  8
SIZE
  6
CONTINUOUS
 62
    30
 10
446.457481
 20
-31.50000000000001
 30
0.0
 11
446.457481
 21
-43.50000000000001
 31
0.0
  0
LINE
  5
246F
  8
SIZE
  6
CONTINUOUS
 62
    30
 10
446.457481
 20
-272.928224
 30
0.0
 11
446.457481
 21
-19.5
 31
0.0
  0
TEXT
  5
2470
  8
SIZE
  6
CONTINUOUS
 62
    30
 10
421.457481
 20
-265.7567947142858
 30
0.0
 40
64.0
  1
19.5
 50
90.0
 41
0.9
 72
     1
 11
421.457481
 21
-165.642509
 31
0.0
  0
LINE
  5
2471
  8
SIZE
  6
CONTINUOUS
 62
    30
 10
446.457481
 20
0.0
 30
0.0
 11
446.457481
 21
-19.5
 31
0.0
  0
LINE
  5
2472
  8
SIZE
  6
CONTINUOUS
 62
    30
 10
446.457481
 20
0.0
 30
0.0
 11
446.457481
 21
-19.5
 31
0.0
  0
CIRCLE
  5
2473
  8
SIZE
  6
CONTINUOUS
 62
    30
 10
446.457481
 20
0.0
 30
0.0
 40
6.0
  0
LINE
  5
2474
  8
SIZE
  6
CONTINUOUS
 62
    30
 10
446.457481
 20
0.0
 30
0.0
 11
446.457481
 21
12.0
 31
0.0
  0
CIRCLE
  5
2475
  8
SIZE
  6
CONTINUOUS
 62
    30
 10
446.457481
 20
-19.5
 30
0.0
 40
6.0
  0
LINE
  5
2476
  8
SIZE
  6
CONTINUOUS
 62
    30
 10
446.457481
 20
-19.5
 30
0.0
 11
446.457481
 21
-31.50000000000001
 31
0.0
  0
POINT
  5
2477
  8
DEFPOINTS
  6
CONTINUOUS
 62
    30
 10
90.0
 20
0.0
 30
0.0
  0
POINT
  5
2478
  8
DEFPOINTS
  6
CONTINUOUS
 62
    30
 10
72.0
 20
-19.5
 30
0.0
  0
POINT
  5
2479
  8
DEFPOINTS
  6
CONTINUOUS
 62
    30
 10
446.457481
 20
-19.5
 30
0.0
  0
LINE
  5
247A
  8
NOTE
  6
CONTINUOUS
 62
     4
 10
70.0
 20
20.0
 30
0.0
 11
70.0
 21
-20.0
 31
0.0
  0
LINE
  5
247B
  8
NOTE
  6
CONTINUOUS
 62
     4
 10
50.0
 20
0.0
 30
0.0
 11
90.0
 21
0.0
 31
0.0
  0
LINE
  5
247C
  8
OUTLINE
  6
CONTINUOUS
 62
     3
 10
80.0
 20
-9.739193999999998
 30
0.0
 11
80.0
 21
0.0
 31
0.0
  0
ARC
  5
247D
  8
OUTLINE
  6
CONTINUOUS
 62
     3
 10
70.334563
 20
-9.97618
 30
0.0
 40
9.668341
 50
279.919053
 51
1.404549999999972
  0
ARC
  5
247E
  8
DETAIL
  6
CONTINUOUS
 62
     5
 10
70.334563
 20
-9.97618
 30
0.0
 40
9.668341
 50
279.919053
 51
1.404549999999972
  0
LINE
  5
247F
  8
DETAIL
  6
CONTINUOUS
 62
     5
 10
80.0
 20
-9.739193999999998
 30
0.0
 11
80.0
 21
0.0
 31
0.0
  0
LINE
  5
2480
  8
OUTLINE
  6
CONTINUOUS
 62
     3
 39
50.0
 10
40.352521
 20
69.066217
 30
0.0
 11
31.49388100000002
 21
69.112264
 31
0.0
  0
LINE
  5
2481
  8
OUTLINE
  6
CONTINUOUS
 62
     3
 39
50.0
 10
40.343671
 20
62.63187
 30
0.0
 11
31.71516099999999
 21
62.617041
 31
0.0
  0
LINE
  5
2482
  8
OUTLINE
  6
CONTINUOUS
 62
     3
 10
47.197698
 20
32.207826
 30
0.0
 11
47.718456
 21
0.1099859999999993
 31
0.0
  0
LINE
  5
2483
  8
OUTLINE
  6
CONTINUOUS
 62
     3
 10
33.63627
 20
61.63752599999999
 30
0.0
 11
33.63627
 21
62.630463
 31
0.0
  0
LINE
  5
2484
  8
OUTLINE
  6
CONTINUOUS
 62
     3
 10
34.82779500000001
 20
61.63752599999999
 30
0.0
 11
34.82779500000001
 21
62.630463
 31
0.0
  0
LINE
  5
2485
  8
OUTLINE
  6
CONTINUOUS
 62
     3
 10
33.63637700000001
 20
62.630463
 30
0.0
 11
34.82768799999999
 21
62.630463
 31
0.0
  0
LINE
  5
2486
  8
OUTLINE
  6
CONTINUOUS
 62
     3
 10
33.63637700000001
 20
62.630463
 30
0.0
 11
34.82768799999999
 21
62.630463
 31
0.0
  0
LINE
  5
2487
  8
OUTLINE
  6
CONTINUOUS
 62
     3
 10
34.82779500000001
 20
61.63752599999999
 30
0.0
 11
34.82779500000001
 21
62.630463
 31
0.0
  0
LINE
  5
2488
  8
OUTLINE
  6
CONTINUOUS
 62
     3
 10
33.63627
 20
61.63752599999999
 30
0.0
 11
33.63627
 21
62.630463
 31
0.0
  0
LINE
  5
2489
  8
OUTLINE
  6
CONTINUOUS
 62
     3
 10
46.46522000000002
 20
32.311109
 30
0.0
 11
46.31056000000001
 21
32.380503
 31
0.0
  0
LINE
  5
248A
  8
OUTLINE
  6
CONTINUOUS
 62
     3
 10
46.31056000000001
 20
32.380503
 30
0.0
 11
46.14542500000002
 21
32.585604
 31
0.0
  0
LINE
  5
248B
  8
OUTLINE
  6
CONTINUOUS
 62
     3
 10
46.14542500000002
 20
32.585604
 30
0.0
 11
45.97835900000001
 21
32.914756
 31
0.0
  0
LINE
  5
248C
  8
OUTLINE
  6
CONTINUOUS
 62
     3
 10
45.98048800000001
 20
32.911674
 30
0.0
 11
45.754659
 21
33.728576
 31
0.0
  0
LINE
  5
248D
  8
OUTLINE
  6
CONTINUOUS
 62
     3
 10
47.19425699999999
 20
32.314819
 30
0.0
 11
46.46522000000002
 21
32.311109
 31
0.0
  0
LINE
  5
248E
  8
OUTLINE
  6
CONTINUOUS
 62
     3
 10
45.674511
 20
34.485676
 30
0.0
 11
45.628479
 21
35.268785
 31
0.0
  0
LINE
  5
248F
  8
OUTLINE
  6
CONTINUOUS
 62
     3
 10
45.754659
 20
33.728576
 30
0.0
 11
45.674511
 21
34.485676
 31
0.0
  0
LINE
  5
2490
  8
OUTLINE
  6
CONTINUOUS
 62
     3
 10
45.754659
 20
33.728576
 30
0.0
 11
45.674511
 21
34.485676
 31
0.0
  0
LINE
  5
2491
  8
OUTLINE
  6
CONTINUOUS
 62
     3
 10
45.674511
 20
34.485676
 30
0.0
 11
45.628479
 21
35.268785
 31
0.0
  0
LINE
  5
2492
  8
OUTLINE
  6
CONTINUOUS
 62
     3
 10
47.11631500000001
 20
32.311109
 30
0.0
 11
46.46522000000002
 21
32.311109
 31
0.0
  0
LINE
  5
2493
  8
OUTLINE
  6
CONTINUOUS
 62
     3
 10
46.14542500000002
 20
32.585604
 30
0.0
 11
45.97835900000001
 21
32.914756
 31
0.0
  0
LINE
  5
2494
  8
OUTLINE
  6
CONTINUOUS
 62
     3
 10
46.31056000000001
 20
32.380503
 30
0.0
 11
46.14542500000002
 21
32.585604
 31
0.0
  0
LINE
  5
2495
  8
OUTLINE
  6
CONTINUOUS
 62
     3
 10
46.46522000000002
 20
32.311109
 30
0.0
 11
46.31056000000001
 21
32.380503
 31
0.0
  0
LINE
  5
2496
  8
OUTLINE
  6
CONTINUOUS
 62
     3
 10
44.694061
 20
46.612534
 30
0.0
 11
44.76904300000001
 21
46.31222
 31
0.0
  0
LINE
  5
2497
  8
OUTLINE
  6
CONTINUOUS
 62
     3
 10
44.57982100000001
 20
46.896045
 30
0.0
 11
44.694061
 21
46.612534
 31
0.0
  0
LINE
  5
2498
  8
OUTLINE
  6
CONTINUOUS
 62
     3
 10
44.427784
 20
47.159203
 30
0.0
 11
44.57982100000001
 21
46.896045
 31
0.0
  0
LINE
  5
2499
  8
OUTLINE
  6
CONTINUOUS
 62
     3
 10
44.243425
 20
47.39261
 30
0.0
 11
44.427784
 21
47.159203
 31
0.0
  0
LINE
  5
249A
  8
OUTLINE
  6
CONTINUOUS
 62
     3
 10
44.243425
 20
47.39261
 30
0.0
 11
44.427784
 21
47.159203
 31
0.0
  0
LINE
  5
249B
  8
OUTLINE
  6
CONTINUOUS
 62
     3
 10
44.427784
 20
47.159203
 30
0.0
 11
44.57982100000001
 21
46.896045
 31
0.0
  0
LINE
  5
249C
  8
OUTLINE
  6
CONTINUOUS
 62
     3
 10
44.57982100000001
 20
46.896045
 30
0.0
 11
44.694061
 21
46.612534
 31
0.0
  0
LINE
  5
249D
  8
OUTLINE
  6
CONTINUOUS
 62
     3
 10
44.694061
 20
46.612534
 30
0.0
 11
44.76904300000001
 21
46.31222
 31
0.0
  0
LINE
  5
249E
  8
OUTLINE
  6
CONTINUOUS
 62
     3
 10
44.98962600000002
 20
41.110978
 30
0.0
 11
44.802064
 21
46.005715
 31
0.0
  0
LINE
  5
249F
  8
OUTLINE
  6
CONTINUOUS
 62
     3
 10
44.98962600000002
 20
41.110978
 30
0.0
 11
44.802064
 21
46.005715
 31
0.0
  0
LINE
  5
24A0
  8
OUTLINE
  6
CONTINUOUS
 62
     3
 10
44.76904300000001
 20
46.31222
 30
0.0
 11
44.802064
 21
46.005715
 31
0.0
  0
LINE
  5
24A1
  8
OUTLINE
  6
CONTINUOUS
 62
     3
 10
44.76904300000001
 20
46.31222
 30
0.0
 11
44.802064
 21
46.005715
 31
0.0
  0
LINE
  5
24A2
  8
OUTLINE
  6
CONTINUOUS
 62
     3
 10
43.444907
 20
52.270707
 30
0.0
 11
43.24528900000001
 21
56.48160799999999
 31
0.0
  0
LINE
  5
24A3
  8
OUTLINE
  6
CONTINUOUS
 62
     3
 10
43.64100999999999
 20
48.06182
 30
0.0
 11
43.444907
 21
52.270707
 31
0.0
  0
LINE
  5
24A4
  8
OUTLINE
  6
CONTINUOUS
 62
     3
 10
43.64100999999999
 20
48.06182
 30
0.0
 11
43.444907
 21
52.270707
 31
0.0
  0
LINE
  5
24A5
  8
OUTLINE
  6
CONTINUOUS
 62
     3
 10
43.444907
 20
52.270707
 30
0.0
 11
43.24528900000001
 21
56.48160799999999
 31
0.0
  0
LINE
  5
24A6
  8
OUTLINE
  6
CONTINUOUS
 62
     3
 10
43.62925899999999
 20
48.06182
 30
0.0
 11
44.243425
 21
47.39261
 31
0.0
  0
LINE
  5
24A7
  8
OUTLINE
  6
CONTINUOUS
 62
     3
 10
43.64100999999999
 20
48.06182
 30
0.0
 11
44.243425
 21
47.39261
 31
0.0
  0
LINE
  5
24A8
  8
OUTLINE
  6
CONTINUOUS
 62
     3
 10
37.785077
 20
61.63752599999999
 30
0.0
 11
37.785077
 21
62.630463
 31
0.0
  0
LINE
  5
24A9
  8
OUTLINE
  6
CONTINUOUS
 62
     3
 10
38.97660200000001
 20
61.63752599999999
 30
0.0
 11
38.97660200000001
 21
62.630463
 31
0.0
  0
LINE
  5
24AA
  8
OUTLINE
  6
CONTINUOUS
 62
     3
 10
37.78518300000002
 20
62.630463
 30
0.0
 11
38.976495
 21
62.630463
 31
0.0
  0
LINE
  5
24AB
  8
OUTLINE
  6
CONTINUOUS
 62
     3
 10
37.78518300000002
 20
62.630463
 30
0.0
 11
38.976495
 21
62.630463
 31
0.0
  0
LINE
  5
24AC
  8
OUTLINE
  6
CONTINUOUS
 62
     3
 10
38.97660200000001
 20
61.63752599999999
 30
0.0
 11
38.97660200000001
 21
62.630463
 31
0.0
  0
LINE
  5
24AD
  8
OUTLINE
  6
CONTINUOUS
 62
     3
 10
37.785077
 20
61.63752599999999
 30
0.0
 11
37.785077
 21
62.630463
 31
0.0
  0
LINE
  5
24AE
  8
OUTLINE
  6
CONTINUOUS
 62
     3
 10
43.24528900000001
 20
56.48160799999999
 30
0.0
 11
42.16453899999999
 21
61.63752599999999
 31
0.0
  0
LINE
  5
24AF
  8
OUTLINE
  6
CONTINUOUS
 62
     3
 10
43.24528900000001
 20
56.48160799999999
 30
0.0
 11
42.16453899999999
 21
61.63752599999999
 31
0.0
  0
LINE
  5
24B0
  8
OUTLINE
  6
CONTINUOUS
 62
     3
 10
45.62533200000001
 20
35.201178
 30
0.0
 11
44.98962600000002
 21
41.110978
 31
0.0
  0
LINE
  5
24B1
  8
OUTLINE
  6
CONTINUOUS
 62
     3
 10
42.16453899999999
 20
61.63752599999999
 30
0.0
 11
31.70796799999999
 21
61.63752599999999
 31
0.0
  0
LINE
  5
24B2
  8
OUTLINE
  6
CONTINUOUS
 62
     3
 10
31.70796799999999
 20
61.63752599999999
 30
0.0
 11
31.82067900000001
 21
62.604052
 31
0.0
  0
ARC
  5
24B3
  8
OUTLINE
  6
CONTINUOUS
 62
     3
 10
26.67660800000002
 20
75.467164
 30
0.0
 40
5.0
 50
0.0
 51
90.0
  0
LINE
  5
24B4
  8
OUTLINE
  6
CONTINUOUS
 62
     3
 10
40.343671
 20
62.63187
 30
0.0
 11
40.352521
 21
69.066217
 31
0.0
  0
LINE
  5
24B5
  8
OUTLINE
  6
CONTINUOUS
 62
     3
 10
31.49388100000002
 20
69.112264
 30
0.0
 11
31.667145
 21
75.518309
 31
0.0
  0
ENDSEC
  0
EOF
