  0
SECTION
  2
HEADER
  9
$ACADVER
  1
AC1009
  9
$DWGCODEPAGE
  3
dos932
  9
$INSBASE
 10
0.0
 20
0.0
 30
0.0
  9
$EXTMIN
 10
-104.00027418993
 20
-108.37734430170561
 30
0.0
  9
$EXTMAX
 10
740.01797299760426
 20
508.03674560464509
 30
50.0
  9
$LIMMIN
 10
-2970.0
 20
-2100.0
  9
$LIMMAX
 10
2970.0
 20
2100.0
  9
$ORTHOMODE
 70
     1
  9
$REGENMODE
 70
     1
  9
$FILLMODE
 70
     1
  9
$QTEXTMODE
 70
     0
  9
$MIRRTEXT
 70
     0
  9
$LTSCALE
 40
20.0
  9
$ATTMODE
 70
     1
  9
$TEXTSIZE
 40
64.0
  9
$TRACEWID
 40
0.05
  9
$TEXTSTYLE
  7
STANDARD
  9
$CLAYER
  8
NOTE
  9
$CELTYPE
  6
CONTINUOUS
  9
$CECOLOR
 62
     7
  9
$DIMSCALE
 40
1.0
  9
$DIMASZ
 40
12.0
  9
$DIMEXO
 40
20.0
  9
$DIMDLI
 40
200.0
  9
$DIMRND
 40
0.0
  9
$DIMDLE
 40
0.0
  9
$DIMEXE
 40
20.0
  9
$DIMTP
 40
0.0
  9
$DIMTM
 40
0.0
  9
$DIMTXT
 40
64.0
  9
$DIMCEN
 40
0.09
  9
$DIMTSZ
 40
0.0
  9
$DIMTOL
 70
     0
  9
$DIMLIM
 70
     0
  9
$DIMTIH
 70
     0
  9
$DIMTOH
 70
     0
  9
$DIMSE1
 70
     0
  9
$DIMSE2
 70
     0
  9
$DIMTAD
 70
     1
  9
$DIMZIN
 70
     8
  9
$DIMBLK
  1

  9
$DIMASO
 70
     1
  9
$DIMSHO
 70
     0
  9
$DIMPOST
  1

  9
$DIMAPOST
  1

  9
$DIMALT
 70
     0
  9
$DIMALTD
 70
     2
  9
$DIMALTF
 40
25.399999999999999
  9
$DIMLFAC
 40
1.0
  9
$DIMTOFL
 70
     1
  9
$DIMTVP
 40
0.0
  9
$DIMTIX
 70
     1
  9
$DIMSOXD
 70
     0
  9
$DIMSAH
 70
     0
  9
$DIMBLK1
  1

  9
$DIMBLK2
  1

  9
$DIMSTYLE
  2
STANDARD
  9
$DIMCLRD
 70
     7
  9
$DIMCLRE
 70
     7
  9
$DIMCLRT
 70
     7
  9
$DIMTFAC
 40
1.0
  9
$DIMGAP
 40
25.0
  9
$LUNITS
 70
     2
  9
$LUPREC
 70
     4
  9
$SKETCHINC
 40
0.1
  9
$FILLETRAD
 40
3.0
  9
$AUNITS
 70
     1
  9
$AUPREC
 70
     3
  9
$MENU
  1
ACAD
  9
$ELEVATION
 40
0.0
  9
$PELEVATION
 40
0.0
  9
$THICKNESS
 40
50.0
  9
$LIMCHECK
 70
     0
  9
$CHAMFERA
 40
0.0
  9
$CHAMFERB
 40
0.0
  9
$SKPOLY
 70
     0
  9
$TDCREATE
 40
2453019.623009259
  9
$TDUPDATE
 40
2459356.650889965
  9
$TDINDWG
 40
1.7090835185
  9
$TDUSRTIMER
 40
1.7090835185
  9
$USRTIMER
 70
     1
  9
$ANGBASE
 50
0.0
  9
$ANGDIR
 70
     0
  9
$PDMODE
 70
     3
  9
$PDSIZE
 40
-2.0
  9
$PLINEWID
 40
0.0
  9
$SPLFRAME
 70
     0
  9
$SPLINETYPE
 70
     6
  9
$SPLINESEGS
 70
     8
  9
$SURFTAB1
 70
     6
  9
$SURFTAB2
 70
     6
  9
$SURFTYPE
 70
     6
  9
$SURFU
 70
     6
  9
$SURFV
 70
     6
  9
$UCSNAME
  2

  9
$UCSORG
 10
0.0
 20
0.0
 30
0.0
  9
$UCSXDIR
 10
1.0
 20
0.0
 30
0.0
  9
$UCSYDIR
 10
0.0
 20
1.0
 30
0.0
  9
$PUCSNAME
  2

  9
$PUCSORG
 10
0.0
 20
0.0
 30
0.0
  9
$PUCSXDIR
 10
1.0
 20
0.0
 30
0.0
  9
$PUCSYDIR
 10
0.0
 20
1.0
 30
0.0
  9
$USERI1
 70
     0
  9
$USERI2
 70
     0
  9
$USERI3
 70
     0
  9
$USERI4
 70
     0
  9
$USERI5
 70
     0
  9
$USERR1
 40
20.0
  9
$USERR2
 40
0.0
  9
$USERR3
 40
0.0
  9
$USERR4
 40
0.0
  9
$USERR5
 40
0.0
  9
$WORLDVIEW
 70
     1
  9
$SHADEDGE
 70
     3
  9
$SHADEDIF
 70
    70
  9
$TILEMODE
 70
     1
  9
$MAXACTVP
 70
    48
  9
$PINSBASE
 10
0.0
 20
0.0
 30
0.0
  9
$PLIMCHECK
 70
     0
  9
$PEXTMIN
 10
-100000000000000000000.0
 20
-100000000000000000000.0
 30
-100000000000000000000.0
  9
$PEXTMAX
 10
100000000000000000000.0
 20
100000000000000000000.0
 30
100000000000000000000.0
  9
$PLIMMIN
 10
0.0
 20
0.0
  9
$PLIMMAX
 10
12.0
 20
9.0
  9
$UNITMODE
 70
     0
  9
$VISRETAIN
 70
     0
  9
$PLINEGEN
 70
     0
  9
$PSLTSCALE
 70
     0
  9
$TREEDEPTH
 70
  3020
  9
$ATTDIA
 70
     0
  9
$ATTREQ
 70
     1
  9
$BLIPMODE
 70
     1
  9
$COORDS
 70
     1
  9
$DRAGMODE
 70
     2
  9
$OSMODE
 70
     0
  9
$HANDLING
 70
     0
  9
$HANDSEED
  5
1E4
  0
ENDSEC
  0
SECTION
  2
TABLES
  0
TABLE
  2
LTYPE
 70
     2
  0
LTYPE
  2
CONTINUOUS
 70
     0
  3
実線
 72
    65
 73
     0
 40
0.0
  0
LTYPE
  2
DASHDOT
 70
     0
  3
____ _ ____ _ ____ _ ____ _ ____ _ ____ _ ____
 72
    65
 73
     4
 40
5.5
 49
4.0
 49
-0.6
 49
0.3
 49
-0.6
  0
ENDTAB
  0
TABLE
  2
LAYER
 70
    12
  0
LAYER
  2
NOTE
 70
     0
 62
     4
  6
CONTINUOUS
  0
LAYER
  2
BASIS
 70
     0
 62
     6
  6
DASHDOT
  0
LAYER
  2
OUTLINE
 70
     0
 62
     3
  6
CONTINUOUS
  0
LAYER
  2
DETAIL
 70
     0
 62
     5
  6
CONTINUOUS
  0
LAYER
  2
SIZE
 70
     0
 62
    30
  6
CONTINUOUS
  0
LAYER
  2
ARRANGE
 70
     0
 62
     1
  6
CONTINUOUS
  0
LAYER
  2
DEFPOINTS
 70
     0
 62
     7
  6
CONTINUOUS
  0
LAYER
  2
ETC
 70
     0
 62
    61
  6
CONTINUOUS
  0
LAYER
  2
0
 70
    64
 62
     7
  6
CONTINUOUS
  0
LAYER
  2
FIX
 70
    64
 62
    11
  6
CONTINUOUS
  0
LAYER
  2
SERVICESPACE
 70
    64
 62
     2
  6
DASHDOT
  0
LAYER
  2
SYMBOLLINE
 70
    64
 62
    15
  6
CONTINUOUS
  0
ENDTAB
  0
TABLE
  2
STYLE
 70
     1
  0
STYLE
  2
STANDARD
 70
     0
 40
64.0
 41
0.9
 50
0.0
 71
     0
 42
64.0
  3
SIMPLEX.shx
  4
BIGFONT.shx
  0
ENDTAB
  0
TABLE
  2
APPID
 70
    18
  0
APPID
  2
ACAD
 70
     0
  0
APPID
  2
ACADANNOTATIVE
 70
     0
  0
APPID
  2
AUTOCAD_POSTSCRIPT_FIGURE
 70
     0
  0
APPID
  2
ACAD_EXEMPT_FROM_CAD_STANDARDS
 70
     0
  0
APPID
  2
ACAD_PSEXT
 70
     0
  0
APPID
  2
ACAUTHENVIRON
 70
     0
  0
APPID
  2
GENIUS_GENOENT_13
 70
     0
  0
APPID
  2
GENIUS_GENCFG_13
 70
     0
  0
APPID
  2
GENIUS_GENCFG0_13
 70
     0
  0
APPID
  2
GENIUS_GENCFG1_13
 70
     0
  0
APPID
  2
GENIUS_GENCFG2_13
 70
     0
  0
APPID
  2
GENIUS_GENCFG3_13
 70
     0
  0
APPID
  2
GENIUS_GENCFG4_13
 70
     0
  0
APPID
  2
GENIUS_GEVCFG0_13
 70
     0
  0
APPID
  2
CONTENTBLOCKICON
 70
     0
  0
APPID
  2
CONTENTBLOCKDESCRIPTION
 70
     0
  0
APPID
  2
ACAD_NAV_VCDISPLAY
 70
     0
  0
APPID
  2
ACAD_MLEADERVER
 70
     0
  0
ENDTAB
  0
TABLE
  2
DIMSTYLE
 70
     1
  0
DIMSTYLE
  2
STANDARD
 70
     0
  3

  4

  5

  6

  7

 40
1.0
 41
12.0
 42
20.0
 43
200.0
 44
20.0
 45
0.0
 46
0.0
 47
0.0
 48
0.0
140
64.0
141
0.09
142
0.0
143
25.399999999999999
144
1.0
145
0.0
146
1.0
147
25.0
 71
     0
 72
     0
 73
     0
 74
     0
 75
     0
 76
     0
 77
     1
 78
     8
170
     0
171
     2
172
     1
173
     0
174
     1
175
     0
176
     7
177
     7
178
     7
  0
ENDTAB
  0
TABLE
  2
VIEW
 70
     1
  0
VIEW
  2
ALL
 70
     0
 40
4282.6198079999986
 10
0.0
 20
41.309904000000003
 41
5940.0
 11
0.0
 21
0.0
 31
1.0
 12
0.0
 22
0.0
 32
0.0
 42
50.0
 43
0.0
 44
0.0
 50
0.0
 71
     0
  0
ENDTAB
  0
TABLE
  2
UCS
 70
     0
  0
ENDTAB
  0
TABLE
  2
VPORT
 70
     1
  0
VPORT
  2
*ACTIVE
 70
     0
 10
0.0
 20
0.0
 11
1.0
 21
1.0
 12
317.91001786234392
 22
205.1956771531575
 13
0.0
 23
0.0
 14
1.0
 24
1.0
 15
0.0
 25
0.0
 16
0.0
 26
0.0
 36
1.0
 17
0.0
 27
0.0
 37
0.0
 40
632.06245955009888
 41
1.767337807606264
 42
50.0
 43
0.0
 44
0.0
 50
0.0
 51
0.0
 71
     0
 72
  1000
 73
     1
 74
     3
 75
     0
 76
     0
 77
     0
 78
     0
  0
ENDTAB
  0
ENDSEC
  0
SECTION
  2
BLOCKS
  0
ENDSEC
  0
SECTION
  2
ENTITIES
  0
CIRCLE
  8
ARRANGE
  6
CONTINUOUS
 62
     1
 10
0.0
 20
0.0
 30
0.0
 40
40.0
  0
POINT
  8
ARRANGE
  6
CONTINUOUS
 62
     1
 10
0.0
 20
0.0
 30
0.0
  0
LINE
  8
BASIS
  6
DASHDOT
 62
     6
 10
0.0
 20
-108.37734430170561
 30
0.0
 11
0.0
 21
108.3773443017057
 31
0.0
  0
LINE
  8
BASIS
  6
DASHDOT
 62
     6
 10
95.967552833830439
 20
0.0
 30
0.0
 11
-95.967646960021909
 21
0.0000000000000142
 31
0.0
  0
LINE
  8
SIZE
  6
CONTINUOUS
 62
    30
 10
79.999725809130197
 20
20.0
 30
0.0
 11
79.999725809130268
 21
225.21909118443881
 31
0.0
  0
LINE
  8
SIZE
  6
CONTINUOUS
 62
    30
 10
-80.000274189929982
 20
20.0
 30
0.0
 11
-80.000274189929954
 21
225.21909118443881
 31
0.0
  0
LINE
  8
SIZE
  6
CONTINUOUS
 62
    30
 10
91.999725809130211
 20
205.21909118443881
 30
0.0
 11
103.9997258091303
 21
205.21909118443881
 31
0.0
  0
LINE
  8
SIZE
  6
CONTINUOUS
 62
    30
 10
-92.000274189929968
 20
205.21909118443881
 30
0.0
 11
-104.00027418993
 21
205.21909118443881
 31
0.0
  0
LINE
  8
SIZE
  6
CONTINUOUS
 62
    30
 10
79.999725809130268
 20
205.21909118443881
 30
0.0
 11
-80.000274189929954
 21
205.21909118443881
 31
0.0
  0
CIRCLE
  8
SIZE
  6
CONTINUOUS
 62
    30
 10
79.999725809130268
 20
205.21909118443881
 30
0.0
 40
6.0
  0
LINE
  8
SIZE
  6
CONTINUOUS
 62
    30
 10
79.999725809130268
 20
205.21909118443881
 30
0.0
 11
91.999725809130211
 21
205.21909118443881
 31
0.0
  0
CIRCLE
  8
SIZE
  6
CONTINUOUS
 62
    30
 10
-80.000274189929954
 20
205.21909118443881
 30
0.0
 40
6.0
  0
LINE
  8
SIZE
  6
CONTINUOUS
 62
    30
 10
-80.000274189929954
 20
205.21909118443881
 30
0.0
 11
-92.000274189929968
 21
205.21909118443881
 31
0.0
  0
TEXT
  8
SIZE
  6
CONTINUOUS
 62
    30
 10
-108.8917027618284
 20
240.8857578511055
 30
0.0
 40
64.0
  1
φ160
 41
0.9
 72
     1
 11
-0.000274190399864
 21
240.8857578511055
 31
0.0
  0
POINT
  8
DEFPOINTS
  6
CONTINUOUS
 62
    30
 10
79.999725809130197
 20
0.0
 30
0.0
  0
POINT
  8
DEFPOINTS
  6
CONTINUOUS
 62
    30
 10
-80.000274189929982
 20
0.0000000000000142
 30
0.0
  0
POINT
  8
DEFPOINTS
  6
CONTINUOUS
 62
    30
 10
-80.000274189929954
 20
205.21909118443881
 30
0.0
  0
TEXT
  8
ETC
  6
CONTINUOUS
 62
    61
 10
172.24654442617609
 20
444.03674560464509
 30
0.0
 40
64.0
  1
V-08PPC8_2
 41
0.9
  0
TEXT
  8
ETC
  6
CONTINUOUS
 62
    61
 10
168.06055042617569
 20
326.08143558981402
 30
0.0
 40
64.0
  1
換気扇
 41
0.9
  0
TEXT
  8
ETC
  6
CONTINUOUS
 62
    61
 10
218.76194867473171
 20
217.9326627035887
 30
0.0
 40
40.0
  1
V-08PPC8
 41
0.9
  0
LINE
  8
DETAIL
  6
CONTINUOUS
 62
     5
 10
-47.868471097799898
 20
-29.093724408800089
 30
0.0
 11
-47.957235596199887
 21
-29.010769330900079
 31
0.0
  0
LINE
  8
DETAIL
  6
CONTINUOUS
 62
     5
 10
-47.957235596199887
 20
-29.010769330900079
 30
0.0
 11
-48.027321145599792
 21
-28.914984967700089
 31
0.0
  0
LINE
  8
DETAIL
  6
CONTINUOUS
 62
     5
 10
-45.05059949779978
 20
-27.919231722800081
 30
0.0
 11
-45.051174306999769
 21
-27.918304183300052
 31
0.0
  0
LINE
  8
DETAIL
  6
CONTINUOUS
 62
     5
 10
-46.703963314299813
 20
-25.055521589300039
 30
0.0
 11
-46.703447446099872
 21
-25.056483158400049
 31
0.0
  0
LINE
  8
DETAIL
  6
CONTINUOUS
 62
     5
 10
-49.054671744199943
 20
-27.135561533800111
 30
0.0
 11
-49.10258066169979
 21
-27.026973485600021
 31
0.0
  0
LINE
  8
DETAIL
  6
CONTINUOUS
 62
     5
 10
-49.10258066169979
 20
-27.026973485600021
 30
0.0
 11
-49.130039617399802
 21
-26.908623635600069
 31
0.0
  0
LINE
  8
DETAIL
  6
CONTINUOUS
 62
     5
 10
-49.130039617399802
 20
-26.908623635600069
 30
0.0
 11
-49.13256163449978
 21
-26.791728869300069
 31
0.0
  0
LINE
  8
DETAIL
  6
CONTINUOUS
 62
     5
 10
11.15197477810011
 20
-79.112478018000104
 30
0.0
 11
11.099144881700109
 21
-79.094431670500001
 31
0.0
  0
LINE
  8
DETAIL
  6
CONTINUOUS
 62
     5
 10
-47.768498269299812
 20
-29.154355922900091
 30
0.0
 11
-47.868471097799898
 21
-29.093724408800089
 31
0.0
  0
LINE
  8
DETAIL
  6
CONTINUOUS
 62
     5
 10
-49.13256163449978
 20
-26.791728869300069
 30
0.0
 11
-49.108947933899792
 21
-26.682717534300082
 31
0.0
  0
LINE
  8
DETAIL
  6
CONTINUOUS
 62
     5
 10
-4.9536192994997919
 20
-79.629982399699941
 30
0.0
 11
-4.2029500916997904
 21
-79.67150971220012
 31
0.0
  0
LINE
  8
DETAIL
  6
CONTINUOUS
 62
     5
 10
-5.6765763413998229
 20
-79.584452727700011
 30
0.0
 11
-4.9536192994997919
 21
-79.629982399699941
 31
0.0
  0
LINE
  8
DETAIL
  6
CONTINUOUS
 62
     5
 10
-6.3673070102997844
 20
-79.53593507460009
 30
0.0
 11
-5.6765763413998229
 21
-79.584452727700011
 31
0.0
  0
LINE
  8
DETAIL
  6
CONTINUOUS
 62
     5
 10
-7.0219472525998299
 20
-79.485515173099941
 30
0.0
 11
-6.3673070102997844
 21
-79.53593507460009
 31
0.0
  0
LINE
  8
DETAIL
  6
CONTINUOUS
 62
     5
 10
-7.6373490691999004
 20
-79.434291001500043
 30
0.0
 11
-7.0219472525998299
 21
-79.485515173099941
 31
0.0
  0
LINE
  8
DETAIL
  6
CONTINUOUS
 62
     5
 10
-8.2109327875998588
 20
-79.383334841699977
 30
0.0
 11
-7.6373490691999004
 21
-79.434291001500043
 31
0.0
  0
LINE
  8
DETAIL
  6
CONTINUOUS
 62
     5
 10
-11.2345381831999
 20
-79.081889006000054
 30
0.0
 11
-11.057207177899841
 21
-79.098525734900079
 31
0.0
  0
LINE
  8
DETAIL
  6
CONTINUOUS
 62
     5
 10
-8.988757405599813
 20
-79.30964892050001
 30
0.0
 11
-8.2109327875998588
 21
-79.383334841699977
 31
0.0
  0
LINE
  8
DETAIL
  6
CONTINUOUS
 62
     5
 10
-9.8656732418998008
 20
-79.221248702900141
 30
0.0
 11
-8.988757405599813
 21
-79.30964892050001
 31
0.0
  0
LINE
  8
DETAIL
  6
CONTINUOUS
 62
     5
 10
-11.057207177899841
 20
-79.098525734900079
 30
0.0
 11
-10.69926352979985
 21
-79.13459518359997
 31
0.0
  0
LINE
  8
DETAIL
  6
CONTINUOUS
 62
     5
 10
-10.69926352979985
 20
-79.13459518359997
 30
0.0
 11
-9.8656732418998008
 21
-79.221248702900141
 31
0.0
  0
LINE
  8
DETAIL
  6
CONTINUOUS
 62
     5
 10
11.43601219220022
 20
-79.151997379299985
 30
0.0
 11
11.15197477810011
 21
-79.112478018000104
 31
0.0
  0
LINE
  8
DETAIL
  6
CONTINUOUS
 62
     5
 10
-47.6622848336998
 20
-29.188411525900051
 30
0.0
 11
-47.768498269299812
 21
-29.154355922900091
 31
0.0
  0
LINE
  8
DETAIL
  6
CONTINUOUS
 62
     5
 10
1.5255169988001851
 20
55.6799596221
 30
0.0
 11
1.651998948700111
 21
52.973964770299872
 31
0.0
  0
LINE
  8
DETAIL
  6
CONTINUOUS
 62
     5
 10
-1.650274190399841
 20
4.416455368799916
 30
0.0
 11
-1.650274190399841
 21
53.022330531100003
 31
0.0
  0
LINE
  8
DETAIL
  6
CONTINUOUS
 62
     5
 10
1.6497258096
 20
53.022330531100003
 30
0.0
 11
1.6497258096
 21
4.416455368799916
 31
0.0
  0
LINE
  8
DETAIL
  6
CONTINUOUS
 62
     5
 10
-1.5260653794998691
 20
55.6799596221
 30
0.0
 11
-1.652547329499839
 21
52.973964770299872
 31
0.0
  0
LINE
  8
DETAIL
  6
CONTINUOUS
 62
     5
 10
-1.5260653794998691
 20
55.6799596221
 30
0.0
 11
-1.5031823557998221
 21
55.779591034199932
 31
0.0
  0
LINE
  8
DETAIL
  6
CONTINUOUS
 62
     5
 10
10.91580998160032
 20
-79.112464707500123
 30
0.0
 11
11.1051324048002
 21
-79.09385048950007
 31
0.0
  0
LINE
  8
DETAIL
  6
CONTINUOUS
 62
     5
 10
8.5325212005001259
 20
-79.353431922600123
 30
0.0
 11
9.1983976828001914
 21
-79.288915553300114
 31
0.0
  0
LINE
  8
DETAIL
  6
CONTINUOUS
 62
     5
 10
11.1051324048002
 20
-79.09385048950007
 30
0.0
 11
11.256348792899979
 21
-79.079907745599982
 31
0.0
  0
LINE
  8
DETAIL
  6
CONTINUOUS
 62
     5
 10
8.0432376946001796
 20
-79.398492410199935
 30
0.0
 11
8.5325212005001259
 21
-79.353431922600123
 31
0.0
  0
LINE
  8
DETAIL
  6
CONTINUOUS
 62
     5
 10
7.5190656859001583
 20
-79.444371344600142
 30
0.0
 11
8.0432376946001796
 21
-79.398492410199935
 31
0.0
  0
LINE
  8
DETAIL
  6
CONTINUOUS
 62
     5
 10
6.9617265357001088
 20
-79.490288204800038
 30
0.0
 11
7.5190656859001583
 21
-79.444371344600142
 31
0.0
  0
LINE
  8
DETAIL
  6
CONTINUOUS
 62
     5
 10
6.3732701206001821
 20
-79.535453791299972
 30
0.0
 11
6.9617265357001088
 21
-79.490288204800038
 31
0.0
  0
LINE
  8
DETAIL
  6
CONTINUOUS
 62
     5
 10
5.7561770119001494
 20
-79.579072798000013
 30
0.0
 11
6.3732701206001821
 21
-79.535453791299972
 31
0.0
  0
LINE
  8
DETAIL
  6
CONTINUOUS
 62
     5
 10
5.1133699553001852
 20
-79.620353698600013
 30
0.0
 11
5.7561770119001494
 21
-79.579072798000013
 31
0.0
  0
LINE
  8
DETAIL
  6
CONTINUOUS
 62
     5
 10
4.4481791465001379
 20
-79.658563980100141
 30
0.0
 11
5.1133699553001852
 21
-79.620353698600013
 31
0.0
  0
LINE
  8
DETAIL
  6
CONTINUOUS
 62
     5
 10
11.719436924900149
 20
-79.137170587599982
 30
0.0
 11
11.43601219220022
 21
-79.151997379299985
 31
0.0
  0
LINE
  8
DETAIL
  6
CONTINUOUS
 62
     5
 10
3.764531221900143
 20
-79.693013965500143
 30
0.0
 11
4.4481791465001379
 21
-79.658563980100141
 31
0.0
  0
LINE
  8
DETAIL
  6
CONTINUOUS
 62
     5
 10
3.566791294500149
 20
-79.702072869300139
 30
0.0
 11
3.764531221900143
 21
-79.693013965500143
 31
0.0
  0
LINE
  8
DETAIL
  6
CONTINUOUS
 62
     5
 10
-4.2029500916997904
 20
-79.67150971220012
 30
0.0
 11
-3.5673396095997991
 21
-79.702071398800001
 31
0.0
  0
LINE
  8
DETAIL
  6
CONTINUOUS
 62
     5
 10
-11.43656057289979
 20
-79.151997379299985
 30
0.0
 11
-11.719985305599829
 21
-79.137170587599982
 31
0.0
  0
LINE
  8
DETAIL
  6
CONTINUOUS
 62
     5
 10
47.555052030600102
 20
-29.19176345390008
 30
0.0
 11
47.45732718530018
 21
-29.161765027400069
 31
0.0
  0
LINE
  8
DETAIL
  6
CONTINUOUS
 62
     5
 10
47.45732718530018
 20
-29.161765027400069
 30
0.0
 11
45.050625926300199
 21
-27.918304183300052
 31
0.0
  0
LINE
  8
DETAIL
  6
CONTINUOUS
 62
     5
 10
45.093648473300149
 20
-27.940518467500048
 30
0.0
 11
2.999725809600136
 21
-3.6375808864000869
 31
0.0
  0
LINE
  8
DETAIL
  6
CONTINUOUS
 62
     5
 10
4.6497258095999996
 20
-0.7796970539000085
 30
0.0
 11
46.743648473300141
 21
-25.08263463500009
 31
0.0
  0
LINE
  8
DETAIL
  6
CONTINUOUS
 62
     5
 10
48.983118374500243
 20
-26.51901716600003
 30
0.0
 11
46.702899065400167
 21
-25.056483158400049
 31
0.0
  0
LINE
  8
DETAIL
  6
CONTINUOUS
 62
     5
 10
48.983118374500243
 20
-26.51901716600003
 30
0.0
 11
49.057960196500183
 21
-26.588650152100069
 31
0.0
  0
LINE
  8
DETAIL
  6
CONTINUOUS
 62
     5
 10
1.4463889081001751
 20
55.870306490199937
 30
0.0
 11
1.502633974900164
 21
55.779591034199932
 31
0.0
  0
LINE
  8
DETAIL
  6
CONTINUOUS
 62
     5
 10
49.057960196500183
 20
-26.588650152100069
 30
0.0
 11
49.108399552600183
 21
-26.68271753660008
 31
0.0
  0
LINE
  8
DETAIL
  6
CONTINUOUS
 62
     5
 10
1.502633974900164
 20
55.779591034199932
 30
0.0
 11
1.5255169988001851
 21
55.6799596221
 31
0.0
  0
LINE
  8
DETAIL
  6
CONTINUOUS
 62
     5
 10
-49.108947933899792
 20
-26.682717534300082
 30
0.0
 11
-49.058508577399827
 21
-26.58865015050003
 31
0.0
  0
LINE
  8
DETAIL
  6
CONTINUOUS
 62
     5
 10
-11.15252315879968
 20
-79.112478018000104
 30
0.0
 11
-11.43656057289979
 21
-79.151997379299985
 31
0.0
  0
LINE
  8
DETAIL
  6
CONTINUOUS
 62
     5
 10
9.1983976828001914
 20
-79.288915553300114
 30
0.0
 11
10.91580998160032
 21
-79.112464707500123
 31
0.0
  0
LINE
  8
DETAIL
  6
CONTINUOUS
 62
     5
 10
-47.555600411199848
 20
-29.191763454100059
 30
0.0
 11
-47.6622848336998
 21
-29.188411525900051
 31
0.0
  0
LINE
  8
DETAIL
  6
CONTINUOUS
 62
     5
 10
1.3637891728002389
 20
55.945262221899959
 30
0.0
 11
1.4463889081001751
 21
55.870306490199937
 31
0.0
  0
LINE
  8
DETAIL
  6
CONTINUOUS
 62
     5
 10
49.108399552600183
 20
-26.68271753660008
 30
0.0
 11
49.132013252900151
 21
-26.791728871600071
 31
0.0
  0
LINE
  8
DETAIL
  6
CONTINUOUS
 62
     5
 10
49.132013252900151
 20
-26.791728871600071
 30
0.0
 11
49.129491235500147
 21
-26.908623637600041
 31
0.0
  0
LINE
  8
DETAIL
  6
CONTINUOUS
 62
     5
 10
-1.5031823557998221
 20
55.779591034199932
 30
0.0
 11
-1.4469372890997649
 21
55.870306490199937
 31
0.0
  0
LINE
  8
DETAIL
  6
CONTINUOUS
 62
     5
 10
47.661736453100147
 20
-29.188411525700079
 30
0.0
 11
47.555052030600102
 21
-29.19176345390008
 31
0.0
  0
LINE
  8
DETAIL
  6
CONTINUOUS
 62
     5
 10
1.261294327200176
 20
56.001525473799923
 30
0.0
 11
1.3637891728002389
 21
55.945262221899959
 31
0.0
  0
LINE
  8
DETAIL
  6
CONTINUOUS
 62
     5
 10
49.129491235500147
 20
-26.908623637600041
 30
0.0
 11
49.102032279900193
 21
-27.026973486500079
 31
0.0
  0
LINE
  8
DETAIL
  6
CONTINUOUS
 62
     5
 10
-1.4469372890997649
 20
55.870306490199937
 30
0.0
 11
-1.364337553899873
 21
55.945262221899959
 31
0.0
  0
LINE
  8
DETAIL
  6
CONTINUOUS
 62
     5
 10
1.1450708738001369
 20
56.036920245099957
 30
0.0
 11
1.261294327200176
 21
56.001525473799923
 31
0.0
  0
LINE
  8
DETAIL
  6
CONTINUOUS
 62
     5
 10
49.102032279900193
 20
-27.026973486500079
 30
0.0
 11
49.054123363400087
 21
-27.135561533800111
 31
0.0
  0
LINE
  8
DETAIL
  6
CONTINUOUS
 62
     5
 10
46.703414933500213
 20
-25.055521589300039
 30
0.0
 11
46.702899065400167
 21
-25.056483158400049
 31
0.0
  0
LINE
  8
DETAIL
  6
CONTINUOUS
 62
     5
 10
-49.058508577399827
 20
-26.58865015050003
 30
0.0
 11
-48.983666755199813
 21
-26.51901716600003
 31
0.0
  0
LINE
  8
DETAIL
  6
CONTINUOUS
 62
     5
 10
1.653089626100154
 20
52.973930740699977
 30
0.0
 11
1.651998948700111
 21
52.973964770299872
 31
0.0
  0
LINE
  8
DETAIL
  6
CONTINUOUS
 62
     5
 10
1.0270764082001731
 20
56.049723930099972
 30
0.0
 11
1.1450708738001369
 21
56.036920245099957
 31
0.0
  0
LINE
  8
DETAIL
  6
CONTINUOUS
 62
     5
 10
45.050051117100097
 20
-27.919231722800081
 30
0.0
 11
45.050625926300199
 21
-27.918304183300052
 31
0.0
  0
LINE
  8
DETAIL
  6
CONTINUOUS
 62
     5
 10
48.026772764800178
 20
-28.914984967700089
 30
0.0
 11
47.956687215500096
 21
-29.0107693307001
 31
0.0
  0
LINE
  8
DETAIL
  6
CONTINUOUS
 62
     5
 10
-1.364337553899873
 20
55.945262221899959
 30
0.0
 11
-1.26184270829981
 21
56.001525473799923
 31
0.0
  0
LINE
  8
DETAIL
  6
CONTINUOUS
 62
     5
 10
-1.145619254699795
 20
56.036920245200001
 30
0.0
 11
-1.0276247889999011
 21
56.049723930099972
 31
0.0
  0
LINE
  8
DETAIL
  6
CONTINUOUS
 62
     5
 10
-1.653638006799838
 20
52.973930740699977
 30
0.0
 11
-1.652547329499839
 21
52.973964770299872
 31
0.0
  0
LINE
  8
DETAIL
  6
CONTINUOUS
 62
     5
 10
47.956687215500096
 20
-29.0107693307001
 30
0.0
 11
47.867922717200138
 21
-29.093724408500069
 31
0.0
  0
LINE
  8
DETAIL
  6
CONTINUOUS
 62
     5
 10
-48.983666755199813
 20
-26.51901716600003
 30
0.0
 11
-46.703447446099872
 21
-25.056483158400049
 31
0.0
  0
LINE
  8
DETAIL
  6
CONTINUOUS
 62
     5
 10
-46.744196854099847
 20
-25.08263463500009
 30
0.0
 11
-4.6502741903998404
 21
-0.7796970539000085
 31
0.0
  0
LINE
  8
DETAIL
  6
CONTINUOUS
 62
     5
 10
-3.000274190399864
 20
-3.6375808864000869
 30
0.0
 11
-45.094196854099891
 21
-27.940518467500048
 31
0.0
  0
LINE
  8
DETAIL
  6
CONTINUOUS
 62
     5
 10
-1.26184270829981
 20
56.001525473799923
 30
0.0
 11
-1.145619254699795
 21
56.036920245200001
 31
0.0
  0
LINE
  8
DETAIL
  6
CONTINUOUS
 62
     5
 10
-47.457875566099908
 20
-29.161765027400069
 30
0.0
 11
-45.051174306999769
 21
-27.918304183300052
 31
0.0
  0
LINE
  8
DETAIL
  6
CONTINUOUS
 62
     5
 10
47.867922717200138
 20
-29.093724408500069
 30
0.0
 11
47.767949888700173
 21
-29.15435592270012
 31
0.0
  0
LINE
  8
DETAIL
  6
CONTINUOUS
 62
     5
 10
47.767949888700173
 20
-29.15435592270012
 30
0.0
 11
47.661736453100147
 21
-29.188411525700079
 31
0.0
  0
LINE
  8
DETAIL
  6
CONTINUOUS
 62
     5
 10
-47.457875566099908
 20
-29.161765027400069
 30
0.0
 11
-47.555600411199848
 21
-29.191763454100059
 31
0.0
  0
LINE
  8
DETAIL
  6
CONTINUOUS
 62
     5
 10
-11.09976520299983
 20
-79.094456244899973
 30
0.0
 11
-11.15252315879968
 21
-79.112478018000104
 31
0.0
  0
ARC
  8
DETAIL
  6
CONTINUOUS
 62
     5
 10
-0.000274190399864
 20
-0.0002741905000221
 30
0.0
 40
53.000000000000021
 50
331.78766302160022
 51
88.212336978401851
  0
ARC
  8
DETAIL
  6
CONTINUOUS
 62
     5
 10
-0.000274190399864
 20
-0.0002741905000221
 30
0.0
 40
79.781583196300005
 50
267.43742918119932
 51
272.56257081869961
  0
ARC
  8
DETAIL
  6
CONTINUOUS
 62
     5
 10
-0.000274190399864
 20
-0.0002741905000221
 30
0.0
 40
53.000000000000007
 50
211.7876630216002
 51
328.21233697839972
  0
ARC
  8
DETAIL
  6
CONTINUOUS
 62
     5
 10
-0.000274190399864
 20
-0.0002741905000221
 30
0.0
 40
79.999999999999986
 50
278.42394137150012
 51
261.57605862849988
  0
ARC
  8
DETAIL
  6
CONTINUOUS
 62
     5
 10
-0.000274190399864
 20
-0.0002741905000221
 30
0.0
 40
53.000000000000007
 50
91.787663021598163
 51
208.21233697839969
  0
ARC
  8
DETAIL
  6
CONTINUOUS
 62
     5
 10
-0.000274190399864
 20
-0.0002741905000221
 30
0.0
 40
56.059412577799961
 50
208.94993283049851
 51
211.05006716950049
  0
ARC
  8
DETAIL
  6
CONTINUOUS
 62
     5
 10
-0.000274190399864
 20
-0.0002741905000221
 30
0.0
 40
56.059412577799968
 50
328.94993283049962
 51
331.05006716950157
  0
ARC
  8
DETAIL
  6
CONTINUOUS
 62
     5
 10
-0.000274190399864
 20
-0.0002741905000221
 30
0.0
 40
56.059412577800018
 50
88.949932830499307
 51
91.050067169500707
  0
ARC
  8
DETAIL
  6
CONTINUOUS
 62
     5
 10
1.9009180398786609
 20
-0.8014386101694981
 30
0.0
 40
46.925620811160208
 50
135.28126528250289
 51
160.63844285839841
  0
ARC
  8
DETAIL
  6
CONTINUOUS
 62
     5
 10
-0.0002741903998071
 20
-0.0002741905000221
 30
0.0
 40
45.017529892399942
 50
212.10272095420291
 51
251.15093070199859
  0
ARC
  8
DETAIL
  6
CONTINUOUS
 62
     5
 10
-0.6978382577501066
 20
-0.2400831125501099
 30
0.0
 40
44.288975228745002
 50
160.20899803003539
 51
208.0452331665083
  0
ARC
  8
DETAIL
  6
CONTINUOUS
 62
     5
 10
-0.0002741903998071
 20
-0.0002741905000221
 30
0.0
 40
45.017529892399999
 50
332.10273388679502
 51
7.6509294802955541
  0
ARC
  8
DETAIL
  6
CONTINUOUS
 62
     5
 10
-0.0002741903998071
 20
-0.0002741905000221
 30
0.0
 40
45.017529892400027
 50
243.2432220805905
 51
327.89764976879928
  0
ARC
  8
DETAIL
  6
CONTINUOUS
 62
     5
 10
-0.0002741903998071
 20
-0.0002741905000221
 30
0.0
 40
45.017529892400027
 50
7.6509294802955541
 51
82.709848126401411
  0
ARC
  8
DETAIL
  6
CONTINUOUS
 62
     5
 10
-1.3178394040782559
 20
1.4350854295048521
 30
0.0
 40
43.070090319669369
 50
113.89813679208871
 51
134.3824843662307
  0
LINE
  8
DETAIL
  6
CONTINUOUS
 62
     5
 10
3.5446446626002071
 20
44.872353133500042
 30
0.0
 11
4.6805925782002191
 21
44.7706801106999
 31
0.0
  0
LINE
  8
DETAIL
  6
CONTINUOUS
 62
     5
 10
2.4500353270001942
 20
44.94282029929991
 30
0.0
 11
3.5446446626002071
 21
44.872353133500042
 31
0.0
  0
LINE
  8
DETAIL
  6
CONTINUOUS
 62
     5
 10
1.649723333500162
 20
44.974942064899892
 30
0.0
 11
2.4500353270001942
 21
44.94282029929991
 31
0.0
  0
LINE
  8
DETAIL
  6
CONTINUOUS
 62
     5
 10
5.6993463024002153
 20
44.654975197799899
 30
0.0
 11
5.7136968070001899
 21
44.653161090399983
 31
0.0
  0
LINE
  8
DETAIL
  6
CONTINUOUS
 62
     5
 10
4.6805925782002191
 20
44.7706801106999
 30
0.0
 11
5.6992940138002837
 21
44.654973405100009
 31
0.0
  0
LINE
  8
DETAIL
  6
CONTINUOUS
 62
     5
 10
42.046004013600218
 20
15.718038104199991
 30
0.0
 11
42.244828289200093
 21
15.250473348199989
 31
0.0
  0
ARC
  8
DETAIL
  6
CONTINUOUS
 62
     5
 10
-0.0002741903998071
 20
0.006618213249908
 30
0.0
 40
44.914213787200509
 50
92.10533160149636
 51
114.69662779168129
  0
ARC
  8
DETAIL
  6
CONTINUOUS
 62
     5
 10
0.0
 20
0.0
 30
0.0
 40
12.5
 50
217.58564406870741
 51
322.4130880374376
  0
ARC
  8
DETAIL
  6
CONTINUOUS
 62
     5
 10
0.0
 20
0.0
 30
0.0
 40
12.499999999999989
 50
97.586447880371622
 51
202.41528409239439
  0
ARC
  8
DETAIL
  6
CONTINUOUS
 62
     5
 10
0.0
 20
0.0
 30
0.0
 40
12.499999999999989
 50
337.58344802022538
 51
82.416087900864625
  0
ARC
  8
DETAIL
  6
CONTINUOUS
 62
     5
 10
10.048646611019761
 20
26.541492181721541
 30
0.0
 40
31.10299426618343
 50
157.8947467762485
 51
225.61198792799951
  0
ARC
  8
DETAIL
  6
CONTINUOUS
 62
     5
 10
-0.3041378423222341
 20
-0.2375191944172599
 30
0.0
 40
42.683560060760783
 50
46.395998685927523
 51
87.376337076852309
  0
ARC
  8
DETAIL
  6
CONTINUOUS
 62
     5
 10
27.063492278292301
 20
28.474474488462871
 30
0.0
 40
3.017929431890773
 50
268.66277797666078
 51
46.694931686665143
  0
ARC
  8
DETAIL
  6
CONTINUOUS
 62
     5
 10
24.434706730330731
 20
-2.172695371388953
 30
0.0
 40
27.748252801110091
 50
84.709882603539072
 51
110.01794269490441
  0
ARC
  8
DETAIL
  6
CONTINUOUS
 62
     5
 10
7.4609792717754431
 20
32.250914256834221
 30
0.0
 40
11.20843156172071
 50
280.93765059747147
 51
311.82961178138322
  0
ARC
  8
DETAIL
  6
CONTINUOUS
 62
     5
 10
10.84371984078388
 20
16.22901076014864
 30
0.0
 40
5.1719200861837527
 50
104.0553182355217
 51
154.73311130300741
  0
ARC
  8
DETAIL
  6
CONTINUOUS
 62
     5
 10
-1.8626618974415119
 20
22.8794039428617
 30
0.0
 40
9.1764599417418395
 50
303.13960016481832
 51
331.11470310296318
  0
ARC
  8
DETAIL
  6
CONTINUOUS
 62
     5
 10
4.0613734704293174
 20
13.645284531682361
 30
0.0
 40
1.796345084233113
 50
120.3419377286438
 51
239.59219369312731
  0
ARC
  8
DETAIL
  6
CONTINUOUS
 62
     5
 10
-28.00992978922682
 20
-4.5683628520652064
 30
0.0
 40
31.102994266183419
 50
277.89474677624742
 51
345.61198792800087
  0
ARC
  8
DETAIL
  6
CONTINUOUS
 62
     5
 10
0.3577665774132583
 20
-0.1446315004944836
 30
0.0
 40
42.683560060761103
 50
166.39599868592819
 51
207.37610349372031
  0
ARC
  8
DETAIL
  6
CONTINUOUS
 62
     5
 10
-38.191364405566958
 20
9.2004345838937525
 30
0.0
 40
3.017929431890773
 50
28.662777976659392
 51
166.69493168667239
  0
ARC
  8
DETAIL
  6
CONTINUOUS
 62
     5
 10
-10.335743978857639
 20
22.247424448183441
 30
0.0
 40
27.748252801110091
 50
204.70988260353911
 51
230.01794269490449
  0
ARC
  8
DETAIL
  6
CONTINUOUS
 62
     5
 10
-31.660600677579851
 20
-9.6640595419504489
 30
0.0
 40
11.208431561720699
 50
40.93765059746773
 51
71.829611781385225
  0
ARC
  8
DETAIL
  6
CONTINUOUS
 62
     5
 10
-19.47659551697166
 20
1.276431473565935
 30
0.0
 40
5.1719200861837518
 50
224.05531823551959
 51
274.73311130300772
  0
ARC
  8
DETAIL
  6
CONTINUOUS
 62
     5
 10
-18.882814089243311
 20
-13.052814493276511
 30
0.0
 40
9.176459941741836
 50
63.139600164821744
 51
91.114703102965777
  0
ARC
  8
DETAIL
  6
CONTINUOUS
 62
     5
 10
-13.84784978151845
 20
-3.305389666193149
 30
0.0
 40
1.7963450842331119
 50
240.34193772864299
 51
359.5921936931278
  0
ARC
  8
DETAIL
  6
CONTINUOUS
 62
     5
 10
17.961283178207111
 20
-21.973129329656331
 30
0.0
 40
31.10299426618343
 50
37.894746776247651
 51
105.61198792800251
  0
ARC
  8
DETAIL
  6
CONTINUOUS
 62
     5
 10
-0.0536287350906264
 20
0.3821506949118145
 30
0.0
 40
42.683560060760797
 50
286.39599868592768
 51
327.37546533212247
  0
ARC
  8
DETAIL
  6
CONTINUOUS
 62
     5
 10
11.12787212727471
 20
-37.674909072356627
 30
0.0
 40
3.017929431890773
 50
148.66277797666291
 51
286.69493168666912
  0
ARC
  8
DETAIL
  6
CONTINUOUS
 62
     5
 10
-14.098962751473101
 20
-20.07472907679448
 30
0.0
 40
27.748252801110091
 50
324.70988260353471
 51
350.01794269490227
  0
ARC
  8
DETAIL
  6
CONTINUOUS
 62
     5
 10
24.199621405804461
 20
-22.586854714883771
 30
0.0
 40
11.20843156172071
 50
160.93765059746829
 51
191.82961178137839
  0
ARC
  8
DETAIL
  6
CONTINUOUS
 62
     5
 10
8.6328756761878367
 20
-17.505442233714579
 30
0.0
 40
5.1719200861837527
 50
344.05531823552423
 51
34.73311130300857
  0
ARC
  8
DETAIL
  6
CONTINUOUS
 62
     5
 10
20.74547598668482
 20
-9.8265894495851835
 30
0.0
 40
9.1764599417418395
 50
183.13960016482261
 51
211.11470310296161
  0
ARC
  8
DETAIL
  6
CONTINUOUS
 62
     5
 10
9.7864763110891335
 20
-10.33989486548921
 30
0.0
 40
1.796345084233113
 50
0.3419377286458592
 51
119.59219369313099
  0
ARC
  8
DETAIL
  6
CONTINUOUS
 62
     5
 10
7.9453961494426721
 20
4.5871607191064072
 30
0.0
 40
6.2979842286717433
 50
181.5531785644217
 51
238.44682143563929
  0
ARC
  8
DETAIL
  6
CONTINUOUS
 62
     5
 10
-7.9459445302426852
 20
4.5871607190997574
 30
0.0
 40
6.2979842286717416
 50
301.55317856442582
 51
358.44682143563688
  0
ARC
  8
DETAIL
  6
CONTINUOUS
 62
     5
 10
-0.0002741903995229
 20
-9.1751440097058889
 30
0.0
 40
6.2979842286717433
 50
61.553178564424677
 51
118.44682143564209
  0
ARC
  8
DETAIL
  6
CONTINUOUS
 62
     5
 10
-0.3041378423223478
 20
-0.2375191944175867
 30
0.0
 40
42.68356006076111
 50
91.808265975483067
 51
115.6312605184162
  0
ARC
  8
DETAIL
  6
CONTINUOUS
 62
     5
 10
0.3577665774128604
 20
-0.1446315004948815
 30
0.0
 40
42.683560060760563
 50
211.80703666314909
 51
235.6312605184161
  0
ARC
  8
DETAIL
  6
CONTINUOUS
 62
     5
 10
-0.0536287350908538
 20
0.3821506949120703
 30
0.0
 40
42.68356006076111
 50
331.80639885371238
 51
355.63126051841948
  0
CIRCLE
  8
OUTLINE
  6
CONTINUOUS
 62
     3
 10
0.0
 20
0.0
 30
0.0
 40
79.999725809030096
  0
ENDSEC
  0
EOF
