  0
SECTION
  2
HEADER
  9
$ACADVER
  1
AC1009
  9
$INSBASE
 10
0.0
 20
0.0
 30
0.0
  9
$EXTMIN
 10
-644.1592456340104
 20
-510.92769145700203
 30
0.0
  9
$EXTMAX
 10
947.98025222359649
 20
595.37882244341347
 30
50.315494059942047
  9
$LIMMIN
 10
-2970.0
 20
-2100.0
  9
$LIMMAX
 10
2970.0
 20
2100.0
  9
$ORTHOMODE
 70
     0
  9
$REGENMODE
 70
     1
  9
$FILLMODE
 70
     1
  9
$QTEXTMODE
 70
     0
  9
$MIRRTEXT
 70
     0
  9
$DRAGMODE
 70
     2
  9
$LTSCALE
 40
20.0
  9
$OSMODE
 70
    55
  9
$ATTMODE
 70
     1
  9
$TEXTSIZE
 40
64.0
  9
$TRACEWID
 40
0.05
  9
$TEXTSTYLE
  7
STANDARD
  9
$CLAYER
  8
DETAIL
  9
$CELTYPE
  6
CONTINUOUS
  9
$CECOLOR
 62
     7
  9
$DIMSCALE
 40
1.0
  9
$DIMASZ
 40
12.0
  9
$DIMEXO
 40
20.0
  9
$DIMDLI
 40
200.0
  9
$DIMRND
 40
0.0
  9
$DIMDLE
 40
0.0
  9
$DIMEXE
 40
20.0
  9
$DIMTP
 40
0.0
  9
$DIMTM
 40
0.0
  9
$DIMTXT
 40
64.0
  9
$DIMCEN
 40
0.09
  9
$DIMTSZ
 40
0.0
  9
$DIMTOL
 70
     0
  9
$DIMLIM
 70
     0
  9
$DIMTIH
 70
     0
  9
$DIMTOH
 70
     0
  9
$DIMSE1
 70
     0
  9
$DIMSE2
 70
     0
  9
$DIMTAD
 70
     1
  9
$DIMZIN
 70
     8
  9
$DIMBLK
  1

  9
$DIMASO
 70
     1
  9
$DIMSHO
 70
     0
  9
$DIMPOST
  1

  9
$DIMAPOST
  1

  9
$DIMALT
 70
     0
  9
$DIMALTD
 70
     2
  9
$DIMALTF
 40
25.399999999999999
  9
$DIMLFAC
 40
1.0
  9
$DIMTOFL
 70
     1
  9
$DIMTVP
 40
0.0
  9
$DIMTIX
 70
     1
  9
$DIMSOXD
 70
     0
  9
$DIMSAH
 70
     0
  9
$DIMBLK1
  1

  9
$DIMBLK2
  1

  9
$DIMSTYLE
  2
STANDARD
  9
$DIMCLRD
 70
     7
  9
$DIMCLRE
 70
     7
  9
$DIMCLRT
 70
     7
  9
$DIMTFAC
 40
1.0
  9
$DIMGAP
 40
25.0
  9
$LUNITS
 70
     2
  9
$LUPREC
 70
     4
  9
$SKETCHINC
 40
0.1
  9
$FILLETRAD
 40
3.0
  9
$AUNITS
 70
     1
  9
$AUPREC
 70
     3
  9
$MENU
  1
ACAD
  9
$ELEVATION
 40
0.0
  9
$PELEVATION
 40
0.0
  9
$THICKNESS
 40
50.0
  9
$LIMCHECK
 70
     0
  9
$BLIPMODE
 70
     0
  9
$CHAMFERA
 40
0.0
  9
$CHAMFERB
 40
0.0
  9
$SKPOLY
 70
     0
  9
$TDCREATE
 40
2453019.6230103709
  9
$TDUPDATE
 40
2456442.589695428
  9
$TDINDWG
 40
1.8329979514000001
  9
$TDUSRTIMER
 40
1.8329977662000001
  9
$USRTIMER
 70
     1
  9
$ANGBASE
 50
0.0
  9
$ANGDIR
 70
     0
  9
$PDMODE
 70
     3
  9
$PDSIZE
 40
-2.0
  9
$PLINEWID
 40
0.0
  9
$COORDS
 70
     1
  9
$SPLFRAME
 70
     0
  9
$SPLINETYPE
 70
     6
  9
$SPLINESEGS
 70
     8
  9
$ATTDIA
 70
     0
  9
$ATTREQ
 70
     1
  9
$HANDLING
 70
     1
  9
$HANDSEED
  5
51C
  9
$SURFTAB1
 70
     6
  9
$SURFTAB2
 70
     6
  9
$SURFTYPE
 70
     6
  9
$SURFU
 70
     6
  9
$SURFV
 70
     6
  9
$UCSNAME
  2

  9
$UCSORG
 10
0.0
 20
0.0
 30
0.0
  9
$UCSXDIR
 10
1.0
 20
0.0
 30
0.0
  9
$UCSYDIR
 10
0.0
 20
1.0
 30
0.0
  9
$PUCSNAME
  2

  9
$PUCSORG
 10
0.0
 20
0.0
 30
0.0
  9
$PUCSXDIR
 10
1.0
 20
0.0
 30
0.0
  9
$PUCSYDIR
 10
0.0
 20
1.0
 30
0.0
  9
$USERI1
 70
     0
  9
$USERI2
 70
     0
  9
$USERI3
 70
     0
  9
$USERI4
 70
     0
  9
$USERI5
 70
     0
  9
$USERR1
 40
20.0
  9
$USERR2
 40
0.0
  9
$USERR3
 40
0.0
  9
$USERR4
 40
0.0
  9
$USERR5
 40
0.0
  9
$WORLDVIEW
 70
     1
  9
$SHADEDGE
 70
     3
  9
$SHADEDIF
 70
    70
  9
$TILEMODE
 70
     1
  9
$MAXACTVP
 70
    48
  9
$PLIMCHECK
 70
     0
  9
$PEXTMIN
 10
-1.0000000000000000E+020
 20
-1.0000000000000000E+020
 30
-1.0000000000000000E+020
  9
$PEXTMAX
 10
1.0000000000000000E+020
 20
1.0000000000000000E+020
 30
1.0000000000000000E+020
  9
$PLIMMIN
 10
0.0
 20
0.0
  9
$PLIMMAX
 10
12.0
 20
9.0
  9
$UNITMODE
 70
     0
  9
$VISRETAIN
 70
     0
  9
$PLINEGEN
 70
     0
  9
$PSLTSCALE
 70
     0
  0
ENDSEC
  0
SECTION
  2
TABLES
  0
TABLE
  2
VPORT
 70
     1
  0
VPORT
  2
*ACTIVE
 70
     0
 10
0.0
 20
0.0
 11
1.0
 21
1.0
 12
198.61621926606151
 22
-12.371887508453479
 13
0.0
 23
0.0
 14
1.0
 24
1.0
 15
0.0
 25
0.0
 16
0.0
 26
0.0
 36
1.0
 17
0.0
 27
0.0
 37
0.0
 40
1416.5832234842551
 41
1.6865079365079361
 42
50.0
 43
0.0
 44
0.0
 50
0.0
 51
0.0
 71
     0
 72
  1000
 73
     1
 74
     0
 75
     0
 76
     0
 77
     0
 78
     0
  0
ENDTAB
  0
TABLE
  2
LTYPE
 70
     3
  0
LTYPE
  2
CONTINUOUS
 70
     0
  3
実線
 72
    65
 73
     0
 40
0.0
  0
LTYPE
  2
DASHDOT
 70
     0
  3
____ _ ____ _ ____ _ ____ _ ____ _ ____ _ ____
 72
    65
 73
     4
 40
5.5
 49
4.0
 49
-0.6
 49
0.3
 49
-0.6
  0
ENDTAB
  0
TABLE
  2
LAYER
 70
    12
  0
LAYER
  2
0
 70
     0
 62
     7
  6
CONTINUOUS
  0
LAYER
  2
DETAIL
 70
     0
 62
     5
  6
CONTINUOUS
  0
LAYER
  2
BASIS
 70
     0
 62
     6
  6
DASHDOT
  0
LAYER
  2
OUTLINE
 70
     0
 62
     3
  6
CONTINUOUS
  0
LAYER
  2
SIZE
 70
     0
 62
    30
  6
CONTINUOUS
  0
LAYER
  2
ARRANGE
 70
     0
 62
     1
  6
CONTINUOUS
  0
LAYER
  2
DEFPOINTS
 70
     0
 62
     7
  6
CONTINUOUS
  0
LAYER
  2
ETC
 70
     0
 62
    61
  6
CONTINUOUS
  0
LAYER
  2
FIX
 70
     0
 62
    11
  6
CONTINUOUS
  0
LAYER
  2
NOTE
 70
     0
 62
     4
  6
CONTINUOUS
  0
LAYER
  2
SERVICESPACE
 70
     0
 62
     2
  6
DASHDOT
  0
LAYER
  2
SYMBOLLINE
 70
     0
 62
    15
  6
CONTINUOUS
  0
ENDTAB
  0
TABLE
  2
STYLE
 70
     2
  0
STYLE
  2
STANDARD
 70
     0
 40
64.0
 41
0.9
 50
0.0
 71
     0
 42
64.0
  3
SIMPLEX.shx
  4
BIGFONT.shx
  0
STYLE
  2
ANNOTATIVE
 70
     0
 40
0.0
 41
1.0
 50
0.0
 71
     0
 42
0.2
  3
txt
  4

  0
ENDTAB
  0
TABLE
  2
VIEW
 70
     1
  0
VIEW
  2
ALL
 70
     0
 40
4282.6198079999976
 10
0.0
 20
41.309904000000003
 41
5940.0
 11
0.0
 21
0.0
 31
1.0
 12
0.0
 22
0.0
 32
0.0
 42
50.0
 43
0.0
 44
0.0
 50
0.0
 71
     0
  0
ENDTAB
  0
TABLE
  2
UCS
 70
     0
  0
ENDTAB
  0
TABLE
  2
APPID
 70
    18
  0
APPID
  2
ACAD
 70
     0
  0
APPID
  2
ACADANNOTATIVE
 70
     0
  0
APPID
  2
AUTOCAD_POSTSCRIPT_FIGURE
 70
     0
  0
APPID
  2
ACAD_EXEMPT_FROM_CAD_STANDARDS
 70
     0
  0
APPID
  2
ACAD_PSEXT
 70
     0
  0
APPID
  2
ACAUTHENVIRON
 70
     0
  0
APPID
  2
GENIUS_GENOENT_13
 70
     0
  0
APPID
  2
GENIUS_GENCFG_13
 70
     0
  0
APPID
  2
GENIUS_GENCFG0_13
 70
     0
  0
APPID
  2
GENIUS_GENCFG1_13
 70
     0
  0
APPID
  2
GENIUS_GENCFG2_13
 70
     0
  0
APPID
  2
GENIUS_GENCFG3_13
 70
     0
  0
APPID
  2
GENIUS_GENCFG4_13
 70
     0
  0
APPID
  2
GENIUS_GEVCFG0_13
 70
     0
  0
APPID
  2
CONTENTBLOCKICON
 70
     0
  0
APPID
  2
CONTENTBLOCKDESCRIPTION
 70
     0
  0
APPID
  2
ACAD_NAV_VCDISPLAY
 70
     0
  0
APPID
  2
ACAD_MLEADERVER
 70
     0
  0
ENDTAB
  0
TABLE
  2
DIMSTYLE
 70
     2
  0
DIMSTYLE
  2
STANDARD
 70
     0
  3

  4

  5

  6

  7

 40
1.0
 41
12.0
 42
20.0
 43
200.0
 44
20.0
 45
0.0
 46
0.0
 47
0.0
 48
0.0
140
64.0
141
0.09
142
0.0
143
25.399999999999999
144
1.0
145
0.0
146
1.0
147
25.0
 71
     0
 72
     0
 73
     0
 74
     0
 75
     0
 76
     0
 77
     1
 78
     8
170
     0
171
     2
172
     1
173
     0
174
     1
175
     0
176
     7
177
     7
178
     7
  0
DIMSTYLE
  2
ANNOTATIVE
 70
     0
  3

  4

  5

  6

  7

 40
1.0
 41
0.18
 42
0.0625
 43
0.38
 44
0.18
 45
0.0
 46
0.0
 47
0.0
 48
0.0
140
0.18
141
0.09
142
0.0
143
25.399999999999999
144
1.0
145
0.0
146
1.0
147
0.09
 71
     0
 72
     0
 73
     1
 74
     1
 75
     0
 76
     0
 77
     0
 78
     0
170
     0
171
     2
172
     0
173
     0
174
     0
175
     0
176
     0
177
     0
178
     0
  0
ENDTAB
  0
ENDSEC
  0
SECTION
  2
BLOCKS
  0
BLOCK
  8
0
  2
$MODEL_SPACE
 70
     0
 10
0.0
 20
0.0
 30
0.0
  3
$MODEL_SPACE
  1

  0
ENDBLK
  5
6D
  8
0
  0
BLOCK
 67
     1
  8
0
  2
$PAPER_SPACE
 70
     0
 10
0.0
 20
0.0
 30
0.0
  3
$PAPER_SPACE
  1

  0
ENDBLK
  5
69
 67
     1
  8
0
  0
BLOCK
  8
0
  2
_ORIGIN
 70
     0
 10
0.0
 20
0.0
 30
0.0
  3
_ORIGIN
  1

  0
CIRCLE
  5
90
  8
0
  6
CONTINUOUS
 62
     7
 10
0.0
 20
0.0
 30
0.0
 40
0.5
  0
LINE
  5
91
  8
0
  6
CONTINUOUS
 62
     7
 10
0.0
 20
0.0
 30
0.0
 11
-1.0
 21
0.0
 31
0.0
  0
ENDBLK
  5
92
  8
0
  0
ENDSEC
  0
SECTION
  2
ENTITIES
  0
TEXT
  5
93
  8
ETC
  6
CONTINUOUS
 62
    61
 10
199.18025222359671
 20
531.37882244341313
 30
0.0
 40
64.0
  1
V-08PPD7-AF_5
 41
0.9
  0
TEXT
  5
94
  8
ETC
  6
CONTINUOUS
 62
    61
 10
194.9942582235962
 20
413.42351242858177
 30
0.0
 40
64.0
  1
換気扇
 41
0.9
  0
CIRCLE
  5
95
  8
ARRANGE
  6
CONTINUOUS
 62
     1
 10
0.0
 20
0.0
 30
0.0
 40
40.0
  0
POINT
  5
96
  8
ARRANGE
  6
CONTINUOUS
 62
     1
 10
0.0
 20
0.0
 30
0.0
 39
50.0
 50
180.0
  0
LINE
  5
97
  8
BASIS
  6
DASHDOT
 62
     6
 39
50.0
 10
0.0
 20
-109.2854010143142
 30
0.0
 11
0.0
 21
128.0459278491858
 31
0.0
  0
LINE
  5
98
  8
BASIS
  6
DASHDOT
 62
     6
 39
50.0
 10
-95.967552833830439
 20
0.0000000000000028
 30
0.0
 11
95.967646960021909
 21
0.0000000000000143
 31
0.0
  0
TEXT
  5
99
  8
ETC
  6
CONTINUOUS
 62
    61
 10
245.69565647215211
 20
305.27473954235683
 30
0.0
 40
40.0
  1
V-08PPD7-AF
 41
0.9
  0
CIRCLE
  5
9A
  8
FIX
  6
CONTINUOUS
 62
    11
 39
50.315494059942047
 10
0.0
 20
69.965255095611042
 30
0.0
 40
7.0441691683918863
  0
LINE
  5
9B
  8
NOTE
  6
CONTINUOUS
 62
     4
 10
0.0
 20
43.943437373168962
 30
0.0
 11
0.0
 21
95.987072818053136
 31
0.0
  0
LINE
  5
9C
  8
NOTE
  6
CONTINUOUS
 62
     4
 10
-26.021817722442069
 20
69.965255095611042
 30
0.0
 11
26.021817722442091
 21
69.96525509561107
 31
0.0
  0
CIRCLE
  5
9D
  8
FIX
  6
CONTINUOUS
 62
    11
 39
50.315494059942047
 10
0.0
 20
5.9999999952671788
 30
0.0
 40
7.0441691683918863
  0
LINE
  5
9E
  8
NOTE
  6
CONTINUOUS
 62
     4
 10
0.0
 20
-20.021817727174898
 30
0.0
 11
0.0
 21
32.021817717709261
 31
0.0
  0
LINE
  5
9F
  8
NOTE
  6
CONTINUOUS
 62
     4
 10
-26.02181772244208
 20
5.9999999952671788
 30
0.0
 11
26.02181772244208
 21
5.999999995267193
 31
0.0
  0
CIRCLE
  5
A0
  8
FIX
  6
CONTINUOUS
 62
    11
 39
50.315494059942047
 10
0.0
 20
-69.999999944784179
 30
0.0
 40
7.0441691683918863
  0
LINE
  5
A1
  8
NOTE
  6
CONTINUOUS
 62
     4
 10
0.0
 20
-96.021817667226287
 30
0.0
 11
0.0
 21
-43.97818222234212
 31
0.0
  0
LINE
  5
A2
  8
NOTE
  6
CONTINUOUS
 62
     4
 10
-26.02181772244208
 20
-69.999999944784179
 30
0.0
 11
26.02181772244208
 21
-69.999999944784179
 31
0.0
  0
LINE
  5
A3
  8
SIZE
  6
CONTINUOUS
 62
    30
 10
30.003330334171551
 20
20.000000000000011
 30
0.0
 11
30.003330334171569
 21
328.42618669078172
 31
0.0
  0
LINE
  5
A4
  8
SIZE
  6
CONTINUOUS
 62
    30
 10
0.0000000000000012
 20
148.0459278491858
 30
0.0
 11
0.0000000000000123
 21
328.42618669078172
 31
0.0
  0
LINE
  5
A5
  8
SIZE
  6
CONTINUOUS
 62
    30
 10
42.003330334171572
 20
308.42618669078172
 30
0.0
 11
54.003330334171572
 21
308.42618669078172
 31
0.0
  0
LINE
  5
A6
  8
SIZE
  6
CONTINUOUS
 62
    30
 10
-11.999999999999989
 20
308.42618669078172
 30
0.0
 11
-23.999999999999989
 21
308.42618669078172
 31
0.0
  0
LINE
  5
A7
  8
SIZE
  6
CONTINUOUS
 62
    30
 10
30.003330334171569
 20
308.42618669078172
 30
0.0
 11
0.000000000000011
 21
308.42618669078172
 31
0.0
  0
CIRCLE
  5
A8
  8
SIZE
  6
CONTINUOUS
 62
    30
 10
30.003330334171569
 20
308.42618669078172
 30
0.0
 40
6.0
  0
LINE
  5
A9
  8
SIZE
  6
CONTINUOUS
 62
    30
 10
30.003330334171569
 20
308.42618669078172
 30
0.0
 11
42.003330334171572
 21
308.42618669078172
 31
0.0
  0
CIRCLE
  5
AA
  8
SIZE
  6
CONTINUOUS
 62
    30
 10
0.000000000000011
 20
308.42618669078172
 30
0.0
 40
6.0
  0
LINE
  5
AB
  8
SIZE
  6
CONTINUOUS
 62
    30
 10
0.000000000000011
 20
308.42618669078172
 30
0.0
 11
-11.999999999999989
 21
308.42618669078172
 31
0.0
  0
TEXT
  5
AC
  8
SIZE
  6
CONTINUOUS
 62
    30
 10
-31.62690626148563
 20
333.42618669078172
 30
0.0
 40
64.0
  1
30
 41
0.9
 72
     1
 11
15.00166516708579
 21
333.42618669078172
 31
0.0
  0
POINT
  5
AD
  8
DEFPOINTS
  6
CONTINUOUS
 62
    30
 10
30.003330334171551
 20
0.0000000000000103
 30
0.0
  0
POINT
  5
AE
  8
DEFPOINTS
  6
CONTINUOUS
 62
    30
 10
0.0
 20
128.0459278491858
 30
0.0
  0
POINT
  5
AF
  8
DEFPOINTS
  6
CONTINUOUS
 62
    30
 10
0.000000000000011
 20
308.42618669078172
 30
0.0
  0
LINE
  5
B0
  8
SIZE
  6
CONTINUOUS
 62
    30
 10
48.822446811966842
 20
80.000047119583385
 30
0.0
 11
210.45706467749551
 21
80.000047119583343
 31
0.0
  0
LINE
  5
B1
  8
SIZE
  6
CONTINUOUS
 62
    30
 10
46.753373573741122
 20
-80.036162927201772
 30
0.0
 11
210.45706467749551
 21
-80.036162927201815
 31
0.0
  0
LINE
  5
B2
  8
SIZE
  6
CONTINUOUS
 62
    30
 10
190.45706467749551
 20
-68.036162927201829
 30
0.0
 11
190.45706467749551
 21
68.000047119583343
 31
0.0
  0
LINE
  5
B3
  8
SIZE
  6
CONTINUOUS
 62
    30
 10
190.45706467749551
 20
80.000047119583343
 30
0.0
 11
190.45706467749551
 21
344.42290426244051
 31
0.0
  0
CIRCLE
  5
B4
  8
SIZE
  6
CONTINUOUS
 62
    30
 10
190.45706467749551
 20
-80.036162927201815
 30
0.0
 40
6.0
  0
LINE
  5
B5
  8
SIZE
  6
CONTINUOUS
 62
    30
 10
190.45706467749551
 20
-80.036162927201815
 30
0.0
 11
190.45706467749551
 21
-68.036162927201829
 31
0.0
  0
CIRCLE
  5
B6
  8
SIZE
  6
CONTINUOUS
 62
    30
 10
190.45706467749551
 20
80.000047119583343
 30
0.0
 40
6.0
  0
LINE
  5
B7
  8
SIZE
  6
CONTINUOUS
 62
    30
 10
190.45706467749551
 20
80.000047119583343
 30
0.0
 11
190.45706467749551
 21
68.000047119583343
 31
0.0
  0
TEXT
  5
B8
  8
SIZE
  6
CONTINUOUS
 62
    30
 10
165.45706467749551
 20
113.1600471195834
 30
0.0
 40
64.0
  1
□160
 50
90.0
 41
0.9
 72
     1
 11
165.45706467749551
 21
218.211475691012
 31
0.0
  0
POINT
  5
B9
  8
DEFPOINTS
  6
CONTINUOUS
 62
    30
 10
28.822446811966849
 20
80.000047119583385
 30
0.0
  0
POINT
  5
BA
  8
DEFPOINTS
  6
CONTINUOUS
 62
    30
 10
26.753373573741129
 20
-80.036162927201772
 30
0.0
  0
POINT
  5
BB
  8
DEFPOINTS
  6
CONTINUOUS
 62
    30
 10
190.45706467749551
 20
-80.036162927201815
 30
0.0
  0
LINE
  5
BC
  8
SIZE
  6
CONTINUOUS
 62
    30
 10
-46.021817722442073
 20
69.96525509561107
 30
0.0
 11
-575.15924563401029
 21
69.965255095611198
 31
0.0
  0
LINE
  5
BD
  8
SIZE
  6
CONTINUOUS
 62
    30
 10
-115.9675528338305
 20
0.0000000000000083
 30
0.0
 11
-575.15924563401029
 21
0.0000000000001384
 31
0.0
  0
LINE
  5
BE
  8
SIZE
  6
CONTINUOUS
 62
    30
 10
-555.15924563401029
 20
-11.99999999999987
 30
0.0
 11
-555.15924563401029
 21
-23.999999999999861
 31
0.0
  0
LINE
  5
BF
  8
SIZE
  6
CONTINUOUS
 62
    30
 10
-555.15924563401029
 20
81.965255095611184
 30
0.0
 11
-555.15924563401029
 21
242.0863185434647
 31
0.0
  0
LINE
  5
C0
  8
SIZE
  6
CONTINUOUS
 62
    30
 10
-555.15924563401029
 20
0.0000000000001327
 30
0.0
 11
-555.15924563401029
 21
69.965255095611198
 31
0.0
  0
CIRCLE
  5
C1
  8
SIZE
  6
CONTINUOUS
 62
    30
 10
-555.15924563401029
 20
0.0000000000001327
 30
0.0
 40
6.0
  0
LINE
  5
C2
  8
SIZE
  6
CONTINUOUS
 62
    30
 10
-555.15924563401029
 20
0.0000000000001327
 30
0.0
 11
-555.15924563401029
 21
-11.99999999999986
 31
0.0
  0
CIRCLE
  5
C3
  8
SIZE
  6
CONTINUOUS
 62
    30
 10
-555.15924563401029
 20
69.965255095611198
 30
0.0
 40
6.0
  0
LINE
  5
C4
  8
SIZE
  6
CONTINUOUS
 62
    30
 10
-555.15924563401029
 20
69.965255095611198
 30
0.0
 11
-555.15924563401029
 21
81.965255095611184
 31
0.0
  0
TEXT
  5
C5
  8
SIZE
  6
CONTINUOUS
 62
    30
 10
-580.15924563401029
 20
123.8291756863217
 30
0.0
 40
64.0
  1
70
 50
90.0
 41
0.9
 72
     1
 11
-580.15924563401029
 21
170.45774711489321
 31
0.0
  0
POINT
  5
C6
  8
DEFPOINTS
  6
CONTINUOUS
 62
    30
 10
-26.021817722442069
 20
69.965255095611042
 30
0.0
  0
POINT
  5
C7
  8
DEFPOINTS
  6
CONTINUOUS
 62
    30
 10
-95.967552833830439
 20
0.0000000000000027
 30
0.0
  0
POINT
  5
C8
  8
DEFPOINTS
  6
CONTINUOUS
 62
    30
 10
-555.15924563401029
 20
0.0000000000001327
 30
0.0
  0
LINE
  5
C9
  8
SIZE
  6
CONTINUOUS
 62
    30
 10
-115.9675528338305
 20
0.0000000000000084
 30
0.0
 11
-187.1591489740899
 21
0.0000000000000286
 31
0.0
  0
LINE
  5
CA
  8
SIZE
  6
CONTINUOUS
 62
    30
 10
-46.021817722442073
 20
5.9999999952671841
 30
0.0
 11
-187.1591489740899
 21
5.9999999952672241
 31
0.0
  0
LINE
  5
CB
  8
SIZE
  6
CONTINUOUS
 62
    30
 10
-167.1591489740899
 20
-11.99999999999998
 30
0.0
 11
-167.1591489740899
 21
-23.999999999999979
 31
0.0
  0
LINE
  5
CC
  8
SIZE
  6
CONTINUOUS
 62
    30
 10
-167.1591489740899
 20
17.99999999526722
 30
0.0
 11
-167.1591489740899
 21
170.41916868416109
 31
0.0
  0
LINE
  5
CD
  8
SIZE
  6
CONTINUOUS
 62
    30
 10
-167.1591489740899
 20
0.0000000000000229
 30
0.0
 11
-167.1591489740899
 21
5.9999999952672187
 31
0.0
  0
CIRCLE
  5
CE
  8
SIZE
  6
CONTINUOUS
 62
    30
 10
-167.1591489740899
 20
0.0000000000000229
 30
0.0
 40
6.0
  0
LINE
  5
CF
  8
SIZE
  6
CONTINUOUS
 62
    30
 10
-167.1591489740899
 20
0.0000000000000229
 30
0.0
 11
-167.1591489740899
 21
-11.99999999999997
 31
0.0
  0
CIRCLE
  5
D0
  8
SIZE
  6
CONTINUOUS
 62
    30
 10
-167.1591489740899
 20
5.9999999952672187
 30
0.0
 40
6.0
  0
LINE
  5
D1
  8
SIZE
  6
CONTINUOUS
 62
    30
 10
-167.1591489740899
 20
5.9999999952672187
 30
0.0
 11
-167.1591489740899
 21
17.99999999526722
 31
0.0
  0
TEXT
  5
D2
  8
SIZE
  6
CONTINUOUS
 62
    30
 10
-192.1591489740899
 20
109.76202582701831
 30
0.0
 40
64.0
  1
6
 50
90.0
 41
0.9
 72
     1
 11
-192.1591489740899
 21
127.5905972555897
 31
0.0
  0
POINT
  5
D3
  8
DEFPOINTS
  6
CONTINUOUS
 62
    30
 10
-95.967552833830439
 20
0.0000000000000028
 30
0.0
  0
POINT
  5
D4
  8
DEFPOINTS
  6
CONTINUOUS
 62
    30
 10
-26.02181772244208
 20
5.9999999952671788
 30
0.0
  0
POINT
  5
D5
  8
DEFPOINTS
  6
CONTINUOUS
 62
    30
 10
-167.1591489740899
 20
5.9999999952672187
 30
0.0
  0
LINE
  5
D6
  8
SIZE
  6
CONTINUOUS
 62
    30
 10
-115.9675528338305
 20
0.0000000000000084
 30
0.0
 11
-575.15924563401029
 21
0.0000000000001385
 31
0.0
  0
LINE
  5
D7
  8
SIZE
  6
CONTINUOUS
 62
    30
 10
-46.021817722442073
 20
-69.999999944784179
 30
0.0
 11
-575.15924563401029
 21
-69.999999944784037
 31
0.0
  0
LINE
  5
D8
  8
SIZE
  6
CONTINUOUS
 62
    30
 10
-555.15924563401029
 20
12.00000000000013
 30
0.0
 11
-555.15924563401029
 21
24.000000000000139
 31
0.0
  0
LINE
  5
D9
  8
SIZE
  6
CONTINUOUS
 62
    30
 10
-555.15924563401029
 20
-81.999999944784037
 30
0.0
 11
-555.15924563401052
 21
-260.6645013180044
 31
0.0
  0
LINE
  5
DA
  8
SIZE
  6
CONTINUOUS
 62
    30
 10
-555.15924563401029
 20
0.0000000000001328
 30
0.0
 11
-555.15924563401029
 21
-69.999999944784037
 31
0.0
  0
CIRCLE
  5
DB
  8
SIZE
  6
CONTINUOUS
 62
    30
 10
-555.15924563401029
 20
0.0000000000001328
 30
0.0
 40
6.0
  0
LINE
  5
DC
  8
SIZE
  6
CONTINUOUS
 62
    30
 10
-555.15924563401029
 20
0.0000000000001328
 30
0.0
 11
-555.15924563401029
 21
12.00000000000013
 31
0.0
  0
CIRCLE
  5
DD
  8
SIZE
  6
CONTINUOUS
 62
    30
 10
-555.15924563401029
 20
-69.999999944784037
 30
0.0
 40
6.0
  0
LINE
  5
DE
  8
SIZE
  6
CONTINUOUS
 62
    30
 10
-555.15924563401029
 20
-69.999999944784037
 30
0.0
 11
-555.15924563401029
 21
-81.999999944784037
 31
0.0
  0
TEXT
  5
DF
  8
SIZE
  6
CONTINUOUS
 62
    30
 10
-580.15924563401029
 20
-235.6645013180046
 30
0.0
 40
64.0
  1
70
 50
90.0
 41
0.9
 72
     1
 11
-580.15924563401029
 21
-189.03592988943311
 31
0.0
  0
POINT
  5
E0
  8
DEFPOINTS
  6
CONTINUOUS
 62
    30
 10
-95.967552833830439
 20
0.0000000000000028
 30
0.0
  0
POINT
  5
E1
  8
DEFPOINTS
  6
CONTINUOUS
 62
    30
 10
-26.02181772244208
 20
-69.999999944784179
 30
0.0
  0
POINT
  5
E2
  8
DEFPOINTS
  6
CONTINUOUS
 62
    30
 10
-555.15924563401029
 20
-69.999999944784037
 30
0.0
  0
LINE
  5
E3
  8
SIZE
  6
CONTINUOUS
 62
    30
 10
-19.48807425998325
 20
-80.494209103002433
 30
0.0
 11
-240.42806508033209
 21
-80.494209103002376
 31
0.0
  0
LINE
  5
E4
  8
SIZE
  6
CONTINUOUS
 62
    30
 10
-4.411296779979641
 20
-85.543220498193861
 30
0.0
 11
-240.42806508033209
 21
-85.543220498193804
 31
0.0
  0
LINE
  5
E5
  8
SIZE
  6
CONTINUOUS
 62
    30
 10
-220.42806508033209
 20
-68.49420910300239
 30
0.0
 11
-220.42806508033209
 21
-56.494209103002383
 31
0.0
  0
LINE
  5
E6
  8
SIZE
  6
CONTINUOUS
 62
    30
 10
-220.42806508033209
 20
-97.543220498193804
 30
0.0
 11
-220.42806508033209
 21
-209.7054340177352
 31
0.0
  0
LINE
  5
E7
  8
SIZE
  6
CONTINUOUS
 62
    30
 10
-220.42806508033209
 20
-80.494209103002405
 30
0.0
 11
-220.42806508033209
 21
-85.543220498193804
 31
0.0
  0
CIRCLE
  5
E8
  8
SIZE
  6
CONTINUOUS
 62
    30
 10
-220.42806508033209
 20
-80.494209103002405
 30
0.0
 40
6.0
  0
LINE
  5
E9
  8
SIZE
  6
CONTINUOUS
 62
    30
 10
-220.42806508033209
 20
-80.494209103002405
 30
0.0
 11
-220.42806508033209
 21
-68.49420910300239
 31
0.0
  0
CIRCLE
  5
EA
  8
SIZE
  6
CONTINUOUS
 62
    30
 10
-220.42806508033209
 20
-85.543220498193804
 30
0.0
 40
6.0
  0
LINE
  5
EB
  8
SIZE
  6
CONTINUOUS
 62
    30
 10
-220.42806508033209
 20
-85.543220498193804
 30
0.0
 11
-220.42806508033209
 21
-97.543220498193804
 31
0.0
  0
TEXT
  5
EC
  8
SIZE
  6
CONTINUOUS
 62
    30
 10
-245.42806508033209
 20
-184.70543401773531
 30
0.0
 40
64.0
  1
5
 50
90.0
 41
0.9
 72
     1
 11
-245.42806508033209
 21
-165.5054340177353
 31
0.0
  0
POINT
  5
ED
  8
DEFPOINTS
  6
CONTINUOUS
 62
    30
 10
0.51192574001675
 20
-80.494209103002433
 30
0.0
  0
POINT
  5
EE
  8
DEFPOINTS
  6
CONTINUOUS
 62
    30
 10
15.58870322002036
 20
-85.543220498193861
 30
0.0
  0
POINT
  5
EF
  8
DEFPOINTS
  6
CONTINUOUS
 62
    30
 10
-220.42806508033209
 20
-85.543220498193804
 30
0.0
  0
LINE
  5
F0
  8
SIZE
  6
CONTINUOUS
 62
    30
 10
-79.174202137609086
 20
-47.611652552302857
 30
0.0
 11
-452.25014154010307
 21
-47.611652552302758
 31
0.0
  0
LINE
  5
F1
  8
SIZE
  6
CONTINUOUS
 62
    30
 10
-77.1658185425798
 20
47.450464276725683
 30
0.0
 11
-452.25014154010307
 21
47.450464276725789
 31
0.0
  0
LINE
  5
F2
  8
SIZE
  6
CONTINUOUS
 62
    30
 10
-432.25014154010302
 20
-35.611652552302758
 30
0.0
 11
-432.25014154010302
 21
35.45046427672581
 31
0.0
  0
LINE
  5
F3
  8
SIZE
  6
CONTINUOUS
 62
    30
 10
-432.25014154010302
 20
47.450464276725789
 30
0.0
 11
-432.25014154010279
 21
270.9504957111152
 31
0.0
  0
CIRCLE
  5
F4
  8
SIZE
  6
CONTINUOUS
 62
    30
 10
-432.25014154010302
 20
-47.611652552302758
 30
0.0
 40
6.0
  0
LINE
  5
F5
  8
SIZE
  6
CONTINUOUS
 62
    30
 10
-432.25014154010302
 20
-47.611652552302758
 30
0.0
 11
-432.25014154010302
 21
-35.611652552302758
 31
0.0
  0
CIRCLE
  5
F6
  8
SIZE
  6
CONTINUOUS
 62
    30
 10
-432.25014154010302
 20
47.450464276725789
 30
0.0
 40
6.0
  0
LINE
  5
F7
  8
SIZE
  6
CONTINUOUS
 62
    30
 10
-432.25014154010302
 20
47.450464276725789
 30
0.0
 11
-432.25014154010302
 21
35.45046427672581
 31
0.0
  0
TEXT
  5
F8
  8
SIZE
  6
CONTINUOUS
 62
    30
 10
-467.91680820676959
 20
82.201924282543601
 30
0.0
 40
64.0
  1
\U+03C695
 50
90.0
 41
0.9
 72
     1
 11
-467.91680820676959
 21
169.15049571111501
 31
0.0
  0
POINT
  5
F9
  8
DEFPOINTS
  6
CONTINUOUS
 62
    30
 10
-59.174202137609093
 20
-47.611652552302857
 30
0.0
  0
POINT
  5
FA
  8
DEFPOINTS
  6
CONTINUOUS
 62
    30
 10
-57.165818542579807
 20
47.450464276725683
 30
0.0
  0
POINT
  5
FB
  8
DEFPOINTS
  6
CONTINUOUS
 62
    30
 10
-432.25014154010302
 20
47.450464276725789
 30
0.0
  0
LINE
  5
FC
  8
SIZE
  6
CONTINUOUS
 62
    30
 10
-107.599856480094
 20
-25.574002839158322
 30
0.0
 11
-309.72787987941678
 21
-25.574002839158268
 31
0.0
  0
LINE
  5
FD
  8
SIZE
  6
CONTINUOUS
 62
    30
 10
-107.59985648010139
 20
25.290596008410269
 30
0.0
 11
-309.72787987941678
 21
25.290596008410329
 31
0.0
  0
LINE
  5
FE
  8
SIZE
  6
CONTINUOUS
 62
    30
 10
-289.72787987941678
 20
-37.574002839158268
 30
0.0
 11
-289.72787987941678
 21
-49.574002839158261
 31
0.0
  0
LINE
  5
FF
  8
SIZE
  6
CONTINUOUS
 62
    30
 10
-289.72787987941678
 20
37.290596008410333
 30
0.0
 11
-289.72787987941678
 21
253.37863973690889
 31
0.0
  0
LINE
  5
100
  8
SIZE
  6
CONTINUOUS
 62
    30
 10
-289.72787987941678
 20
-25.574002839158268
 30
0.0
 11
-289.72787987941678
 21
25.290596008410319
 31
0.0
  0
CIRCLE
  5
101
  8
SIZE
  6
CONTINUOUS
 62
    30
 10
-289.72787987941678
 20
-25.574002839158268
 30
0.0
 40
6.0
  0
LINE
  5
102
  8
SIZE
  6
CONTINUOUS
 62
    30
 10
-289.72787987941678
 20
-25.574002839158268
 30
0.0
 11
-289.72787987941678
 21
-37.574002839158268
 31
0.0
  0
CIRCLE
  5
103
  8
SIZE
  6
CONTINUOUS
 62
    30
 10
-289.72787987941678
 20
25.290596008410319
 30
0.0
 40
6.0
  0
LINE
  5
104
  8
SIZE
  6
CONTINUOUS
 62
    30
 10
-289.72787987941678
 20
25.290596008410319
 30
0.0
 11
-289.72787987941678
 21
37.290596008410319
 31
0.0
  0
TEXT
  5
105
  8
SIZE
  6
CONTINUOUS
 62
    30
 10
-325.39454654608352
 20
89.315782594051726
 30
0.0
 40
64.0
  1
\U+03C651
 50
90.0
 41
0.9
 72
     1
 11
-325.39454654608352
 21
163.92149687976601
 31
0.0
  0
POINT
  5
106
  8
DEFPOINTS
  6
CONTINUOUS
 62
    30
 10
-87.599856480093976
 20
-25.574002839158329
 30
0.0
  0
POINT
  5
107
  8
DEFPOINTS
  6
CONTINUOUS
 62
    30
 10
-87.599856480101408
 20
25.290596008410269
 30
0.0
  0
POINT
  5
108
  8
DEFPOINTS
  6
CONTINUOUS
 62
    30
 10
-289.72787987941678
 20
25.290596008410319
 30
0.0
  0
LINE
  5
109
  8
SIZE
  6
CONTINUOUS
 62
    30
 10
-0.0000000000000012
 20
-129.2854010143142
 30
0.0
 11
-0.0000000000000102
 21
-275.67477456083429
 31
0.0
  0
LINE
  5
10A
  8
SIZE
  6
CONTINUOUS
 62
    30
 10
-59.672956082915562
 20
-67.108527055509569
 30
0.0
 11
-59.672956082915583
 21
-275.67477456083429
 31
0.0
  0
LINE
  5
10B
  8
SIZE
  6
CONTINUOUS
 62
    30
 10
-71.672956082915576
 20
-255.67477456083429
 30
0.0
 11
-83.672956082915562
 21
-255.67477456083429
 31
0.0
  0
LINE
  5
10C
  8
SIZE
  6
CONTINUOUS
 62
    30
 10
11.999999999999989
 20
-255.67477456083429
 30
0.0
 11
249.5428571428572
 21
-255.67477456083429
 31
0.0
  0
LINE
  5
10D
  8
SIZE
  6
CONTINUOUS
 62
    30
 10
-59.672956082915583
 20
-255.67477456083429
 30
0.0
 11
-0.000000000000009
 21
-255.67477456083429
 31
0.0
  0
CIRCLE
  5
10E
  8
SIZE
  6
CONTINUOUS
 62
    30
 10
-59.672956082915583
 20
-255.67477456083429
 30
0.0
 40
6.0
  0
LINE
  5
10F
  8
SIZE
  6
CONTINUOUS
 62
    30
 10
-59.672956082915583
 20
-255.67477456083429
 30
0.0
 11
-71.67295608291559
 21
-255.67477456083429
 31
0.0
  0
CIRCLE
  5
110
  8
SIZE
  6
CONTINUOUS
 62
    30
 10
-0.000000000000009
 20
-255.67477456083429
 30
0.0
 40
6.0
  0
LINE
  5
111
  8
SIZE
  6
CONTINUOUS
 62
    30
 10
-0.000000000000009
 20
-255.67477456083429
 30
0.0
 11
11.999999999999989
 21
-255.67477456083429
 31
0.0
  0
TEXT
  5
112
  8
SIZE
  6
CONTINUOUS
 62
    30
 10
49.0
 20
-230.67477456083429
 30
0.0
 40
64.0
  1
59.5
 41
0.9
 72
     1
 11
136.77142857142849
 21
-230.67477456083429
 31
0.0
  0
POINT
  5
113
  8
DEFPOINTS
  6
CONTINUOUS
 62
    30
 10
0.0
 20
-109.2854010143142
 30
0.0
  0
POINT
  5
114
  8
DEFPOINTS
  6
CONTINUOUS
 62
    30
 10
-59.672956082915562
 20
-47.108527055509569
 30
0.0
  0
POINT
  5
115
  8
DEFPOINTS
  6
CONTINUOUS
 62
    30
 10
-59.672956082915583
 20
-255.67477456083429
 30
0.0
  0
LINE
  5
116
  8
SIZE
  6
CONTINUOUS
 62
    30
 10
-0.0000000000000012
 20
-129.2854010143142
 30
0.0
 11
-0.0000000000000168
 21
-384.11544475201208
 31
0.0
  0
LINE
  5
117
  8
SIZE
  6
CONTINUOUS
 62
    30
 10
-90.566037899999984
 20
-42.555594697385168
 30
0.0
 11
-90.566037899999998
 21
-384.11544475201208
 31
0.0
  0
LINE
  5
118
  8
SIZE
  6
CONTINUOUS
 62
    30
 10
-78.566037899999984
 20
-364.11544475201208
 30
0.0
 11
-12.00000000000002
 21
-364.11544475201208
 31
0.0
  0
LINE
  5
119
  8
SIZE
  6
CONTINUOUS
 62
    30
 10
-0.0000000000000156
 20
-364.11544475201208
 30
0.0
 11
196.40000000000001
 21
-364.11544475201208
 31
0.0
  0
CIRCLE
  5
11A
  8
SIZE
  6
CONTINUOUS
 62
    30
 10
-90.566037899999984
 20
-364.11544475201208
 30
0.0
 40
6.0
  0
LINE
  5
11B
  8
SIZE
  6
CONTINUOUS
 62
    30
 10
-90.566037899999984
 20
-364.11544475201208
 30
0.0
 11
-78.566037899999984
 21
-364.11544475201208
 31
0.0
  0
CIRCLE
  5
11C
  8
SIZE
  6
CONTINUOUS
 62
    30
 10
-0.0000000000000156
 20
-364.11544475201208
 30
0.0
 40
6.0
  0
LINE
  5
11D
  8
SIZE
  6
CONTINUOUS
 62
    30
 10
-0.0000000000000156
 20
-364.11544475201208
 30
0.0
 11
-12.000000000000011
 21
-364.11544475201208
 31
0.0
  0
TEXT
  5
11E
  8
SIZE
  6
CONTINUOUS
 62
    30
 10
78.142857142857153
 20
-339.11544475201208
 30
0.0
 40
64.0
  1
90
 41
0.9
 72
     1
 11
124.7714285714286
 21
-339.11544475201208
 31
0.0
  0
POINT
  5
11F
  8
DEFPOINTS
  6
CONTINUOUS
 62
    30
 10
0.0
 20
-109.2854010143142
 30
0.0
  0
POINT
  5
120
  8
DEFPOINTS
  6
CONTINUOUS
 62
    30
 10
-90.566037899999984
 20
-22.555594697385171
 30
0.0
  0
POINT
  5
121
  8
DEFPOINTS
  6
CONTINUOUS
 62
    30
 10
-90.566037899999984
 20
-364.11544475201208
 30
0.0
  0
TEXT
  5
122
  8
NOTE
  6
CONTINUOUS
 62
     4
 10
-203.7403002606201
 20
458.8859053258866
 30
0.0
 40
64.0
  1
EL
 41
0.9
 72
     2
 11
-118.71172883204871
 21
458.8859053258866
 31
0.0
  0
TEXT
  5
123
  8
NOTE
  6
CONTINUOUS
 62
     4
 10
-535.13812930732774
 20
329.17552443105831
 30
0.0
 40
64.0
  1
2-\U+03C64\U+00D710
 41
0.9
 72
     2
 11
-133.5838435930423
 21
329.17552443105831
 31
0.0
  0
TEXT
  5
124
  8
NOTE
  6
CONTINUOUS
 62
     4
 10
-567.35257240589215
 20
-454.41915202917369
 30
0.0
 40
64.0
  1
2-\U+03C65\U+00D77
 41
0.9
 72
     2
 11
-209.68400097732089
 21
-454.41915202917369
 31
0.0
  0
LINE
  5
125
  8
NOTE
  6
CONTINUOUS
 62
     4
 10
-3.1082140012344999
 20
65.123231046238885
 30
0.0
 11
-107.4805600201113
 21
429.7279274657036
 31
0.0
  0
LINE
  5
126
  8
NOTE
  6
CONTINUOUS
 62
     4
 10
-107.4805600201113
 20
429.7279274657036
 30
0.0
 11
-204.50913144868261
 21
429.7279274657036
 31
0.0
  0
LINE
  5
127
  8
DETAIL
  6
CONTINUOUS
 62
     4
 10
-3.7959221329679731
 20
10.916876488575079
 30
0.0
 11
0.0000000000000223
 21
5.9999999952671921
 31
0.0
  0
LINE
  5
128
  8
DETAIL
  6
CONTINUOUS
 62
     4
 10
0.0000000000000223
 20
5.9999999952671921
 30
0.0
 11
-0.8289174743851207
 21
12.15610226136536
 31
0.0
  0
LINE
  5
129
  8
DETAIL
  6
CONTINUOUS
 62
     4
 10
0.0000000000000223
 20
5.9999999952671921
 30
0.0
 11
-4.6248396073531159
 21
17.072978754673251
 31
0.0
  0
LINE
  5
12A
  8
NOTE
  6
CONTINUOUS
 62
     4
 10
-4.624839607353108
 20
17.072978754673251
 30
0.0
 11
-121.5838435930423
 21
297.17552443105842
 31
0.0
  0
LINE
  5
12B
  8
NOTE
  6
CONTINUOUS
 62
     4
 10
-121.5838435930423
 20
297.17552443105842
 30
0.0
 11
-533.1019699121789
 21
297.17552443105842
 31
0.0
  0
LINE
  5
12C
  8
DETAIL
  6
CONTINUOUS
 62
     4
 10
-0.9944408093056955
 20
-76.131540270574035
 30
0.0
 11
-0.0000000000000018
 21
-69.999999944784179
 31
0.0
  0
LINE
  5
12D
  8
DETAIL
  6
CONTINUOUS
 62
     4
 10
-0.0000000000000018
 20
-69.999999944784179
 30
0.0
 11
-3.9269884190022482
 21
-74.81284330884894
 31
0.0
  0
LINE
  5
12E
  8
DETAIL
  6
CONTINUOUS
 62
     4
 10
-0.0000000000000018
 20
-69.999999944784179
 30
0.0
 11
-4.9214292283079404
 21
-80.944383634638811
 31
0.0
  0
LINE
  5
12F
  8
NOTE
  6
CONTINUOUS
 62
     4
 10
-4.9214292283079377
 20
-80.944383634638811
 30
0.0
 11
-197.68400097732081
 21
-510.92769145700203
 31
0.0
  0
LINE
  5
130
  8
NOTE
  6
CONTINUOUS
 62
     4
 10
-197.68400097732081
 20
-510.92769145700203
 30
0.0
 11
-572.86540968630618
 21
-510.92769145700203
 31
0.0
  0
TEXT
  5
131
  8
NOTE
  6
CONTINUOUS
 62
     4
 10
-486.83421330405167
 20
-337.56387639670118
 30
0.0
 40
64.0
  1
パッキン
 41
0.9
 72
     2
 11
-229.5542133040517
 21
-337.56387639670118
 31
0.0
  0
LINE
  5
132
  8
DETAIL
  6
CONTINUOUS
 62
     5
 10
-50.616352292941208
 20
26.54491623801237
 30
0.0
 11
-50.592393492617809
 21
43.297267972159958
 31
0.0
  0
LINE
  5
133
  8
DETAIL
  6
CONTINUOUS
 62
     5
 10
-50.592393492617809
 20
43.297267972159958
 30
0.0
 11
-50.589592306571262
 21
43.313906593205573
 31
0.0
  0
LINE
  5
134
  8
DETAIL
  6
CONTINUOUS
 62
     5
 10
-50.589592306571262
 20
43.313906593205573
 30
0.0
 11
-50.586576762696602
 21
43.330813344077093
 31
0.0
  0
LINE
  5
135
  8
DETAIL
  6
CONTINUOUS
 62
     5
 10
-50.586576762696602
 20
43.330813344077093
 30
0.0
 11
-50.586576762696602
 21
43.330813344077093
 31
0.0
  0
LINE
  5
136
  8
DETAIL
  6
CONTINUOUS
 62
     5
 10
-50.586576762696602
 20
43.330813344077093
 30
0.0
 11
-50.58324977624909
 21
43.348382060705767
 31
0.0
  0
LINE
  5
137
  8
DETAIL
  6
CONTINUOUS
 62
     5
 10
-50.58324977624909
 20
43.348382060705767
 30
0.0
 11
-50.579749235166673
 21
43.365814477553982
 31
0.0
  0
LINE
  5
138
  8
DETAIL
  6
CONTINUOUS
 62
     5
 10
-50.579749235166673
 20
43.365814477553982
 30
0.0
 11
-50.579749235166673
 21
43.365814477553982
 31
0.0
  0
LINE
  5
139
  8
DETAIL
  6
CONTINUOUS
 62
     5
 10
-50.579749235166673
 20
43.365814477553982
 30
0.0
 11
-50.576054828654492
 21
43.38323592426903
 31
0.0
  0
LINE
  5
13A
  8
DETAIL
  6
CONTINUOUS
 62
     5
 10
-50.576054828654492
 20
43.38323592426903
 30
0.0
 11
-50.572159550678172
 21
43.400658719425671
 31
0.0
  0
LINE
  5
13B
  8
DETAIL
  6
CONTINUOUS
 62
     5
 10
-50.572159550678172
 20
43.400658719425671
 30
0.0
 11
-50.572159550678172
 21
43.400658719425671
 31
0.0
  0
LINE
  5
13C
  8
DETAIL
  6
CONTINUOUS
 62
     5
 10
-50.572159550678172
 20
43.400658719425671
 30
0.0
 11
-50.568065374857163
 21
43.418052098796721
 31
0.0
  0
LINE
  5
13D
  8
DETAIL
  6
CONTINUOUS
 62
     5
 10
-50.568065374857163
 20
43.418052098796721
 30
0.0
 11
-50.563796888657521
 21
43.435325978020337
 31
0.0
  0
LINE
  5
13E
  8
DETAIL
  6
CONTINUOUS
 62
     5
 10
-50.563796888657521
 20
43.435325978020337
 30
0.0
 11
-50.563796888657521
 21
43.435325978020337
 31
0.0
  0
LINE
  5
13F
  8
DETAIL
  6
CONTINUOUS
 62
     5
 10
-50.563796888657521
 20
43.435325978020337
 30
0.0
 11
-50.559358392969671
 21
43.452463015604003
 31
0.0
  0
LINE
  5
140
  8
DETAIL
  6
CONTINUOUS
 62
     5
 10
-50.559358392969671
 20
43.452463015604003
 30
0.0
 11
-50.554650428529939
 21
43.469796161665982
 31
0.0
  0
LINE
  5
141
  8
DETAIL
  6
CONTINUOUS
 62
     5
 10
-50.554650428529939
 20
43.469796161665982
 30
0.0
 11
-50.554650428529939
 21
43.469796161665982
 31
0.0
  0
LINE
  5
142
  8
DETAIL
  6
CONTINUOUS
 62
     5
 10
-50.554650428529939
 20
43.469796161665982
 30
0.0
 11
-50.549587040545589
 21
43.48760419523343
 31
0.0
  0
LINE
  5
143
  8
DETAIL
  6
CONTINUOUS
 62
     5
 10
-50.549587040545589
 20
43.48760419523343
 30
0.0
 11
-50.544240052256548
 21
43.505598919355542
 31
0.0
  0
LINE
  5
144
  8
DETAIL
  6
CONTINUOUS
 62
     5
 10
-50.544240052256548
 20
43.505598919355542
 30
0.0
 11
-50.544240052256548
 21
43.505598919355542
 31
0.0
  0
LINE
  5
145
  8
DETAIL
  6
CONTINUOUS
 62
     5
 10
-50.544240052256548
 20
43.505598919355542
 30
0.0
 11
-50.538697765665219
 21
43.523439006356959
 31
0.0
  0
LINE
  5
146
  8
DETAIL
  6
CONTINUOUS
 62
     5
 10
-50.538697765665219
 20
43.523439006356959
 30
0.0
 11
-50.532956619784393
 21
43.541137581642609
 31
0.0
  0
LINE
  5
147
  8
DETAIL
  6
CONTINUOUS
 62
     5
 10
-50.532956619784393
 20
43.541137581642609
 30
0.0
 11
-50.532956619784393
 21
43.541137581642609
 31
0.0
  0
LINE
  5
148
  8
DETAIL
  6
CONTINUOUS
 62
     5
 10
-50.532956619784393
 20
43.541137581642609
 30
0.0
 11
-50.526993072484522
 21
43.558779914449893
 31
0.0
  0
LINE
  5
149
  8
DETAIL
  6
CONTINUOUS
 62
     5
 10
-50.526993072484522
 20
43.558779914449893
 30
0.0
 11
-50.520795520052609
 21
43.576385396268549
 31
0.0
  0
LINE
  5
14A
  8
DETAIL
  6
CONTINUOUS
 62
     5
 10
-50.520795520052609
 20
43.576385396268549
 30
0.0
 11
-50.520795520052609
 21
43.576385396268549
 31
0.0
  0
LINE
  5
14B
  8
DETAIL
  6
CONTINUOUS
 62
     5
 10
-50.520795520052609
 20
43.576385396268549
 30
0.0
 11
-50.514366370710832
 21
43.593934213629467
 31
0.0
  0
LINE
  5
14C
  8
DETAIL
  6
CONTINUOUS
 62
     5
 10
-50.514366370710832
 20
43.593934213629467
 30
0.0
 11
-50.50775214199939
 21
43.611315610975211
 31
0.0
  0
LINE
  5
14D
  8
DETAIL
  6
CONTINUOUS
 62
     5
 10
-50.50775214199939
 20
43.611315610975211
 30
0.0
 11
-50.50775214199939
 21
43.611315610975211
 31
0.0
  0
LINE
  5
14E
  8
DETAIL
  6
CONTINUOUS
 62
     5
 10
-50.50775214199939
 20
43.611315610975211
 30
0.0
 11
-50.500963284866103
 21
43.628503508751791
 31
0.0
  0
LINE
  5
14F
  8
DETAIL
  6
CONTINUOUS
 62
     5
 10
-50.500963284866103
 20
43.628503508751791
 30
0.0
 11
-50.493821874563068
 21
43.645901473503812
 31
0.0
  0
LINE
  5
150
  8
DETAIL
  6
CONTINUOUS
 62
     5
 10
-50.493821874563068
 20
43.645901473503812
 30
0.0
 11
-50.493821874563068
 21
43.645901473503812
 31
0.0
  0
LINE
  5
151
  8
DETAIL
  6
CONTINUOUS
 62
     5
 10
-50.493821874563068
 20
43.645901473503812
 30
0.0
 11
-50.486174976038562
 21
43.663848015863678
 31
0.0
  0
LINE
  5
152
  8
DETAIL
  6
CONTINUOUS
 62
     5
 10
-50.486174976038562
 20
43.663848015863678
 30
0.0
 11
-50.478157988716141
 21
43.681991776716728
 31
0.0
  0
LINE
  5
153
  8
DETAIL
  6
CONTINUOUS
 62
     5
 10
-50.478157988716141
 20
43.681991776716728
 30
0.0
 11
-50.478157988716141
 21
43.681991776716728
 31
0.0
  0
LINE
  5
154
  8
DETAIL
  6
CONTINUOUS
 62
     5
 10
-50.478157988716141
 20
43.681991776716728
 30
0.0
 11
-50.46993592246622
 21
43.699916678711922
 31
0.0
  0
LINE
  5
155
  8
DETAIL
  6
CONTINUOUS
 62
     5
 10
-50.46993592246622
 20
43.699916678711922
 30
0.0
 11
-50.461503894466091
 21
43.71763764129993
 31
0.0
  0
LINE
  5
156
  8
DETAIL
  6
CONTINUOUS
 62
     5
 10
-50.461503894466091
 20
43.71763764129993
 30
0.0
 11
-50.461503894466091
 21
43.71763764129993
 31
0.0
  0
LINE
  5
157
  8
DETAIL
  6
CONTINUOUS
 62
     5
 10
-50.461503894466091
 20
43.71763764129993
 30
0.0
 11
-50.452819722905033
 21
43.735258504331689
 31
0.0
  0
LINE
  5
158
  8
DETAIL
  6
CONTINUOUS
 62
     5
 10
-50.452819722905033
 20
43.735258504331689
 30
0.0
 11
-50.443861922708379
 21
43.752807792452558
 31
0.0
  0
LINE
  5
159
  8
DETAIL
  6
CONTINUOUS
 62
     5
 10
-50.443861922708379
 20
43.752807792452558
 30
0.0
 11
-50.443861922708379
 21
43.752807792452558
 31
0.0
  0
LINE
  5
15A
  8
DETAIL
  6
CONTINUOUS
 62
     5
 10
-50.443861922708379
 20
43.752807792452558
 30
0.0
 11
-50.43463595942238
 21
43.770262767511021
 31
0.0
  0
LINE
  5
15B
  8
DETAIL
  6
CONTINUOUS
 62
     5
 10
-50.43463595942238
 20
43.770262767511021
 30
0.0
 11
-50.425234404337523
 21
43.787470955373038
 31
0.0
  0
LINE
  5
15C
  8
DETAIL
  6
CONTINUOUS
 62
     5
 10
-50.425234404337523
 20
43.787470955373038
 30
0.0
 11
-50.425234404337523
 21
43.787470955373038
 31
0.0
  0
LINE
  5
15D
  8
DETAIL
  6
CONTINUOUS
 62
     5
 10
-50.425234404337523
 20
43.787470955373038
 30
0.0
 11
-50.415679325252889
 21
43.804396012692919
 31
0.0
  0
LINE
  5
15E
  8
DETAIL
  6
CONTINUOUS
 62
     5
 10
-50.415679325252889
 20
43.804396012692919
 30
0.0
 11
-50.405623670249149
 21
43.821595855260888
 31
0.0
  0
LINE
  5
15F
  8
DETAIL
  6
CONTINUOUS
 62
     5
 10
-50.405623670249149
 20
43.821595855260888
 30
0.0
 11
-50.405623670249149
 21
43.821595855260888
 31
0.0
  0
LINE
  5
160
  8
DETAIL
  6
CONTINUOUS
 62
     5
 10
-50.405623670249149
 20
43.821595855260888
 30
0.0
 11
-50.394771147234572
 21
43.839537211603442
 31
0.0
  0
LINE
  5
161
  8
DETAIL
  6
CONTINUOUS
 62
     5
 10
-50.394771147234572
 20
43.839537211603442
 30
0.0
 11
-50.383397623137292
 21
43.857727802054633
 31
0.0
  0
LINE
  5
162
  8
DETAIL
  6
CONTINUOUS
 62
     5
 10
-50.383397623137292
 20
43.857727802054633
 30
0.0
 11
-50.383397623137292
 21
43.857727802054633
 31
0.0
  0
LINE
  5
163
  8
DETAIL
  6
CONTINUOUS
 62
     5
 10
-50.383397623137292
 20
43.857727802054633
 30
0.0
 11
-50.371833618769529
 21
43.875588674367627
 31
0.0
  0
LINE
  5
164
  8
DETAIL
  6
CONTINUOUS
 62
     5
 10
-50.371833618769529
 20
43.875588674367627
 30
0.0
 11
-50.360056111450611
 21
43.89315319416027
 31
0.0
  0
LINE
  5
165
  8
DETAIL
  6
CONTINUOUS
 62
     5
 10
-50.360056111450611
 20
43.89315319416027
 30
0.0
 11
-50.360056111450611
 21
43.89315319416027
 31
0.0
  0
LINE
  5
166
  8
DETAIL
  6
CONTINUOUS
 62
     5
 10
-50.360056111450611
 20
43.89315319416027
 30
0.0
 11
-50.347979647826833
 21
43.910568784265209
 31
0.0
  0
LINE
  5
167
  8
DETAIL
  6
CONTINUOUS
 62
     5
 10
-50.347979647826833
 20
43.910568784265209
 30
0.0
 11
-50.335622595335167
 21
43.927826778505811
 31
0.0
  0
LINE
  5
168
  8
DETAIL
  6
CONTINUOUS
 62
     5
 10
-50.335622595335167
 20
43.927826778505811
 30
0.0
 11
-50.335622595335167
 21
43.927826778505811
 31
0.0
  0
LINE
  5
169
  8
DETAIL
  6
CONTINUOUS
 62
     5
 10
-50.335622595335167
 20
43.927826778505811
 30
0.0
 11
-50.323013841692386
 21
43.944882497996161
 31
0.0
  0
LINE
  5
16A
  8
DETAIL
  6
CONTINUOUS
 62
     5
 10
-50.323013841692386
 20
43.944882497996161
 30
0.0
 11
-50.310120534936679
 21
43.961703302019473
 31
0.0
  0
LINE
  5
16B
  8
DETAIL
  6
CONTINUOUS
 62
     5
 10
-50.310120534936679
 20
43.961703302019473
 30
0.0
 11
-50.310120534936679
 21
43.961703302019473
 31
0.0
  0
LINE
  5
16C
  8
DETAIL
  6
CONTINUOUS
 62
     5
 10
-50.310120534936679
 20
43.961703302019473
 30
0.0
 11
-50.296930172667551
 21
43.978286543484643
 31
0.0
  0
LINE
  5
16D
  8
DETAIL
  6
CONTINUOUS
 62
     5
 10
-50.296930172667551
 20
43.978286543484643
 30
0.0
 11
-50.283573390401671
 21
43.994737511629268
 31
0.0
  0
LINE
  5
16E
  8
DETAIL
  6
CONTINUOUS
 62
     5
 10
-49.120090456975497
 20
44.538416343707453
 30
0.0
 11
-48.551711496790062
 21
44.541548673923529
 31
0.0
  0
LINE
  5
16F
  8
DETAIL
  6
CONTINUOUS
 62
     5
 10
-48.551711496790062
 20
44.541548673923529
 30
0.0
 11
-47.983329083992203
 21
44.544679544808218
 31
0.0
  0
LINE
  5
170
  8
DETAIL
  6
CONTINUOUS
 62
     5
 10
-47.983329083992203
 20
44.544679544808218
 30
0.0
 11
-47.983329083992203
 21
44.544679544808218
 31
0.0
  0
LINE
  5
171
  8
DETAIL
  6
CONTINUOUS
 62
     5
 10
-47.983329083992203
 20
44.544679544808218
 30
0.0
 11
-47.414943212163038
 21
44.54780779076814
 31
0.0
  0
LINE
  5
172
  8
DETAIL
  6
CONTINUOUS
 62
     5
 10
-47.414943212163038
 20
44.54780779076814
 30
0.0
 11
-46.846567659654283
 21
44.550933421160813
 31
0.0
  0
LINE
  5
173
  8
DETAIL
  6
CONTINUOUS
 62
     5
 10
-46.846567659654283
 20
44.550933421160813
 30
0.0
 11
-46.846567659654283
 21
44.550933421160813
 31
0.0
  0
LINE
  5
174
  8
DETAIL
  6
CONTINUOUS
 62
     5
 10
-46.846567659654283
 20
44.550933421160813
 30
0.0
 11
-46.278205872675358
 21
44.554056730638557
 31
0.0
  0
LINE
  5
175
  8
DETAIL
  6
CONTINUOUS
 62
     5
 10
-46.278205872675358
 20
44.554056730638557
 30
0.0
 11
-45.709806184084073
 21
44.557177980079608
 31
0.0
  0
LINE
  5
176
  8
DETAIL
  6
CONTINUOUS
 62
     5
 10
-45.709806184084073
 20
44.557177980079608
 30
0.0
 11
-45.709806184084073
 21
44.557177980079608
 31
0.0
  0
LINE
  5
177
  8
DETAIL
  6
CONTINUOUS
 62
     5
 10
-45.709806184084073
 20
44.557177980079608
 30
0.0
 11
-45.141354815558991
 21
44.560297161954779
 31
0.0
  0
LINE
  5
178
  8
DETAIL
  6
CONTINUOUS
 62
     5
 10
-45.141354815558991
 20
44.560297161954779
 30
0.0
 11
-44.573044657404687
 21
44.563413228879739
 31
0.0
  0
LINE
  5
179
  8
DETAIL
  6
CONTINUOUS
 62
     5
 10
-44.573044657404687
 20
44.563413228879739
 30
0.0
 11
-44.573044657404687
 21
44.563413228879739
 31
0.0
  0
LINE
  5
17A
  8
DETAIL
  6
CONTINUOUS
 62
     5
 10
-44.573044657404687
 20
44.563413228879739
 30
0.0
 11
-44.004927376793269
 21
44.566525921805102
 31
0.0
  0
LINE
  5
17B
  8
DETAIL
  6
CONTINUOUS
 62
     5
 10
-44.004927376793269
 20
44.566525921805102
 30
0.0
 11
-43.43628307973858
 21
44.56963917487564
 31
0.0
  0
LINE
  5
17C
  8
DETAIL
  6
CONTINUOUS
 62
     5
 10
-43.43628307973858
 20
44.56963917487564
 30
0.0
 11
-43.43628307973858
 21
44.56963917487564
 31
0.0
  0
LINE
  5
17D
  8
DETAIL
  6
CONTINUOUS
 62
     5
 10
-43.43628307973858
 20
44.56963917487564
 30
0.0
 11
-42.866503243387342
 21
44.572756308584701
 31
0.0
  0
LINE
  5
17E
  8
DETAIL
  6
CONTINUOUS
 62
     5
 10
-42.866503243387342
 20
44.572756308584701
 30
0.0
 11
-42.296196390576711
 21
44.575873995623411
 31
0.0
  0
LINE
  5
17F
  8
DETAIL
  6
CONTINUOUS
 62
     5
 10
-42.296196390576711
 20
44.575873995623411
 30
0.0
 11
-42.296196390576711
 21
44.575873995623411
 31
0.0
  0
LINE
  5
180
  8
DETAIL
  6
CONTINUOUS
 62
     5
 10
-42.296196390576711
 20
44.575873995623411
 30
0.0
 11
-41.726082415288481
 21
44.578988296865781
 31
0.0
  0
LINE
  5
181
  8
DETAIL
  6
CONTINUOUS
 62
     5
 10
-41.726082415288481
 20
44.578988296865781
 30
0.0
 11
-41.156109650386611
 21
44.582099473721392
 31
0.0
  0
LINE
  5
182
  8
DETAIL
  6
CONTINUOUS
 62
     5
 10
-41.156109650386611
 20
44.582099473721392
 30
0.0
 11
-41.156109650386611
 21
44.582099473721392
 31
0.0
  0
LINE
  5
183
  8
DETAIL
  6
CONTINUOUS
 62
     5
 10
-41.156109650386611
 20
44.582099473721392
 30
0.0
 11
-40.586085205609372
 21
44.585208577236067
 31
0.0
  0
LINE
  5
184
  8
DETAIL
  6
CONTINUOUS
 62
     5
 10
-40.586085205609372
 20
44.585208577236067
 30
0.0
 11
-40.01602285930106
 21
44.588315616468499
 31
0.0
  0
LINE
  5
185
  8
DETAIL
  6
CONTINUOUS
 62
     5
 10
-40.01602285930106
 20
44.588315616468499
 30
0.0
 11
-40.01602285930106
 21
44.588315616468499
 31
0.0
  0
LINE
  5
186
  8
DETAIL
  6
CONTINUOUS
 62
     5
 10
-40.01602285930106
 20
44.588315616468499
 30
0.0
 11
-39.445974278630388
 21
44.591420331833987
 31
0.0
  0
LINE
  5
187
  8
DETAIL
  6
CONTINUOUS
 62
     5
 10
-39.445974278630388
 20
44.591420331833987
 30
0.0
 11
-38.875936017453448
 21
44.594522431162858
 31
0.0
  0
LINE
  5
188
  8
DETAIL
  6
CONTINUOUS
 62
     5
 10
-38.875936017453448
 20
44.594522431162858
 30
0.0
 11
-38.875936017453448
 21
44.594522431162858
 31
0.0
  0
LINE
  5
189
  8
DETAIL
  6
CONTINUOUS
 62
     5
 10
-38.875936017453448
 20
44.594522431162858
 30
0.0
 11
-38.305894297459872
 21
44.597621907221203
 31
0.0
  0
LINE
  5
18A
  8
DETAIL
  6
CONTINUOUS
 62
     5
 10
-38.305894297459872
 20
44.597621907221203
 30
0.0
 11
-37.735849124977108
 21
44.600719925103213
 31
0.0
  0
LINE
  5
18B
  8
DETAIL
  6
CONTINUOUS
 62
     5
 10
-50.283573390401671
 20
43.994737511629268
 30
0.0
 11
-50.266592035371559
 21
44.01469040128972
 31
0.0
  0
LINE
  5
18C
  8
DETAIL
  6
CONTINUOUS
 62
     5
 10
-50.266592035371559
 20
44.01469040128972
 30
0.0
 11
-50.249383571624307
 21
44.034452305115813
 31
0.0
  0
LINE
  5
18D
  8
DETAIL
  6
CONTINUOUS
 62
     5
 10
-50.249383571624307
 20
44.034452305115813
 30
0.0
 11
-50.249383571624307
 21
44.034452305115813
 31
0.0
  0
LINE
  5
18E
  8
DETAIL
  6
CONTINUOUS
 62
     5
 10
-50.249383571624307
 20
44.034452305115813
 30
0.0
 11
-50.231770724797343
 21
44.053870987586443
 31
0.0
  0
LINE
  5
18F
  8
DETAIL
  6
CONTINUOUS
 62
     5
 10
-50.231770724797343
 20
44.053870987586443
 30
0.0
 11
-50.21377555794254
 21
44.072949214431198
 31
0.0
  0
LINE
  5
190
  8
DETAIL
  6
CONTINUOUS
 62
     5
 10
-50.21377555794254
 20
44.072949214431198
 30
0.0
 11
-50.21377555794254
 21
44.072949214431198
 31
0.0
  0
LINE
  5
191
  8
DETAIL
  6
CONTINUOUS
 62
     5
 10
-50.21377555794254
 20
44.072949214431198
 30
0.0
 11
-50.19545523218278
 21
44.091719237528032
 31
0.0
  0
LINE
  5
192
  8
DETAIL
  6
CONTINUOUS
 62
     5
 10
-50.19545523218278
 20
44.091719237528032
 30
0.0
 11
-50.176807963507031
 21
44.110176252097027
 31
0.0
  0
LINE
  5
193
  8
DETAIL
  6
CONTINUOUS
 62
     5
 10
-50.176807963507031
 20
44.110176252097027
 30
0.0
 11
-50.176807963507031
 21
44.110176252097027
 31
0.0
  0
LINE
  5
194
  8
DETAIL
  6
CONTINUOUS
 62
     5
 10
-50.176807963507031
 20
44.110176252097027
 30
0.0
 11
-50.157826342400533
 21
44.128304495538487
 31
0.0
  0
LINE
  5
195
  8
DETAIL
  6
CONTINUOUS
 62
     5
 10
-50.157826342400533
 20
44.128304495538487
 30
0.0
 11
-50.138539402467252
 21
44.146081430634489
 31
0.0
  0
LINE
  5
196
  8
DETAIL
  6
CONTINUOUS
 62
     5
 10
-50.138539402467252
 20
44.146081430634489
 30
0.0
 11
-50.138539402467252
 21
44.146081430634489
 31
0.0
  0
LINE
  5
197
  8
DETAIL
  6
CONTINUOUS
 62
     5
 10
-50.138539402467252
 20
44.146081430634489
 30
0.0
 11
-50.118963581255002
 21
44.163498865295622
 31
0.0
  0
LINE
  5
198
  8
DETAIL
  6
CONTINUOUS
 62
     5
 10
-50.118963581255002
 20
44.163498865295622
 30
0.0
 11
-50.099028488972863
 21
44.180612762565261
 31
0.0
  0
LINE
  5
199
  8
DETAIL
  6
CONTINUOUS
 62
     5
 10
-50.099028488972863
 20
44.180612762565261
 30
0.0
 11
-50.099028488972863
 21
44.180612762565261
 31
0.0
  0
LINE
  5
19A
  8
DETAIL
  6
CONTINUOUS
 62
     5
 10
-50.099028488972863
 20
44.180612762565261
 30
0.0
 11
-50.078674378231653
 21
44.197468637436963
 31
0.0
  0
LINE
  5
19B
  8
DETAIL
  6
CONTINUOUS
 62
     5
 10
-50.078674378231653
 20
44.197468637436963
 30
0.0
 11
-50.05797089858946
 21
44.21400605757146
 31
0.0
  0
LINE
  5
19C
  8
DETAIL
  6
CONTINUOUS
 62
     5
 10
-50.05797089858946
 20
44.21400605757146
 30
0.0
 11
-50.05797089858946
 21
44.21400605757146
 31
0.0
  0
LINE
  5
19D
  8
DETAIL
  6
CONTINUOUS
 62
     5
 10
-50.05797089858946
 20
44.21400605757146
 30
0.0
 11
-50.037000031311997
 21
44.230155622215072
 31
0.0
  0
LINE
  5
19E
  8
DETAIL
  6
CONTINUOUS
 62
     5
 10
-50.037000031311997
 20
44.230155622215072
 30
0.0
 11
-50.015763687544101
 21
44.245918004290218
 31
0.0
  0
LINE
  5
19F
  8
DETAIL
  6
CONTINUOUS
 62
     5
 10
-50.015763687544101
 20
44.245918004290218
 30
0.0
 11
-50.015763687544101
 21
44.245918004290218
 31
0.0
  0
LINE
  5
1A0
  8
DETAIL
  6
CONTINUOUS
 62
     5
 10
-50.015763687544101
 20
44.245918004290218
 30
0.0
 11
-49.99424872204564
 21
44.26130692382246
 31
0.0
  0
LINE
  5
1A1
  8
DETAIL
  6
CONTINUOUS
 62
     5
 10
-49.99424872204564
 20
44.26130692382246
 30
0.0
 11
-49.972461834152448
 21
44.276318215576239
 31
0.0
  0
LINE
  5
1A2
  8
DETAIL
  6
CONTINUOUS
 62
     5
 10
-49.972461834152448
 20
44.276318215576239
 30
0.0
 11
-49.972461834152448
 21
44.276318215576239
 31
0.0
  0
LINE
  5
1A3
  8
DETAIL
  6
CONTINUOUS
 62
     5
 10
-49.972461834152448
 20
44.276318215576239
 30
0.0
 11
-49.950414857298021
 21
44.290943609842941
 31
0.0
  0
LINE
  5
1A4
  8
DETAIL
  6
CONTINUOUS
 62
     5
 10
-49.950414857298021
 20
44.290943609842941
 30
0.0
 11
-49.928120316730308
 21
44.305176304283712
 31
0.0
  0
LINE
  5
1A5
  8
DETAIL
  6
CONTINUOUS
 62
     5
 10
-49.928120316730308
 20
44.305176304283712
 30
0.0
 11
-49.928120316730308
 21
44.305176304283712
 31
0.0
  0
LINE
  5
1A6
  8
DETAIL
  6
CONTINUOUS
 62
     5
 10
-49.928120316730308
 20
44.305176304283712
 30
0.0
 11
-49.905585257691882
 21
44.319012867347929
 31
0.0
  0
LINE
  5
1A7
  8
DETAIL
  6
CONTINUOUS
 62
     5
 10
-49.905585257691882
 20
44.319012867347929
 30
0.0
 11
-49.882794113593143
 21
44.332461883267023
 31
0.0
  0
LINE
  5
1A8
  8
DETAIL
  6
CONTINUOUS
 62
     5
 10
-49.882794113593143
 20
44.332461883267023
 30
0.0
 11
-49.882794113593143
 21
44.332461883267023
 31
0.0
  0
LINE
  5
1A9
  8
DETAIL
  6
CONTINUOUS
 62
     5
 10
-49.882794113593143
 20
44.332461883267023
 30
0.0
 11
-49.859735010232839
 21
44.345529750727039
 31
0.0
  0
LINE
  5
1AA
  8
DETAIL
  6
CONTINUOUS
 62
     5
 10
-49.859735010232839
 20
44.345529750727039
 30
0.0
 11
-49.836433454794353
 21
44.358202110449341
 31
0.0
  0
LINE
  5
1AB
  8
DETAIL
  6
CONTINUOUS
 62
     5
 10
-49.836433454794353
 20
44.358202110449341
 30
0.0
 11
-49.836433454794353
 21
44.358202110449341
 31
0.0
  0
LINE
  5
1AC
  8
DETAIL
  6
CONTINUOUS
 62
     5
 10
-49.836433454794353
 20
44.358202110449341
 30
0.0
 11
-49.812919047172613
 21
44.370462763023738
 31
0.0
  0
LINE
  5
1AD
  8
DETAIL
  6
CONTINUOUS
 62
     5
 10
-49.812919047172613
 20
44.370462763023738
 30
0.0
 11
-49.789200376715939
 21
44.382308906478997
 31
0.0
  0
LINE
  5
1AE
  8
DETAIL
  6
CONTINUOUS
 62
     5
 10
-49.789200376715939
 20
44.382308906478997
 30
0.0
 11
-49.789200376715939
 21
44.382308906478997
 31
0.0
  0
LINE
  5
1AF
  8
DETAIL
  6
CONTINUOUS
 62
     5
 10
-49.789200376715939
 20
44.382308906478997
 30
0.0
 11
-49.765279878797607
 21
44.393740981973572
 31
0.0
  0
LINE
  5
1B0
  8
DETAIL
  6
CONTINUOUS
 62
     5
 10
-49.765279878797607
 20
44.393740981973572
 30
0.0
 11
-49.741156383431303
 21
44.404759005746953
 31
0.0
  0
LINE
  5
1B1
  8
DETAIL
  6
CONTINUOUS
 62
     5
 10
-49.741156383431303
 20
44.404759005746953
 30
0.0
 11
-49.741156383431303
 21
44.404759005746953
 31
0.0
  0
LINE
  5
1B2
  8
DETAIL
  6
CONTINUOUS
 62
     5
 10
-49.741156383431303
 20
44.404759005746953
 30
0.0
 11
-49.716836677286778
 21
44.415359963367912
 31
0.0
  0
LINE
  5
1B3
  8
DETAIL
  6
CONTINUOUS
 62
     5
 10
-49.716836677286778
 20
44.415359963367912
 30
0.0
 11
-49.692362979013751
 21
44.425529142643533
 31
0.0
  0
LINE
  5
1B4
  8
DETAIL
  6
CONTINUOUS
 62
     5
 10
-49.692362979013751
 20
44.425529142643533
 30
0.0
 11
-49.692362979013751
 21
44.425529142643533
 31
0.0
  0
LINE
  5
1B5
  8
DETAIL
  6
CONTINUOUS
 62
     5
 10
-49.692362979013751
 20
44.425529142643533
 30
0.0
 11
-49.667751834616297
 21
44.435260710931693
 31
0.0
  0
LINE
  5
1B6
  8
DETAIL
  6
CONTINUOUS
 62
     5
 10
-49.667751834616297
 20
44.435260710931693
 30
0.0
 11
-49.642881667536358
 21
44.444596051559429
 31
0.0
  0
LINE
  5
1B7
  8
DETAIL
  6
CONTINUOUS
 62
     5
 10
-49.642881667536358
 20
44.444596051559429
 30
0.0
 11
-49.642881667536358
 21
44.444596051559429
 31
0.0
  0
LINE
  5
1B8
  8
DETAIL
  6
CONTINUOUS
 62
     5
 10
-49.642881667536358
 20
44.444596051559429
 30
0.0
 11
-49.617650670557182
 21
44.453568745261109
 31
0.0
  0
LINE
  5
1B9
  8
DETAIL
  6
CONTINUOUS
 62
     5
 10
-49.617650670557182
 20
44.453568745261109
 30
0.0
 11
-49.592174236384139
 21
44.462133946433191
 31
0.0
  0
LINE
  5
1BA
  8
DETAIL
  6
CONTINUOUS
 62
     5
 10
-49.592174236384139
 20
44.462133946433191
 30
0.0
 11
-49.592174236384139
 21
44.462133946433191
 31
0.0
  0
LINE
  5
1BB
  8
DETAIL
  6
CONTINUOUS
 62
     5
 10
-49.592174236384139
 20
44.462133946433191
 30
0.0
 11
-49.56658734421579
 21
44.47024054667235
 31
0.0
  0
LINE
  5
1BC
  8
DETAIL
  6
CONTINUOUS
 62
     5
 10
-49.56658734421579
 20
44.47024054667235
 30
0.0
 11
-49.540886119296033
 21
44.477890812712687
 31
0.0
  0
LINE
  5
1BD
  8
DETAIL
  6
CONTINUOUS
 62
     5
 10
-49.540886119296033
 20
44.477890812712687
 30
0.0
 11
-49.540886119296033
 21
44.477890812712687
 31
0.0
  0
LINE
  5
1BE
  8
DETAIL
  6
CONTINUOUS
 62
     5
 10
-49.540886119296033
 20
44.477890812712687
 30
0.0
 11
-49.515043435543589
 21
44.485096433210657
 31
0.0
  0
LINE
  5
1BF
  8
DETAIL
  6
CONTINUOUS
 62
     5
 10
-49.515043435543589
 20
44.485096433210657
 30
0.0
 11
-49.489078015522182
 21
44.491853409372332
 31
0.0
  0
LINE
  5
1C0
  8
DETAIL
  6
CONTINUOUS
 62
     5
 10
-49.489078015522182
 20
44.491853409372332
 30
0.0
 11
-49.489078015522182
 21
44.491853409372332
 31
0.0
  0
LINE
  5
1C1
  8
DETAIL
  6
CONTINUOUS
 62
     5
 10
-49.489078015522182
 20
44.491853409372332
 30
0.0
 11
-49.463008908800582
 21
44.498156164207558
 31
0.0
  0
LINE
  5
1C2
  8
DETAIL
  6
CONTINUOUS
 62
     5
 10
-49.463008908800582
 20
44.498156164207558
 30
0.0
 11
-49.436810624312898
 21
44.504008495386877
 31
0.0
  0
LINE
  5
1C3
  8
DETAIL
  6
CONTINUOUS
 62
     5
 10
-49.436810624312898
 20
44.504008495386877
 30
0.0
 11
-49.436810624312898
 21
44.504008495386877
 31
0.0
  0
LINE
  5
1C4
  8
DETAIL
  6
CONTINUOUS
 62
     5
 10
-49.436810624312898
 20
44.504008495386877
 30
0.0
 11
-49.41047961430808
 21
44.509411091447639
 31
0.0
  0
LINE
  5
1C5
  8
DETAIL
  6
CONTINUOUS
 62
     5
 10
-49.41047961430808
 20
44.509411091447639
 30
0.0
 11
-49.384144644917797
 21
44.514342829730431
 31
0.0
  0
LINE
  5
1C6
  8
DETAIL
  6
CONTINUOUS
 62
     5
 10
-49.384144644917797
 20
44.514342829730431
 30
0.0
 11
-49.384144644917797
 21
44.514342829730431
 31
0.0
  0
LINE
  5
1C7
  8
DETAIL
  6
CONTINUOUS
 62
     5
 10
-49.384144644917797
 20
44.514342829730431
 30
0.0
 11
-49.357916684365136
 21
44.518786790895653
 31
0.0
  0
LINE
  5
1C8
  8
DETAIL
  6
CONTINUOUS
 62
     5
 10
-49.357916684365136
 20
44.518786790895653
 30
0.0
 11
-49.3317031953477
 21
44.522764680077202
 31
0.0
  0
LINE
  5
1C9
  8
DETAIL
  6
CONTINUOUS
 62
     5
 10
-49.3317031953477
 20
44.522764680077202
 30
0.0
 11
-49.3317031953477
 21
44.522764680077202
 31
0.0
  0
LINE
  5
1CA
  8
DETAIL
  6
CONTINUOUS
 62
     5
 10
-49.3317031953477
 20
44.522764680077202
 30
0.0
 11
-49.30539301651163
 21
44.526300268815433
 31
0.0
  0
LINE
  5
1CB
  8
DETAIL
  6
CONTINUOUS
 62
     5
 10
-49.30539301651163
 20
44.526300268815433
 30
0.0
 11
-49.279003995817661
 21
44.529386969799468
 31
0.0
  0
LINE
  5
1CC
  8
DETAIL
  6
CONTINUOUS
 62
     5
 10
-49.279003995817661
 20
44.529386969799468
 30
0.0
 11
-49.279003995817661
 21
44.529386969799468
 31
0.0
  0
LINE
  5
1CD
  8
DETAIL
  6
CONTINUOUS
 62
     5
 10
-49.279003995817661
 20
44.529386969799468
 30
0.0
 11
-49.25257751758874
 21
44.532016691672801
 31
0.0
  0
LINE
  5
1CE
  8
DETAIL
  6
CONTINUOUS
 62
     5
 10
-49.25257751758874
 20
44.532016691672801
 30
0.0
 11
-49.226120102278287
 21
44.534205685746109
 31
0.0
  0
LINE
  5
1CF
  8
DETAIL
  6
CONTINUOUS
 62
     5
 10
-49.226120102278287
 20
44.534205685746109
 30
0.0
 11
-49.226120102278287
 21
44.534205685746109
 31
0.0
  0
LINE
  5
1D0
  8
DETAIL
  6
CONTINUOUS
 62
     5
 10
-49.226120102278287
 20
44.534205685746109
 30
0.0
 11
-49.199632165913727
 21
44.535959536042519
 31
0.0
  0
LINE
  5
1D1
  8
DETAIL
  6
CONTINUOUS
 62
     5
 10
-49.199632165913727
 20
44.535959536042519
 30
0.0
 11
-49.173124570680571
 21
44.537216814765891
 31
0.0
  0
LINE
  5
1D2
  8
DETAIL
  6
CONTINUOUS
 62
     5
 10
-49.173124570680571
 20
44.537216814765891
 30
0.0
 11
-49.173124570680571
 21
44.537216814765891
 31
0.0
  0
LINE
  5
1D3
  8
DETAIL
  6
CONTINUOUS
 62
     5
 10
-49.173124570680571
 20
44.537216814765891
 30
0.0
 11
-49.146609060113519
 21
44.537960267317679
 31
0.0
  0
LINE
  5
1D4
  8
DETAIL
  6
CONTINUOUS
 62
     5
 10
-49.146609060113519
 20
44.537960267317679
 30
0.0
 11
-49.120090456975497
 21
44.538416343707453
 31
0.0
  0
ARC
  5
1D5
  8
DETAIL
  6
CONTINUOUS
 62
     5
 10
-10032.704420700011
 20
0.0
 30
0.0
 40
10062.893099999999
 50
359.63506793720052
 51
0.4498159098998624
  0
LINE
  5
1D6
  8
DETAIL
  6
CONTINUOUS
 62
     5
 10
27.991885496471021
 20
-26.34593619376243
 30
0.0
 11
27.888394844409159
 21
-52.691875242671671
 31
0.0
  0
LINE
  5
1D7
  8
DETAIL
  6
CONTINUOUS
 62
     5
 10
27.888394844409159
 20
-52.691875242671671
 30
0.0
 11
27.715909773908042
 21
-79.037695657618443
 31
0.0
  0
LINE
  5
1D8
  8
DETAIL
  6
CONTINUOUS
 62
     5
 10
26.7533735755344
 20
-80.036162927050796
 30
0.0
 11
26.879380234982811
 21
-80.025556258050443
 31
0.0
  0
LINE
  5
1D9
  8
DETAIL
  6
CONTINUOUS
 62
     5
 10
26.879380234982811
 20
-80.025556258050443
 30
0.0
 11
27.002540483357048
 21
-79.998580693121056
 31
0.0
  0
LINE
  5
1DA
  8
DETAIL
  6
CONTINUOUS
 62
     5
 10
27.002540483357048
 20
-79.998580693121056
 30
0.0
 11
27.12125528930812
 21
-79.955587456112298
 31
0.0
  0
LINE
  5
1DB
  8
DETAIL
  6
CONTINUOUS
 62
     5
 10
27.12125528930812
 20
-79.955587456112298
 30
0.0
 11
27.23409245700941
 21
-79.897034636282896
 31
0.0
  0
LINE
  5
1DC
  8
DETAIL
  6
CONTINUOUS
 62
     5
 10
27.23409245700941
 20
-79.897034636282896
 30
0.0
 11
27.338369807035061
 21
-79.824262323396297
 31
0.0
  0
LINE
  5
1DD
  8
DETAIL
  6
CONTINUOUS
 62
     5
 10
27.338369807035061
 20
-79.824262323396297
 30
0.0
 11
27.432737677998489
 21
-79.738230913630261
 31
0.0
  0
LINE
  5
1DE
  8
DETAIL
  6
CONTINUOUS
 62
     5
 10
27.432737677998489
 20
-79.738230913630261
 30
0.0
 11
27.51552482058878
 21
-79.64051058097516
 31
0.0
  0
LINE
  5
1DF
  8
DETAIL
  6
CONTINUOUS
 62
     5
 10
27.585357507105201
 20
-79.532657009760854
 30
0.0
 11
27.64112900587304
 21
-79.416474179562812
 31
0.0
  0
LINE
  5
1E0
  8
DETAIL
  6
CONTINUOUS
 62
     5
 10
27.64112900587304
 20
-79.416474179562812
 30
0.0
 11
27.68187284775831
 21
-79.293889137529362
 31
0.0
  0
LINE
  5
1E1
  8
DETAIL
  6
CONTINUOUS
 62
     5
 10
27.68187284775831
 20
-79.293889137529362
 30
0.0
 11
27.707164243829311
 21
-79.166656908569152
 31
0.0
  0
LINE
  5
1E2
  8
DETAIL
  6
CONTINUOUS
 62
     5
 10
27.707164243829311
 20
-79.166656908569152
 30
0.0
 11
27.715909773908042
 21
-79.037695657618443
 31
0.0
  0
LINE
  5
1E3
  8
DETAIL
  6
CONTINUOUS
 62
     5
 10
27.51552482058878
 20
-79.64051058097516
 30
0.0
 11
27.585357507105201
 21
-79.532657009760854
 31
0.0
  0
LINE
  5
1E4
  8
DETAIL
  6
CONTINUOUS
 62
     5
 10
28.889873726828451
 20
-79.998870178306191
 30
0.0
 11
0.51192574001675
 21
-80.494209103002433
 31
0.0
  0
ARC
  5
1E5
  8
DETAIL
  6
CONTINUOUS
 62
     5
 10
28.872311556733621
 20
-78.99273413099823
 30
0.0
 40
1.0062893100000561
 50
271.00000000000182
 51
359.55018409019789
  0
ARC
  5
1E6
  8
DETAIL
  6
CONTINUOUS
 62
     5
 10
-10032.7044207
 20
0.0
 30
0.0
 40
10062.893099999999
 50
359.55018409010017
 51
359.63366406669962
  0
LINE
  5
1E7
  8
DETAIL
  6
CONTINUOUS
 62
     5
 10
29.98299309786626
 20
-64.339367574124523
 30
0.0
 11
29.984566531026299
 21
-64.092809939564461
 31
0.0
  0
LINE
  5
1E8
  8
DETAIL
  6
CONTINUOUS
 62
     5
 10
28.026382217841729
 20
0.0000000898637893
 30
0.0
 11
27.991885496471021
 21
-26.34593619376243
 31
0.0
  0
LINE
  5
1E9
  8
DETAIL
  6
CONTINUOUS
 62
     5
 10
27.888394844006712
 20
52.691875342600518
 30
0.0
 11
27.991885496169061
 21
26.345936353565431
 31
0.0
  0
LINE
  5
1EA
  8
DETAIL
  6
CONTINUOUS
 62
     5
 10
27.991885496169061
 20
26.345936353565431
 30
0.0
 11
28.026382217841729
 21
0.0000000898637893
 31
0.0
  0
LINE
  5
1EB
  8
DETAIL
  6
CONTINUOUS
 62
     5
 10
27.715909773505359
 20
79.037695657924672
 30
0.0
 11
27.888394844006712
 21
52.691875342600518
 31
0.0
  0
LINE
  5
1EC
  8
DETAIL
  6
CONTINUOUS
 62
     5
 10
26.753373575131949
 20
80.036162927256427
 30
0.0
 11
26.879381263108598
 21
80.025556101073619
 31
0.0
  0
LINE
  5
1ED
  8
DETAIL
  6
CONTINUOUS
 62
     5
 10
26.879381263108598
 20
80.025556101073619
 30
0.0
 11
27.002542380614951
 21
79.99858014409395
 31
0.0
  0
LINE
  5
1EE
  8
DETAIL
  6
CONTINUOUS
 62
     5
 10
27.002542380614951
 20
79.99858014409395
 30
0.0
 11
27.121257832503151
 21
79.955586341751896
 31
0.0
  0
LINE
  5
1EF
  8
DETAIL
  6
CONTINUOUS
 62
     5
 10
27.121257832503151
 20
79.955586341751896
 30
0.0
 11
27.23409537534906
 21
79.897032870148834
 31
0.0
  0
LINE
  5
1F0
  8
DETAIL
  6
CONTINUOUS
 62
     5
 10
27.23409537534906
 20
79.897032870148834
 30
0.0
 11
27.338372778204871
 21
79.824259950067301
 31
0.0
  0
LINE
  5
1F1
  8
DETAIL
  6
CONTINUOUS
 62
     5
 10
27.338372778204871
 20
79.824259950067301
 30
0.0
 11
27.43274041409904
 21
79.73822807509373
 31
0.0
  0
LINE
  5
1F2
  8
DETAIL
  6
CONTINUOUS
 62
     5
 10
27.43274041409904
 20
79.73822807509373
 30
0.0
 11
27.515527093594979
 21
79.640507521658847
 31
0.0
  0
LINE
  5
1F3
  8
DETAIL
  6
CONTINUOUS
 62
     5
 10
27.515527093594979
 20
79.640507521658847
 30
0.0
 11
27.58535918136943
 21
79.532654023199143
 31
0.0
  0
LINE
  5
1F4
  8
DETAIL
  6
CONTINUOUS
 62
     5
 10
27.58535918136943
 20
79.532654023199143
 30
0.0
 11
27.641130055030199
 21
79.416471586258965
 31
0.0
  0
LINE
  5
1F5
  8
DETAIL
  6
CONTINUOUS
 62
     5
 10
27.641130055030199
 20
79.416471586258965
 30
0.0
 11
27.681873352915431
 21
79.293887221055655
 31
0.0
  0
LINE
  5
1F6
  8
DETAIL
  6
CONTINUOUS
 62
     5
 10
27.681873352915431
 20
79.293887221055655
 30
0.0
 11
27.707164377967501
 21
79.166655865453976
 31
0.0
  0
LINE
  5
1F7
  8
DETAIL
  6
CONTINUOUS
 62
     5
 10
27.707164377967501
 20
79.166655865453976
 30
0.0
 11
27.715909773505359
 21
79.037695657924672
 31
0.0
  0
LINE
  5
1F8
  8
DETAIL
  6
CONTINUOUS
 62
     5
 10
28.889873726828451
 20
79.998870178406733
 30
0.0
 11
0.5119257399970821
 21
80.494209102977464
 31
0.0
  0
LINE
  5
1F9
  8
DETAIL
  6
CONTINUOUS
 62
     5
 10
0.0
 20
0.0
 30
0.0
 11
0.0
 21
-79.991141079370493
 31
0.0
  0
ARC
  5
1FA
  8
DETAIL
  6
CONTINUOUS
 62
     5
 10
0.5031446550000283
 20
79.991132038417817
 30
0.0
 40
0.5031446550000021
 50
89.00001796619145
 51
179.99897045679859
  0
ARC
  5
1FB
  8
DETAIL
  6
CONTINUOUS
 62
     5
 10
28.872311556733621
 20
78.992734131098786
 30
0.0
 40
1.0062893100000141
 50
0.4517529808040189
 51
88.999999999998224
  0
LINE
  5
1FC
  8
DETAIL
  6
CONTINUOUS
 62
     5
 10
15.09433965000005
 20
-84.025157384999986
 30
0.0
 11
15.09433965000005
 21
-80.751675842027737
 31
0.0
  0
LINE
  5
1FD
  8
DETAIL
  6
CONTINUOUS
 62
     5
 10
17.106918270000051
 20
-80.698981306216666
 30
0.0
 11
17.106918270000051
 21
-85.057793962771044
 31
0.0
  0
ARC
  5
1FE
  8
DETAIL
  6
CONTINUOUS
 62
     5
 10
17.610062924999969
 20
-80.698981306216666
 30
0.0
 40
0.5031446550000001
 50
91.000000000001776
 51
180.0
  0
ARC
  5
1FF
  8
DETAIL
  6
CONTINUOUS
 62
     5
 10
14.903144681100001
 20
-84.615467909944158
 30
0.0
 40
0.4125786171000342
 50
180.0
 51
268.9999999999917
  0
ARC
  5
200
  8
DETAIL
  6
CONTINUOUS
 62
     5
 10
14.903144681100001
 20
-84.441136169955286
 30
0.0
 40
0.4125786170999679
 50
91.000000000008285
 51
180.0
  0
LINE
  5
201
  8
DETAIL
  6
CONTINUOUS
 62
     5
 10
14.49056606400006
 20
-84.615467909944158
 30
0.0
 11
14.49056606400006
 21
-84.441136169955286
 31
0.0
  0
LINE
  5
202
  8
DETAIL
  6
CONTINUOUS
 62
     5
 10
14.895944191325951
 20
-84.028620390591186
 30
0.0
 11
15.09433965000005
 21
-84.025157384999986
 31
0.0
  0
ARC
  5
203
  8
DETAIL
  6
CONTINUOUS
 62
     5
 10
15.59748430499997
 20
-85.040152474537805
 30
0.0
 40
0.5031446550000061
 50
180.0
 51
268.99999999999818
  0
ARC
  5
204
  8
DETAIL
  6
CONTINUOUS
 62
     5
 10
16.603773615000019
 20
-85.057793962771044
 30
0.0
 40
0.5031446550000001
 50
270.0
 51
0.000000000000007
  0
LINE
  5
205
  8
DETAIL
  6
CONTINUOUS
 62
     5
 10
15.09433965000005
 20
-85.040152474537805
 30
0.0
 11
15.09433965000005
 21
-85.031446695000014
 31
0.0
  0
LINE
  5
206
  8
DETAIL
  6
CONTINUOUS
 62
     5
 10
14.895944191325951
 20
-85.027983689308243
 30
0.0
 11
15.09433965000005
 21
-85.031446695000014
 31
0.0
  0
LINE
  5
207
  8
DETAIL
  6
CONTINUOUS
 62
     5
 10
15.5887032199023
 20
-85.543220498191815
 30
0.0
 11
16.603773615000019
 21
-85.560938617771043
 31
0.0
  0
LINE
  5
208
  8
DETAIL
  6
CONTINUOUS
 62
     5
 10
0.0
 20
0.0
 30
0.0
 11
0.0
 21
77.676675667329945
 31
0.0
  0
LINE
  5
209
  8
DETAIL
  6
CONTINUOUS
 62
     5
 10
0.0
 20
79.991141079424139
 30
0.0
 11
0.0
 21
0.0
 31
0.0
  0
ARC
  5
20A
  8
DETAIL
  6
CONTINUOUS
 62
     5
 10
0.5031446550000283
 20
-79.991141079370436
 30
0.0
 40
0.5031446550000021
 50
180.00000000000159
 51
271.00000000011238
  0
ARC
  5
20B
  8
DETAIL
  6
CONTINUOUS
 62
     5
 10
14.59119499500002
 20
-80.751675842027737
 30
0.0
 40
0.5031446550000041
 50
0.000000000000007
 51
91.000000000119016
  0
LINE
  5
20C
  8
DETAIL
  6
CONTINUOUS
 62
     5
 10
-30.645368499094388
 20
-47.860619911730822
 30
0.0
 11
-1.6428205667793909
 21
-48.113721313172071
 31
0.0
  0
LINE
  5
20D
  8
DETAIL
  6
CONTINUOUS
 62
     5
 10
-59.672956082915562
 20
16.074489263680011
 30
0.0
 11
-59.672956082915562
 21
24.286305035809871
 31
0.0
  0
LINE
  5
20E
  8
DETAIL
  6
CONTINUOUS
 62
     5
 10
-37.689393669094329
 20
31.52642674431058
 30
0.0
 11
-37.689393669094329
 21
47.799147635594167
 31
0.0
  0
LINE
  5
20F
  8
DETAIL
  6
CONTINUOUS
 62
     5
 10
-59.672956082915562
 20
-47.108527055509597
 30
0.0
 11
-59.672956082915562
 21
-35.993540576636008
 31
0.0
  0
LINE
  5
210
  8
DETAIL
  6
CONTINUOUS
 62
     5
 10
-50.05569337086979
 20
-44.723375376772452
 30
0.0
 11
-42.324795067067832
 21
-44.712851451520741
 31
0.0
  0
LINE
  5
211
  8
DETAIL
  6
CONTINUOUS
 62
     5
 10
-42.324794823344519
 20
-44.712851825960897
 30
0.0
 11
-42.040415927433742
 21
-44.711177464901311
 31
0.0
  0
LINE
  5
212
  8
DETAIL
  6
CONTINUOUS
 62
     5
 10
-42.040415927433742
 20
-44.711177464901311
 30
0.0
 11
-41.624052297799722
 21
-44.704400637417358
 31
0.0
  0
LINE
  5
213
  8
DETAIL
  6
CONTINUOUS
 62
     5
 10
-41.624052297799722
 20
-44.704400637417358
 30
0.0
 11
-41.212456739721453
 21
-44.692377129672302
 31
0.0
  0
LINE
  5
214
  8
DETAIL
  6
CONTINUOUS
 62
     5
 10
-41.212456739721453
 20
-44.692377129672302
 30
0.0
 11
-40.805869332495369
 21
-44.674844187049409
 31
0.0
  0
LINE
  5
215
  8
DETAIL
  6
CONTINUOUS
 62
     5
 10
-40.805869332495369
 20
-44.674844187049409
 30
0.0
 11
-40.405469287795647
 21
-44.651455265749213
 31
0.0
  0
LINE
  5
216
  8
DETAIL
  6
CONTINUOUS
 62
     5
 10
-40.405469287795647
 20
-44.651455265749213
 30
0.0
 11
-40.012764690657249
 21
-44.621779277167207
 31
0.0
  0
LINE
  5
217
  8
DETAIL
  6
CONTINUOUS
 62
     5
 10
-40.012764690657249
 20
-44.621779277167207
 30
0.0
 11
-39.629359013686781
 21
-44.585310090182993
 31
0.0
  0
LINE
  5
218
  8
DETAIL
  6
CONTINUOUS
 62
     5
 10
-39.629359013686781
 20
-44.585310090182993
 30
0.0
 11
-39.257045936183097
 21
-44.541493789021928
 31
0.0
  0
LINE
  5
219
  8
DETAIL
  6
CONTINUOUS
 62
     5
 10
-39.257045936183097
 20
-44.541493789021928
 30
0.0
 11
-38.897228693166987
 21
-44.489680308475329
 31
0.0
  0
LINE
  5
21A
  8
DETAIL
  6
CONTINUOUS
 62
     5
 10
-38.897228693166987
 20
-44.489680308475329
 30
0.0
 11
-38.552761405499609
 21
-44.429451348466962
 31
0.0
  0
LINE
  5
21B
  8
DETAIL
  6
CONTINUOUS
 62
     5
 10
-38.552761405499609
 20
-44.429451348466962
 30
0.0
 11
-38.225348881837697
 21
-44.360372310253879
 31
0.0
  0
LINE
  5
21C
  8
DETAIL
  6
CONTINUOUS
 62
     5
 10
-38.225348881837697
 20
-44.360372310253879
 30
0.0
 11
-37.916802007920978
 21
-44.282267309559138
 31
0.0
  0
LINE
  5
21D
  8
DETAIL
  6
CONTINUOUS
 62
     5
 10
-37.916802007920978
 20
-44.282267309559138
 30
0.0
 11
-37.689393669094329
 21
-44.213673587372057
 31
0.0
  0
LINE
  5
21E
  8
DETAIL
  6
CONTINUOUS
 62
     5
 10
-38.8773105347409
 20
11.933733915394701
 30
0.0
 11
-38.87706421826249
 21
11.933527462060979
 31
0.0
  0
LINE
  5
21F
  8
DETAIL
  6
CONTINUOUS
 62
     5
 10
-38.877169675973292
 20
11.933587387193141
 30
0.0
 11
-38.99393600614701
 21
12.0291835141586
 31
0.0
  0
LINE
  5
220
  8
DETAIL
  6
CONTINUOUS
 62
     5
 10
-38.99393600614701
 20
12.0291835141586
 30
0.0
 11
-39.340873623781249
 21
12.28743987548134
 31
0.0
  0
LINE
  5
221
  8
DETAIL
  6
CONTINUOUS
 62
     5
 10
-39.340873623781249
 20
12.28743987548134
 30
0.0
 11
-39.699217308153038
 21
12.517117144827781
 31
0.0
  0
LINE
  5
222
  8
DETAIL
  6
CONTINUOUS
 62
     5
 10
-39.699217308153038
 20
12.517117144827781
 30
0.0
 11
-40.067207485825172
 21
12.717787093266409
 31
0.0
  0
LINE
  5
223
  8
DETAIL
  6
CONTINUOUS
 62
     5
 10
-40.067207485825172
 20
12.717787093266409
 30
0.0
 11
-40.442993553423321
 21
12.889186749727539
 31
0.0
  0
LINE
  5
224
  8
DETAIL
  6
CONTINUOUS
 62
     5
 10
-40.442993553423321
 20
12.889186749727539
 30
0.0
 11
-40.824520197937879
 21
13.03135138294077
 31
0.0
  0
LINE
  5
225
  8
DETAIL
  6
CONTINUOUS
 62
     5
 10
-40.824520197937879
 20
13.03135138294077
 30
0.0
 11
-41.209791395012402
 21
13.14443850827746
 31
0.0
  0
LINE
  5
226
  8
DETAIL
  6
CONTINUOUS
 62
     5
 10
-41.209791395012402
 20
13.14443850827746
 30
0.0
 11
-41.596811330303908
 21
13.2288505037007
 31
0.0
  0
LINE
  5
227
  8
DETAIL
  6
CONTINUOUS
 62
     5
 10
-41.596811330303908
 20
13.2288505037007
 30
0.0
 11
-41.98378941704209
 21
13.28508607039366
 31
0.0
  0
LINE
  5
228
  8
DETAIL
  6
CONTINUOUS
 62
     5
 10
-41.98378941704209
 20
13.28508607039366
 30
0.0
 11
-42.241009172174238
 21
13.30726062650932
 31
0.0
  0
LINE
  5
229
  8
DETAIL
  6
CONTINUOUS
 62
     5
 10
-37.882992135658696
 20
10.27261071953323
 30
0.0
 11
-37.882438425871442
 21
10.27060856214595
 31
0.0
  0
LINE
  5
22A
  8
DETAIL
  6
CONTINUOUS
 62
     5
 10
-37.882437547078887
 20
10.27060538357992
 30
0.0
 11
-37.936342456560183
 21
10.44922570269561
 31
0.0
  0
LINE
  5
22B
  8
DETAIL
  6
CONTINUOUS
 62
     5
 10
-37.936342456560183
 20
10.44922570269561
 30
0.0
 11
-38.022928558352078
 21
10.68713644325193
 31
0.0
  0
LINE
  5
22C
  8
DETAIL
  6
CONTINUOUS
 62
     5
 10
-38.022928558352078
 20
10.68713644325193
 30
0.0
 11
-38.119802719332469
 21
10.90805924616747
 31
0.0
  0
LINE
  5
22D
  8
DETAIL
  6
CONTINUOUS
 62
     5
 10
-38.119802719332469
 20
10.90805924616747
 30
0.0
 11
-38.224041410036762
 21
11.110317497200191
 31
0.0
  0
LINE
  5
22E
  8
DETAIL
  6
CONTINUOUS
 62
     5
 10
-38.224041410036762
 20
11.110317497200191
 30
0.0
 11
-38.332561488824361
 21
11.29269727181952
 31
0.0
  0
LINE
  5
22F
  8
DETAIL
  6
CONTINUOUS
 62
     5
 10
-38.332561488824361
 20
11.29269727181952
 30
0.0
 11
-38.441811985022241
 21
11.453880665821901
 31
0.0
  0
LINE
  5
230
  8
DETAIL
  6
CONTINUOUS
 62
     5
 10
-38.441811985022241
 20
11.453880665821901
 30
0.0
 11
-38.54801052045957
 21
11.59290998723073
 31
0.0
  0
LINE
  5
231
  8
DETAIL
  6
CONTINUOUS
 62
     5
 10
-38.54801052045957
 20
11.59290998723073
 30
0.0
 11
-38.647883126829022
 21
11.709948773153201
 31
0.0
  0
LINE
  5
232
  8
DETAIL
  6
CONTINUOUS
 62
     5
 10
-38.647883126829022
 20
11.709948773153201
 30
0.0
 11
-38.737831967847107
 21
11.80501426987874
 31
0.0
  0
LINE
  5
233
  8
DETAIL
  6
CONTINUOUS
 62
     5
 10
-38.737831967847107
 20
11.80501426987874
 30
0.0
 11
-38.815727448642171
 21
11.87974053486931
 31
0.0
  0
LINE
  5
234
  8
DETAIL
  6
CONTINUOUS
 62
     5
 10
-38.815727448642171
 20
11.87974053486931
 30
0.0
 11
-38.877398911294677
 21
11.93380795977218
 31
0.0
  0
LINE
  5
235
  8
DETAIL
  6
CONTINUOUS
 62
     5
 10
-57.872480324487448
 20
14.28514383180095
 30
0.0
 11
-58.069527680517133
 21
14.314054344155149
 31
0.0
  0
LINE
  5
236
  8
DETAIL
  6
CONTINUOUS
 62
     5
 10
-58.069527680517133
 20
14.314054344155149
 30
0.0
 11
-58.262330768765423
 21
14.361385417951469
 31
0.0
  0
LINE
  5
237
  8
DETAIL
  6
CONTINUOUS
 62
     5
 10
-58.262330768765423
 20
14.361385417951469
 30
0.0
 11
-58.449094286285572
 21
14.42661846340293
 31
0.0
  0
LINE
  5
238
  8
DETAIL
  6
CONTINUOUS
 62
     5
 10
-58.449094286285572
 20
14.42661846340293
 30
0.0
 11
-58.628060702206973
 21
14.50906705494833
 31
0.0
  0
LINE
  5
239
  8
DETAIL
  6
CONTINUOUS
 62
     5
 10
-58.628060702206973
 20
14.50906705494833
 30
0.0
 11
-58.797498111318873
 21
14.607900051856751
 31
0.0
  0
LINE
  5
23A
  8
DETAIL
  6
CONTINUOUS
 62
     5
 10
-58.797498111318873
 20
14.607900051856751
 30
0.0
 11
-58.95579976272461
 21
14.72211684441565
 31
0.0
  0
LINE
  5
23B
  8
DETAIL
  6
CONTINUOUS
 62
     5
 10
-58.95579976272461
 20
14.72211684441565
 30
0.0
 11
-59.101418751063761
 21
14.850577122484591
 31
0.0
  0
LINE
  5
23C
  8
DETAIL
  6
CONTINUOUS
 62
     5
 10
-59.101418751063761
 20
14.850577122484591
 30
0.0
 11
-59.232952234370941
 21
14.99196389959582
 31
0.0
  0
LINE
  5
23D
  8
DETAIL
  6
CONTINUOUS
 62
     5
 10
-59.232952234370941
 20
14.99196389959582
 30
0.0
 11
-59.349127692392599
 21
15.14489493534427
 31
0.0
  0
LINE
  5
23E
  8
DETAIL
  6
CONTINUOUS
 62
     5
 10
-59.349127692392599
 20
15.14489493534427
 30
0.0
 11
-59.448836788723838
 21
15.307833803966179
 31
0.0
  0
LINE
  5
23F
  8
DETAIL
  6
CONTINUOUS
 62
     5
 10
-59.448836788723838
 20
15.307833803966179
 30
0.0
 11
-59.531106472696713
 21
15.4791891956725
 31
0.0
  0
LINE
  5
240
  8
DETAIL
  6
CONTINUOUS
 62
     5
 10
-59.531106472696713
 20
15.4791891956725
 30
0.0
 11
-59.595158183001217
 21
15.65724631991924
 31
0.0
  0
LINE
  5
241
  8
DETAIL
  6
CONTINUOUS
 62
     5
 10
-59.595158183001217
 20
15.65724631991924
 30
0.0
 11
-59.640350827108357
 21
15.84023800779759
 31
0.0
  0
LINE
  5
242
  8
DETAIL
  6
CONTINUOUS
 62
     5
 10
-59.640350827108357
 20
15.84023800779759
 30
0.0
 11
-59.666259062526017
 21
16.026374768084139
 31
0.0
  0
LINE
  5
243
  8
DETAIL
  6
CONTINUOUS
 62
     5
 10
-59.666259062526017
 20
16.026374768084139
 30
0.0
 11
-59.67294565584632
 21
16.18128367050284
 31
0.0
  0
LINE
  5
244
  8
DETAIL
  6
CONTINUOUS
 62
     5
 10
-57.796546629456991
 20
14.2790423075635
 30
0.0
 11
-57.872480324487448
 21
14.28514383180095
 31
0.0
  0
LINE
  5
245
  8
DETAIL
  6
CONTINUOUS
 62
     5
 10
-42.241007949331447
 20
13.30727544583007
 30
0.0
 11
-55.29569859232744
 21
14.12337960801139
 31
0.0
  0
LINE
  5
246
  8
DETAIL
  6
CONTINUOUS
 62
     5
 10
-55.29569859232744
 20
14.12337960801139
 30
0.0
 11
-57.796547491846923
 21
14.27902993121134
 31
0.0
  0
LINE
  5
247
  8
DETAIL
  6
CONTINUOUS
 62
     5
 10
-37.689396068188771
 20
-45.597918177650683
 30
0.0
 11
-37.689379322326999
 21
-45.597107967435392
 31
0.0
  0
LINE
  5
248
  8
DETAIL
  6
CONTINUOUS
 62
     5
 10
-37.691456059337163
 20
34.018422611461801
 30
0.0
 11
-37.689380859333482
 21
34.157830366581997
 31
0.0
  0
LINE
  5
249
  8
DETAIL
  6
CONTINUOUS
 62
     5
 10
-37.689393669094329
 20
-47.799147635347502
 30
0.0
 11
-37.689393669094329
 21
8.8321260168509337
 31
0.0
  0
LINE
  5
24A
  8
DETAIL
  6
CONTINUOUS
 62
     5
 10
-37.735849124977108
 20
44.600736616927023
 30
0.0
 11
-37.735849124977108
 21
42.540920019790548
 31
0.0
  0
LINE
  5
24B
  8
DETAIL
  6
CONTINUOUS
 62
     5
 10
-37.689392634629137
 20
8.8320936966496042
 30
0.0
 11
-37.692828156044143
 21
9.0266328941840328
 31
0.0
  0
LINE
  5
24C
  8
DETAIL
  6
CONTINUOUS
 62
     5
 10
-37.692828156044143
 20
9.0266328941840328
 30
0.0
 11
-37.712008890166771
 21
9.3306678868349149
 31
0.0
  0
LINE
  5
24D
  8
DETAIL
  6
CONTINUOUS
 62
     5
 10
-37.712008890166771
 20
9.3306678868349149
 30
0.0
 11
-37.747736445854123
 21
9.6308586700699834
 31
0.0
  0
LINE
  5
24E
  8
DETAIL
  6
CONTINUOUS
 62
     5
 10
-37.747736445854123
 20
9.6308586700699834
 30
0.0
 11
-37.799736914577117
 21
9.9263942797620182
 31
0.0
  0
LINE
  5
24F
  8
DETAIL
  6
CONTINUOUS
 62
     5
 10
-37.799736914577117
 20
9.9263942797620182
 30
0.0
 11
-37.867802999631188
 21
10.21651573789711
 31
0.0
  0
LINE
  5
250
  8
DETAIL
  6
CONTINUOUS
 62
     5
 10
-37.867802999631188
 20
10.21651573789711
 30
0.0
 11
-37.882990936262317
 21
10.27260665563379
 31
0.0
  0
LINE
  5
251
  8
DETAIL
  6
CONTINUOUS
 62
     5
 10
-59.664174995000273
 20
-45.131195943749447
 30
0.0
 11
-59.647851298266232
 21
-45.081559792615607
 31
0.0
  0
LINE
  5
252
  8
DETAIL
  6
CONTINUOUS
 62
     5
 10
-59.647851298266232
 20
-45.081559792615607
 30
0.0
 11
-59.624142326953113
 21
-45.035932770948151
 31
0.0
  0
LINE
  5
253
  8
DETAIL
  6
CONTINUOUS
 62
     5
 10
-59.624142326953113
 20
-45.035932770948151
 30
0.0
 11
-59.594603833415363
 21
-44.995770620636513
 31
0.0
  0
LINE
  5
254
  8
DETAIL
  6
CONTINUOUS
 62
     5
 10
-59.594603833415363
 20
-44.995770620636513
 30
0.0
 11
-59.561538419820728
 21
-44.962203056198383
 31
0.0
  0
LINE
  5
255
  8
DETAIL
  6
CONTINUOUS
 62
     5
 10
-59.561538419820728
 20
-44.962203056198383
 30
0.0
 11
-59.527805082904372
 21
-44.935676640150341
 31
0.0
  0
LINE
  5
256
  8
DETAIL
  6
CONTINUOUS
 62
     5
 10
-59.527805082904372
 20
-44.935676640150341
 30
0.0
 11
-59.494165207623503
 21
-44.914601888716007
 31
0.0
  0
LINE
  5
257
  8
DETAIL
  6
CONTINUOUS
 62
     5
 10
-59.494165207623503
 20
-44.914601888716007
 30
0.0
 11
-59.461772625526919
 21
-44.898028345340073
 31
0.0
  0
LINE
  5
258
  8
DETAIL
  6
CONTINUOUS
 62
     5
 10
-59.461772625526919
 20
-44.898028345340073
 30
0.0
 11
-59.429660245293007
 21
-44.884294025717793
 31
0.0
  0
LINE
  5
259
  8
DETAIL
  6
CONTINUOUS
 62
     5
 10
-59.429660245293007
 20
-44.884294025717793
 30
0.0
 11
-59.39699279315834
 21
-44.872395092664718
 31
0.0
  0
LINE
  5
25A
  8
DETAIL
  6
CONTINUOUS
 62
     5
 10
-59.39699279315834
 20
-44.872395092664718
 30
0.0
 11
-59.362981556065392
 21
-44.861679409727167
 31
0.0
  0
LINE
  5
25B
  8
DETAIL
  6
CONTINUOUS
 62
     5
 10
-59.362981556065392
 20
-44.861679409727167
 30
0.0
 11
-59.326627586288737
 21
-44.851649030136713
 31
0.0
  0
LINE
  5
25C
  8
DETAIL
  6
CONTINUOUS
 62
     5
 10
-59.326627586288737
 20
-44.851649030136713
 30
0.0
 11
-59.287489285438021
 21
-44.842100570547039
 31
0.0
  0
LINE
  5
25D
  8
DETAIL
  6
CONTINUOUS
 62
     5
 10
-59.287489285438021
 20
-44.842100570547039
 30
0.0
 11
-59.244961046769838
 21
-44.832857150957999
 31
0.0
  0
LINE
  5
25E
  8
DETAIL
  6
CONTINUOUS
 62
     5
 10
-59.244961046769838
 20
-44.832857150957999
 30
0.0
 11
-59.198706916673807
 21
-44.823851349482567
 31
0.0
  0
LINE
  5
25F
  8
DETAIL
  6
CONTINUOUS
 62
     5
 10
-59.198706916673807
 20
-44.823851349482567
 30
0.0
 11
-59.148333008456788
 21
-44.815028985894322
 31
0.0
  0
LINE
  5
260
  8
DETAIL
  6
CONTINUOUS
 62
     5
 10
-59.148333008456788
 20
-44.815028985894322
 30
0.0
 11
-59.093660120307391
 21
-44.806393132092488
 31
0.0
  0
LINE
  5
261
  8
DETAIL
  6
CONTINUOUS
 62
     5
 10
-59.093660120307391
 20
-44.806393132092488
 30
0.0
 11
-59.034475221986547
 21
-44.797952187574111
 31
0.0
  0
LINE
  5
262
  8
DETAIL
  6
CONTINUOUS
 62
     5
 10
-59.034475221986547
 20
-44.797952187574111
 30
0.0
 11
-58.970721954248447
 21
-44.789743448741632
 31
0.0
  0
LINE
  5
263
  8
DETAIL
  6
CONTINUOUS
 62
     5
 10
-58.970721954248447
 20
-44.789743448741632
 30
0.0
 11
-58.902382191709748
 21
-44.7818086652304
 31
0.0
  0
LINE
  5
264
  8
DETAIL
  6
CONTINUOUS
 62
     5
 10
-58.902382191709748
 20
-44.7818086652304
 30
0.0
 11
-58.829476434093628
 21
-44.774196667631713
 31
0.0
  0
LINE
  5
265
  8
DETAIL
  6
CONTINUOUS
 62
     5
 10
-58.829476434093628
 20
-44.774196667631713
 30
0.0
 11
-58.752064332318341
 21
-44.766961554863911
 31
0.0
  0
LINE
  5
266
  8
DETAIL
  6
CONTINUOUS
 62
     5
 10
-58.752064332318341
 20
-44.766961554863911
 30
0.0
 11
-58.670272556773959
 21
-44.760159588361027
 31
0.0
  0
LINE
  5
267
  8
DETAIL
  6
CONTINUOUS
 62
     5
 10
-58.670272556773959
 20
-44.760159588361027
 30
0.0
 11
-58.584263083611958
 21
-44.753849179594901
 31
0.0
  0
LINE
  5
268
  8
DETAIL
  6
CONTINUOUS
 62
     5
 10
-58.584263083611958
 20
-44.753849179594901
 30
0.0
 11
-58.494251896631447
 21
-44.748092134351779
 31
0.0
  0
LINE
  5
269
  8
DETAIL
  6
CONTINUOUS
 62
     5
 10
-58.494251896631447
 20
-44.748092134351779
 30
0.0
 11
-58.400506200965083
 21
-44.742945517386488
 31
0.0
  0
LINE
  5
26A
  8
DETAIL
  6
CONTINUOUS
 62
     5
 10
-58.400506200965083
 20
-44.742945517386488
 30
0.0
 11
-58.303342659959071
 21
-44.738465001956989
 31
0.0
  0
LINE
  5
26B
  8
DETAIL
  6
CONTINUOUS
 62
     5
 10
-58.303342659959071
 20
-44.738465001956989
 30
0.0
 11
-58.203104750243028
 21
-44.734705387258373
 31
0.0
  0
LINE
  5
26C
  8
DETAIL
  6
CONTINUOUS
 62
     5
 10
-58.203104750243028
 20
-44.734705387258373
 30
0.0
 11
-58.100175932044181
 21
-44.731712682649139
 31
0.0
  0
LINE
  5
26D
  8
DETAIL
  6
CONTINUOUS
 62
     5
 10
-58.100175932044181
 20
-44.731712682649139
 30
0.0
 11
-57.994964102621012
 21
-44.729527476406247
 31
0.0
  0
LINE
  5
26E
  8
DETAIL
  6
CONTINUOUS
 62
     5
 10
-57.994964102621012
 20
-44.729527476406247
 30
0.0
 11
-57.887909656037323
 21
-44.728187103171109
 31
0.0
  0
LINE
  5
26F
  8
DETAIL
  6
CONTINUOUS
 62
     5
 10
-57.887909656037323
 20
-44.728187103171109
 30
0.0
 11
-50.05569337086979
 21
-44.723375376772452
 31
0.0
  0
LINE
  5
270
  8
DETAIL
  6
CONTINUOUS
 62
     5
 10
-37.880120559804467
 20
32.833090282473918
 30
0.0
 11
-37.814511012314483
 21
33.070208701519427
 31
0.0
  0
LINE
  5
271
  8
DETAIL
  6
CONTINUOUS
 62
     5
 10
-37.852043184961083
 20
30.30259177464929
 30
0.0
 11
-37.81720501735083
 21
30.43819881972485
 31
0.0
  0
LINE
  5
272
  8
DETAIL
  6
CONTINUOUS
 62
     5
 10
-37.81720501735083
 20
30.43819881972485
 30
0.0
 11
-37.769265033968509
 21
30.66306457791795
 31
0.0
  0
LINE
  5
273
  8
DETAIL
  6
CONTINUOUS
 62
     5
 10
-37.769265033968509
 20
30.66306457791795
 30
0.0
 11
-37.732106885976798
 21
30.893887106536919
 31
0.0
  0
LINE
  5
274
  8
DETAIL
  6
CONTINUOUS
 62
     5
 10
-37.732106885976798
 20
30.893887106536919
 30
0.0
 11
-37.706193132772569
 21
31.13002128165607
 31
0.0
  0
LINE
  5
275
  8
DETAIL
  6
CONTINUOUS
 62
     5
 10
-37.706193132772569
 20
31.13002128165607
 30
0.0
 11
-37.691977814306711
 21
31.37076875469555
 31
0.0
  0
LINE
  5
276
  8
DETAIL
  6
CONTINUOUS
 62
     5
 10
-37.691977814306711
 20
31.37076875469555
 30
0.0
 11
-37.689379489974947
 21
31.5262305640838
 31
0.0
  0
LINE
  5
277
  8
DETAIL
  6
CONTINUOUS
 62
     5
 10
-37.81447957835212
 20
33.070281968236529
 30
0.0
 11
-37.789117171363053
 21
33.18501505191589
 31
0.0
  0
LINE
  5
278
  8
DETAIL
  6
CONTINUOUS
 62
     5
 10
-37.789117171363053
 20
33.18501505191589
 30
0.0
 11
-37.7515845233454
 21
33.388337182397017
 31
0.0
  0
LINE
  5
279
  8
DETAIL
  6
CONTINUOUS
 62
     5
 10
-37.7515845233454
 20
33.388337182397017
 30
0.0
 11
-37.722630795695522
 21
33.5953842146208
 31
0.0
  0
LINE
  5
27A
  8
DETAIL
  6
CONTINUOUS
 62
     5
 10
-37.722630795695522
 20
33.5953842146208
 30
0.0
 11
-37.702501258048869
 21
33.805604197491789
 31
0.0
  0
LINE
  5
27B
  8
DETAIL
  6
CONTINUOUS
 62
     5
 10
-37.702501258048869
 20
33.805604197491789
 30
0.0
 11
-37.691456059337163
 21
34.018422611461801
 31
0.0
  0
LINE
  5
27C
  8
DETAIL
  6
CONTINUOUS
 62
     5
 10
-50.611910200555712
 20
40.661040209998632
 30
0.0
 11
-50.616350976714671
 21
40.562888668286469
 31
0.0
  0
LINE
  5
27D
  8
DETAIL
  6
CONTINUOUS
 62
     5
 10
-50.616352292940967
 20
40.560822395075157
 30
0.0
 11
-50.616350653293132
 21
40.562888667783298
 31
0.0
  0
LINE
  5
27E
  8
DETAIL
  6
CONTINUOUS
 62
     5
 10
-50.616352292940967
 20
-43.67417808863469
 30
0.0
 11
-50.616352292940967
 21
-34.61669106243216
 31
0.0
  0
LINE
  5
27F
  8
DETAIL
  6
CONTINUOUS
 62
     5
 10
-50.616352292940967
 20
-43.674178004911447
 30
0.0
 11
-50.615832493392752
 21
-43.713787699976777
 31
0.0
  0
LINE
  5
280
  8
DETAIL
  6
CONTINUOUS
 62
     5
 10
-50.615837441317339
 20
-43.713931832102837
 30
0.0
 11
-50.61452215628357
 21
-43.748660530933037
 31
0.0
  0
LINE
  5
281
  8
DETAIL
  6
CONTINUOUS
 62
     5
 10
-50.616352292940967
 20
29.647614041640079
 30
0.0
 11
-42.679543670980479
 21
29.787138713188181
 31
0.0
  0
LINE
  5
282
  8
DETAIL
  6
CONTINUOUS
 62
     5
 10
-42.679543745848477
 20
29.78714275645855
 30
0.0
 11
-42.415214213998873
 21
29.79744621086715
 31
0.0
  0
LINE
  5
283
  8
DETAIL
  6
CONTINUOUS
 62
     5
 10
-42.415214213998873
 20
29.79744621086715
 30
0.0
 11
-42.027444134907221
 21
29.83315759548525
 31
0.0
  0
LINE
  5
284
  8
DETAIL
  6
CONTINUOUS
 62
     5
 10
-42.027444134907221
 20
29.83315759548525
 30
0.0
 11
-41.645326788505031
 21
29.892889865077649
 31
0.0
  0
LINE
  5
285
  8
DETAIL
  6
CONTINUOUS
 62
     5
 10
-41.645326788505031
 20
29.892889865077649
 30
0.0
 11
-41.27025357655566
 21
29.976189490687471
 31
0.0
  0
LINE
  5
286
  8
DETAIL
  6
CONTINUOUS
 62
     5
 10
-41.27025357655566
 20
29.976189490687471
 30
0.0
 11
-40.904003020220088
 21
30.082540911458551
 31
0.0
  0
LINE
  5
287
  8
DETAIL
  6
CONTINUOUS
 62
     5
 10
-40.904003020220088
 20
30.082540911458551
 30
0.0
 11
-40.54843649117413
 21
30.211337437477809
 31
0.0
  0
LINE
  5
288
  8
DETAIL
  6
CONTINUOUS
 62
     5
 10
-40.54843649117413
 20
30.211337437477809
 30
0.0
 11
-40.205384944892891
 21
30.361906787687449
 31
0.0
  0
LINE
  5
289
  8
DETAIL
  6
CONTINUOUS
 62
     5
 10
-40.205384944892891
 20
30.361906787687449
 30
0.0
 11
-39.87676890515354
 21
30.533453093306012
 31
0.0
  0
LINE
  5
28A
  8
DETAIL
  6
CONTINUOUS
 62
     5
 10
-39.87676890515354
 20
30.533453093306012
 30
0.0
 11
-39.564474616789653
 21
30.725077189954721
 31
0.0
  0
LINE
  5
28B
  8
DETAIL
  6
CONTINUOUS
 62
     5
 10
-39.564474616789653
 20
30.725077189954721
 30
0.0
 11
-39.270446524987051
 21
30.935761629480648
 31
0.0
  0
LINE
  5
28C
  8
DETAIL
  6
CONTINUOUS
 62
     5
 10
-39.270446524987051
 20
30.935761629480648
 30
0.0
 11
-38.996570363082697
 21
31.164361137617611
 31
0.0
  0
LINE
  5
28D
  8
DETAIL
  6
CONTINUOUS
 62
     5
 10
-38.996570363082697
 20
31.164361137617611
 30
0.0
 11
-38.744784831557922
 21
31.409597613734331
 31
0.0
  0
LINE
  5
28E
  8
DETAIL
  6
CONTINUOUS
 62
     5
 10
-38.744784831557922
 20
31.409597613734331
 30
0.0
 11
-38.516922621132849
 21
31.670076836646022
 31
0.0
  0
LINE
  5
28F
  8
DETAIL
  6
CONTINUOUS
 62
     5
 10
-38.516922621132849
 20
31.670076836646022
 30
0.0
 11
-38.314838289899171
 21
31.944274426878039
 31
0.0
  0
LINE
  5
290
  8
DETAIL
  6
CONTINUOUS
 62
     5
 10
-38.314838289899171
 20
31.944274426878039
 30
0.0
 11
-38.140259412199612
 21
32.230556724452747
 31
0.0
  0
LINE
  5
291
  8
DETAIL
  6
CONTINUOUS
 62
     5
 10
-38.140259412199612
 20
32.230556724452747
 30
0.0
 11
-37.994857128263668
 21
32.527288021593527
 31
0.0
  0
LINE
  5
292
  8
DETAIL
  6
CONTINUOUS
 62
     5
 10
-37.994857128263668
 20
32.527288021593527
 30
0.0
 11
-37.880120559804467
 21
32.833090282473918
 31
0.0
  0
LINE
  5
293
  8
DETAIL
  6
CONTINUOUS
 62
     5
 10
-57.795255819593073
 20
26.099404699872949
 30
0.0
 11
-42.41840248328765
 21
27.053668196543288
 31
0.0
  0
LINE
  5
294
  8
DETAIL
  6
CONTINUOUS
 62
     5
 10
-42.418402517702702
 20
27.053668978530752
 30
0.0
 11
-42.166029185522682
 21
27.074642349939751
 31
0.0
  0
LINE
  5
295
  8
DETAIL
  6
CONTINUOUS
 62
     5
 10
-42.166029185522682
 20
27.074642349939751
 30
0.0
 11
-41.80189917882592
 21
27.124120576343781
 31
0.0
  0
LINE
  5
296
  8
DETAIL
  6
CONTINUOUS
 62
     5
 10
-41.80189917882592
 20
27.124120576343781
 30
0.0
 11
-41.443790206706467
 21
27.1956042209511
 31
0.0
  0
LINE
  5
297
  8
DETAIL
  6
CONTINUOUS
 62
     5
 10
-41.443790206706467
 20
27.1956042209511
 30
0.0
 11
-41.093081854977299
 21
27.288632359685469
 31
0.0
  0
LINE
  5
298
  8
DETAIL
  6
CONTINUOUS
 62
     5
 10
-41.093081854977299
 20
27.288632359685469
 30
0.0
 11
-40.751386503113743
 21
27.402653581325811
 31
0.0
  0
LINE
  5
299
  8
DETAIL
  6
CONTINUOUS
 62
     5
 10
-40.751386503113743
 20
27.402653581325811
 30
0.0
 11
-40.420301142112073
 21
27.537037037367721
 31
0.0
  0
LINE
  5
29A
  8
DETAIL
  6
CONTINUOUS
 62
     5
 10
-40.420301142112073
 20
27.537037037367721
 30
0.0
 11
-40.101397312402703
 21
27.691070559155929
 31
0.0
  0
LINE
  5
29B
  8
DETAIL
  6
CONTINUOUS
 62
     5
 10
-40.101397312402703
 20
27.691070559155929
 30
0.0
 11
-39.796269801209057
 21
27.863965659343041
 31
0.0
  0
LINE
  5
29C
  8
DETAIL
  6
CONTINUOUS
 62
     5
 10
-39.796269801209057
 20
27.863965659343041
 30
0.0
 11
-39.506464122797752
 21
28.054827606455721
 31
0.0
  0
LINE
  5
29D
  8
DETAIL
  6
CONTINUOUS
 62
     5
 10
-39.506464122797752
 20
28.054827606455721
 30
0.0
 11
-39.23354658097071
 21
28.262687401951329
 31
0.0
  0
LINE
  5
29E
  8
DETAIL
  6
CONTINUOUS
 62
     5
 10
-39.23354658097071
 20
28.262687401951329
 30
0.0
 11
-38.979013011704978
 21
28.486461422280868
 31
0.0
  0
LINE
  5
29F
  8
DETAIL
  6
CONTINUOUS
 62
     5
 10
-38.979013011704978
 20
28.486461422280868
 30
0.0
 11
-38.744364257670213
 21
28.724993506033211
 31
0.0
  0
LINE
  5
2A0
  8
DETAIL
  6
CONTINUOUS
 62
     5
 10
-38.744364257670213
 20
28.724993506033211
 30
0.0
 11
-38.530999835850132
 21
28.977034989860471
 31
0.0
  0
LINE
  5
2A1
  8
DETAIL
  6
CONTINUOUS
 62
     5
 10
-38.530999835850132
 20
28.977034989860471
 30
0.0
 11
-38.340314473391793
 21
29.241255563017901
 31
0.0
  0
LINE
  5
2A2
  8
DETAIL
  6
CONTINUOUS
 62
     5
 10
-38.340314473391793
 20
29.241255563017901
 30
0.0
 11
-38.173585700964402
 21
29.51624719601865
 31
0.0
  0
LINE
  5
2A3
  8
DETAIL
  6
CONTINUOUS
 62
     5
 10
-38.173585700964402
 20
29.51624719601865
 30
0.0
 11
-38.032038713437828
 21
29.80060376860872
 31
0.0
  0
LINE
  5
2A4
  8
DETAIL
  6
CONTINUOUS
 62
     5
 10
-38.032038713437828
 20
29.80060376860872
 30
0.0
 11
-37.916733776071737
 21
30.093098297439951
 31
0.0
  0
LINE
  5
2A5
  8
DETAIL
  6
CONTINUOUS
 62
     5
 10
-37.916733776071737
 20
30.093098297439951
 30
0.0
 11
-37.852075939778729
 21
30.30253284443533
 31
0.0
  0
LINE
  5
2A6
  8
DETAIL
  6
CONTINUOUS
 62
     5
 10
-59.672941618110599
 20
-45.203483002999782
 30
0.0
 11
-59.67210432995806
 21
-45.18214797543915
 31
0.0
  0
LINE
  5
2A7
  8
DETAIL
  6
CONTINUOUS
 62
     5
 10
-59.67210432995806
 20
-45.18214797543915
 30
0.0
 11
-59.664174995000273
 21
-45.131195943749447
 31
0.0
  0
LINE
  5
2A8
  8
DETAIL
  6
CONTINUOUS
 62
     5
 10
-50.61452215628357
 20
-43.748660530933037
 30
0.0
 11
-50.60976811511761
 21
-43.81509883213505
 31
0.0
  0
LINE
  5
2A9
  8
DETAIL
  6
CONTINUOUS
 62
     5
 10
-50.60976811511761
 20
-43.81509883213505
 30
0.0
 11
-50.602189039481352
 21
-43.880528740278599
 31
0.0
  0
LINE
  5
2AA
  8
DETAIL
  6
CONTINUOUS
 62
     5
 10
-50.602189039481352
 20
-43.880528740278599
 30
0.0
 11
-50.59189589973937
 21
-43.944835466835222
 31
0.0
  0
LINE
  5
2AB
  8
DETAIL
  6
CONTINUOUS
 62
     5
 10
-50.59189589973937
 20
-43.944835466835222
 30
0.0
 11
-50.57900297242054
 21
-44.007913139905327
 31
0.0
  0
LINE
  5
2AC
  8
DETAIL
  6
CONTINUOUS
 62
     5
 10
-50.57900297242054
 20
-44.007913139905327
 30
0.0
 11
-50.5636272423801
 21
-44.069664721501368
 31
0.0
  0
LINE
  5
2AD
  8
DETAIL
  6
CONTINUOUS
 62
     5
 10
-50.5636272423801
 20
-44.069664721501368
 30
0.0
 11
-50.545887831731861
 21
-44.130001891120031
 31
0.0
  0
LINE
  5
2AE
  8
DETAIL
  6
CONTINUOUS
 62
     5
 10
-50.545887831731861
 20
-44.130001891120031
 30
0.0
 11
-50.525905446387362
 21
-44.188844921868032
 31
0.0
  0
LINE
  5
2AF
  8
DETAIL
  6
CONTINUOUS
 62
     5
 10
-50.525905446387362
 20
-44.188844921868032
 30
0.0
 11
-50.503801860234383
 21
-44.246122492487373
 31
0.0
  0
LINE
  5
2B0
  8
DETAIL
  6
CONTINUOUS
 62
     5
 10
-50.503801860234383
 20
-44.246122492487373
 30
0.0
 11
-50.479699430001787
 21
-44.301771475430847
 31
0.0
  0
LINE
  5
2B1
  8
DETAIL
  6
CONTINUOUS
 62
     5
 10
-50.479699430001787
 20
-44.301771475430847
 30
0.0
 11
-50.453720615564983
 21
-44.355736759654292
 31
0.0
  0
LINE
  5
2B2
  8
DETAIL
  6
CONTINUOUS
 62
     5
 10
-50.453720615564983
 20
-44.355736759654292
 30
0.0
 11
-50.425987597753647
 21
-44.407970907472048
 31
0.0
  0
LINE
  5
2B3
  8
DETAIL
  6
CONTINUOUS
 62
     5
 10
-50.425987597753647
 20
-44.407970907472048
 30
0.0
 11
-50.39662182904646
 21
-44.458434004116839
 31
0.0
  0
LINE
  5
2B4
  8
DETAIL
  6
CONTINUOUS
 62
     5
 10
-50.39662182904646
 20
-44.458434004116839
 30
0.0
 11
-50.365743660034461
 21
-44.507093375173547
 31
0.0
  0
LINE
  5
2B5
  8
DETAIL
  6
CONTINUOUS
 62
     5
 10
-50.365743660034461
 20
-44.507093375173547
 30
0.0
 11
-50.333471994265537
 21
-44.55392329676765
 31
0.0
  0
LINE
  5
2B6
  8
DETAIL
  6
CONTINUOUS
 62
     5
 10
-50.333471994265537
 20
-44.55392329676765
 30
0.0
 11
-50.299923964720392
 21
-44.598904706761033
 31
0.0
  0
LINE
  5
2B7
  8
DETAIL
  6
CONTINUOUS
 62
     5
 10
-50.299923964720392
 20
-44.598904706761033
 30
0.0
 11
-50.265214638770999
 21
-44.642024906688079
 31
0.0
  0
LINE
  5
2B8
  8
DETAIL
  6
CONTINUOUS
 62
     5
 10
-50.265214638770999
 20
-44.642024906688079
 30
0.0
 11
-50.229456767913803
 21
-44.683277235316211
 31
0.0
  0
LINE
  5
2B9
  8
DETAIL
  6
CONTINUOUS
 62
     5
 10
-50.229456767913803
 20
-44.683277235316211
 30
0.0
 11
-50.192760344199662
 21
-44.722660975563592
 31
0.0
  0
LINE
  5
2BA
  8
DETAIL
  6
CONTINUOUS
 62
     5
 10
-50.192760344199662
 20
-44.722660975563592
 30
0.0
 11
-50.191933262437161
 21
-44.723487882533647
 31
0.0
  0
LINE
  5
2BB
  8
DETAIL
  6
CONTINUOUS
 62
     5
 10
-59.672946863091738
 20
24.287147637876359
 30
0.0
 11
-59.672554752198039
 21
24.322982753513561
 31
0.0
  0
LINE
  5
2BC
  8
DETAIL
  6
CONTINUOUS
 62
     5
 10
-59.672554752198039
 20
24.322982753513561
 30
0.0
 11
-59.660700205358687
 21
24.487986667573139
 31
0.0
  0
LINE
  5
2BD
  8
DETAIL
  6
CONTINUOUS
 62
     5
 10
-59.660700205358687
 20
24.487986667573139
 30
0.0
 11
-59.632356315898718
 21
24.651374126787019
 31
0.0
  0
LINE
  5
2BE
  8
DETAIL
  6
CONTINUOUS
 62
     5
 10
-59.632356315898718
 20
24.651374126787019
 30
0.0
 11
-59.587756331314843
 21
24.811651610649449
 31
0.0
  0
LINE
  5
2BF
  8
DETAIL
  6
CONTINUOUS
 62
     5
 10
-59.587756331314843
 20
24.811651610649449
 30
0.0
 11
-59.527280916362663
 21
24.96744404484328
 31
0.0
  0
LINE
  5
2C0
  8
DETAIL
  6
CONTINUOUS
 62
     5
 10
-59.527280916362663
 20
24.96744404484328
 30
0.0
 11
-59.451462840049317
 21
25.117458543328649
 31
0.0
  0
LINE
  5
2C1
  8
DETAIL
  6
CONTINUOUS
 62
     5
 10
-59.451462840049317
 20
25.117458543328649
 30
0.0
 11
-59.36094311973477
 21
25.26044978876978
 31
0.0
  0
LINE
  5
2C2
  8
DETAIL
  6
CONTINUOUS
 62
     5
 10
-59.36094311973477
 20
25.26044978876978
 30
0.0
 11
-59.25646983793547
 21
25.39529520083774
 31
0.0
  0
LINE
  5
2C3
  8
DETAIL
  6
CONTINUOUS
 62
     5
 10
-59.25646983793547
 20
25.39529520083774
 30
0.0
 11
-59.1388397051943
 21
25.52098022375699
 31
0.0
  0
LINE
  5
2C4
  8
DETAIL
  6
CONTINUOUS
 62
     5
 10
-59.1388397051943
 20
25.52098022375699
 30
0.0
 11
-59.009026117537921
 21
25.636485768016399
 31
0.0
  0
LINE
  5
2C5
  8
DETAIL
  6
CONTINUOUS
 62
     5
 10
-59.009026117537921
 20
25.636485768016399
 30
0.0
 11
-58.868039580427542
 21
25.740914809714781
 31
0.0
  0
LINE
  5
2C6
  8
DETAIL
  6
CONTINUOUS
 62
     5
 10
-58.868039580427542
 20
25.740914809714781
 30
0.0
 11
-58.717020872531748
 21
25.83343062281298
 31
0.0
  0
LINE
  5
2C7
  8
DETAIL
  6
CONTINUOUS
 62
     5
 10
-58.717020872531748
 20
25.83343062281298
 30
0.0
 11
-58.55716795058197
 21
25.913291448215329
 31
0.0
  0
LINE
  5
2C8
  8
DETAIL
  6
CONTINUOUS
 62
     5
 10
-58.55716795058197
 20
25.913291448215329
 30
0.0
 11
-58.389743866455099
 21
25.979867571405091
 31
0.0
  0
LINE
  5
2C9
  8
DETAIL
  6
CONTINUOUS
 62
     5
 10
-58.389743866455099
 20
25.979867571405091
 30
0.0
 11
-58.216081845109329
 21
26.03260228395332
 31
0.0
  0
LINE
  5
2CA
  8
DETAIL
  6
CONTINUOUS
 62
     5
 10
-58.216081845109329
 20
26.03260228395332
 30
0.0
 11
-58.037527852735693
 21
26.07104849242543
 31
0.0
  0
LINE
  5
2CB
  8
DETAIL
  6
CONTINUOUS
 62
     5
 10
-58.037527852735693
 20
26.07104849242543
 30
0.0
 11
-57.855495032985111
 21
26.094828596418129
 31
0.0
  0
LINE
  5
2CC
  8
DETAIL
  6
CONTINUOUS
 62
     5
 10
-57.855495032985111
 20
26.094828596418129
 30
0.0
 11
-57.795255186435838
 21
26.09939263657736
 31
0.0
  0
LINE
  5
2CD
  8
DETAIL
  6
CONTINUOUS
 62
     5
 10
-38.057335226490068
 20
47.7959365175521
 30
0.0
 11
-38.044114036025803
 21
47.796048288520879
 31
0.0
  0
LINE
  5
2CE
  8
DETAIL
  6
CONTINUOUS
 62
     5
 10
-38.227095527979372
 20
47.793691758705343
 30
0.0
 11
-38.044094594616922
 21
47.796043844445379
 31
0.0
  0
LINE
  5
2CF
  8
DETAIL
  6
CONTINUOUS
 62
     5
 10
-49.701319604291477
 20
47.572480999965357
 30
0.0
 11
-42.243961382594641
 21
47.683610138179041
 31
0.0
  0
LINE
  5
2D0
  8
DETAIL
  6
CONTINUOUS
 62
     5
 10
-57.165818542579807
 20
47.450464276725683
 30
0.0
 11
-49.701319604291477
 21
47.572480999965357
 31
0.0
  0
LINE
  5
2D1
  8
DETAIL
  6
CONTINUOUS
 62
     5
 10
-42.243962457915458
 20
47.683610271411773
 30
0.0
 11
-41.563303997815638
 21
47.695640231081313
 31
0.0
  0
LINE
  5
2D2
  8
DETAIL
  6
CONTINUOUS
 62
     5
 10
-38.493703906021658
 20
47.787932878292366
 30
0.0
 11
-38.227095527979372
 21
47.793691758705343
 31
0.0
  0
LINE
  5
2D3
  8
DETAIL
  6
CONTINUOUS
 62
     5
 10
-41.563303997815638
 20
47.695640231081313
 30
0.0
 11
-40.792847567641509
 21
47.714642056826357
 31
0.0
  0
LINE
  5
2D4
  8
DETAIL
  6
CONTINUOUS
 62
     5
 10
-39.079739379585483
 20
47.77027590890193
 30
0.0
 11
-38.493703906021658
 21
47.787932878292366
 31
0.0
  0
LINE
  5
2D5
  8
DETAIL
  6
CONTINUOUS
 62
     5
 10
-40.792847567641509
 20
47.714642056826357
 30
0.0
 11
-39.726323487321451
 21
47.748258085063348
 31
0.0
  0
LINE
  5
2D6
  8
DETAIL
  6
CONTINUOUS
 62
     5
 10
-39.726323487321451
 20
47.748258085063348
 30
0.0
 11
-39.079739379585483
 21
47.77027590890193
 31
0.0
  0
ARC
  5
2D7
  8
DETAIL
  6
CONTINUOUS
 62
     5
 10
-49.104424829173361
 20
-43.673784714948447
 30
0.0
 40
1.511933523641747
 50
181.51611461339991
 51
186.36303364220041
  0
ARC
  5
2D8
  8
DETAIL
  6
CONTINUOUS
 62
     5
 10
-49.107159799140732
 20
-43.674307092710421
 30
0.0
 40
1.5091623868316191
 50
186.35483124720051
 51
224.07615163470209
  0
LINE
  5
2D9
  8
DETAIL
  6
CONTINUOUS
 62
     5
 10
-55.849056704926276
 20
-36.02515729773576
 30
0.0
 11
-55.33713096493068
 21
-36.016221600713287
 31
0.0
  0
LINE
  5
2DA
  8
DETAIL
  6
CONTINUOUS
 62
     5
 10
-54.842767394929297
 20
-25.072921492524461
 30
0.0
 11
-38.820461106411813
 21
-24.79325109607613
 31
0.0
  0
LINE
  5
2DB
  8
DETAIL
  6
CONTINUOUS
 62
     5
 10
-45.584905742955129
 20
-29.105777645062901
 30
0.0
 11
-45.584905742955129
 21
-27.85501253014527
 31
0.0
  0
LINE
  5
2DC
  8
DETAIL
  6
CONTINUOUS
 62
     5
 10
-50.616352292940967
 20
-43.674178004911447
 30
0.0
 11
-50.616352292940967
 21
-34.616690596419552
 31
0.0
  0
LINE
  5
2DD
  8
DETAIL
  6
CONTINUOUS
 62
     5
 10
-55.849056668800472
 20
29.301068564786519
 30
0.0
 11
-55.335119352851621
 21
29.29008161221314
 31
0.0
  0
LINE
  5
2DE
  8
DETAIL
  6
CONTINUOUS
 62
     5
 10
-54.842767394929297
 20
28.787051731353088
 30
0.0
 11
-54.842767394929297
 21
26.28263151919532
 31
0.0
  0
LINE
  5
2DF
  8
DETAIL
  6
CONTINUOUS
 62
     5
 10
-54.842767394929297
 20
14.09514842748229
 30
0.0
 11
-54.842767394929297
 21
-35.513153577060727
 31
0.0
  0
LINE
  5
2E0
  8
DETAIL
  6
CONTINUOUS
 62
     5
 10
-55.849056704926276
 20
29.30106856569218
 30
0.0
 11
-55.849056704926276
 21
26.220623338784161
 31
0.0
  0
LINE
  5
2E1
  8
DETAIL
  6
CONTINUOUS
 62
     5
 10
-55.849056704926276
 20
14.157820061105131
 30
0.0
 11
-55.849056704926276
 21
-36.02515729773576
 31
0.0
  0
LINE
  5
2E2
  8
DETAIL
  6
CONTINUOUS
 62
     5
 10
-38.061915605667757
 20
47.795896685904218
 30
0.0
 11
-37.689393669094329
 21
47.799147635594167
 31
0.0
  0
ARC
  5
2E3
  8
DETAIL
  6
CONTINUOUS
 62
     5
 10
-38.943396296974022
 20
-17.750298765242519
 30
0.0
 40
7.0440251699802117
 50
271.00000000299849
 51
280.26026358280171
  0
ARC
  5
2E4
  8
DETAIL
  6
CONTINUOUS
 62
     5
 10
-42.5660378129636
 20
-27.877958168928981
 30
0.0
 40
3.0188679299915391
 50
91.000000005096339
 51
179.56477981139969
  0
ARC
  5
2E5
  8
DETAIL
  6
CONTINUOUS
 62
     5
 10
-48.603773672946652
 20
-29.105777711276701
 30
0.0
 40
3.0188679299915351
 50
275.21590856649863
 51
0.0000012564992528
  0
ARC
  5
2E6
  8
DETAIL
  6
CONTINUOUS
 62
     5
 10
-48.100629017947988
 20
-34.617451255942967
 30
0.0
 40
2.515723274992907
 50
95.215908575197986
 51
180.0000000996998
  0
ARC
  5
2E7
  8
DETAIL
  6
CONTINUOUS
 62
     5
 10
-55.345912049927733
 20
-35.513153577060727
 30
0.0
 40
0.5031446549986275
 50
271.0000000000083
 51
0.000000000000007
  0
ARC
  5
2E8
  8
DETAIL
  6
CONTINUOUS
 62
     5
 10
-55.345912049927733
 20
28.787051731353088
 30
0.0
 40
0.5031446549986175
 50
0.0000000000977137
 51
88.775331761493476
  0
ARC
  5
2E9
  8
DETAIL
  6
CONTINUOUS
 62
     5
 10
-2.0114013718741721
 20
-90.332066107058594
 30
0.0
 40
42.219949391122093
 50
87.260097950299553
 51
89.499800664102324
  0
ARC
  5
2EA
  8
DETAIL
  6
CONTINUOUS
 62
     5
 10
-2.012827780128418
 20
90.410922019477184
 30
0.0
 40
42.298814757403207
 50
270.50119891200018
 51
270.76565231200232
  0
ARC
  5
2EB
  8
DETAIL
  6
CONTINUOUS
 62
     5
 10
-2.0108141876719401
 20
90.315502711128389
 30
0.0
 40
42.203377067871997
 50
270.76464992279858
 51
272.73094263610261
  0
LINE
  5
2EC
  8
DETAIL
  6
CONTINUOUS
 62
     5
 10
-42.203796891654051
 20
39.968259192191503
 30
0.0
 11
-42.701263413985771
 21
39.986954778434963
 31
0.0
  0
LINE
  5
2ED
  8
DETAIL
  6
CONTINUOUS
 62
     5
 10
-42.701263413985771
 20
39.986954778434963
 30
0.0
 11
-43.198413346094632
 21
40.005606622698522
 31
0.0
  0
LINE
  5
2EE
  8
DETAIL
  6
CONTINUOUS
 62
     5
 10
-43.198413346094632
 20
40.005606622698522
 30
0.0
 11
-43.198413346094632
 21
40.005606622698522
 31
0.0
  0
LINE
  5
2EF
  8
DETAIL
  6
CONTINUOUS
 62
     5
 10
-43.198413346094632
 20
40.005606622698522
 30
0.0
 11
-43.695247639566659
 21
40.024189389503469
 31
0.0
  0
LINE
  5
2F0
  8
DETAIL
  6
CONTINUOUS
 62
     5
 10
-43.695247639566659
 20
40.024189389503469
 30
0.0
 11
-44.193037413219251
 21
40.04275136937499
 31
0.0
  0
LINE
  5
2F1
  8
DETAIL
  6
CONTINUOUS
 62
     5
 10
-44.193037413219251
 20
40.04275136937499
 30
0.0
 11
-44.193037413219251
 21
40.04275136937499
 31
0.0
  0
LINE
  5
2F2
  8
DETAIL
  6
CONTINUOUS
 62
     5
 10
-44.193037413219251
 20
40.04275136937499
 30
0.0
 11
-44.692100201654043
 21
40.061310996388727
 31
0.0
  0
LINE
  5
2F3
  8
DETAIL
  6
CONTINUOUS
 62
     5
 10
-44.692100201654043
 20
40.061310996388727
 30
0.0
 11
-45.187669035368693
 21
40.079693652817667
 31
0.0
  0
LINE
  5
2F4
  8
DETAIL
  6
CONTINUOUS
 62
     5
 10
-45.187669035368693
 20
40.079693652817667
 30
0.0
 11
-45.187669035368693
 21
40.079693652817667
 31
0.0
  0
LINE
  5
2F5
  8
DETAIL
  6
CONTINUOUS
 62
     5
 10
-45.187669035368693
 20
40.079693652817667
 30
0.0
 11
-45.67847278113004
 21
40.097851103285478
 31
0.0
  0
LINE
  5
2F6
  8
DETAIL
  6
CONTINUOUS
 62
     5
 10
-45.67847278113004
 20
40.097851103285478
 30
0.0
 11
-46.182308154883451
 21
40.11643369362325
 31
0.0
  0
LINE
  5
2F7
  8
DETAIL
  6
CONTINUOUS
 62
     5
 10
-46.182308154883451
 20
40.11643369362325
 30
0.0
 11
-46.182308154883451
 21
40.11643369362325
 31
0.0
  0
LINE
  5
2F8
  8
DETAIL
  6
CONTINUOUS
 62
     5
 10
-46.182308154883451
 20
40.11643369362325
 30
0.0
 11
-46.703942111716493
 21
40.135616096707373
 31
0.0
  0
LINE
  5
2F9
  8
DETAIL
  6
CONTINUOUS
 62
     5
 10
-46.703942111716493
 20
40.135616096707373
 30
0.0
 11
-47.176954714105349
 21
40.152971712388521
 31
0.0
  0
LINE
  5
2FA
  8
DETAIL
  6
CONTINUOUS
 62
     5
 10
-47.176954714105349
 20
40.152971712388521
 30
0.0
 11
-47.176954714105349
 21
40.152971712388521
 31
0.0
  0
LINE
  5
2FB
  8
DETAIL
  6
CONTINUOUS
 62
     5
 10
-47.176954714105349
 20
40.152971712388521
 30
0.0
 11
-47.545201418794477
 21
40.166452037747597
 31
0.0
  0
LINE
  5
2FC
  8
DETAIL
  6
CONTINUOUS
 62
     5
 10
-47.545201418794477
 20
40.166452037747597
 30
0.0
 11
-47.864826152215301
 21
40.178122231810093
 31
0.0
  0
LINE
  5
2FD
  8
DETAIL
  6
CONTINUOUS
 62
     5
 10
-47.864826152215301
 20
40.178122231810093
 30
0.0
 11
-47.864826152215301
 21
40.178122231810093
 31
0.0
  0
LINE
  5
2FE
  8
DETAIL
  6
CONTINUOUS
 62
     5
 10
-47.864826152215301
 20
40.178122231810093
 30
0.0
 11
-48.202248361547277
 21
40.19042208825239
 31
0.0
  0
LINE
  5
2FF
  8
DETAIL
  6
CONTINUOUS
 62
     5
 10
-48.202248361547277
 20
40.19042208825239
 30
0.0
 11
-48.552701107275553
 21
40.203176277408247
 31
0.0
  0
LINE
  5
300
  8
DETAIL
  6
CONTINUOUS
 62
     5
 10
-48.552701107275553
 20
40.203176277408247
 30
0.0
 11
-48.552701107275553
 21
40.203176277408247
 31
0.0
  0
LINE
  5
301
  8
DETAIL
  6
CONTINUOUS
 62
     5
 10
-48.552701107275553
 20
40.203176277408247
 30
0.0
 11
-48.898387791020141
 21
40.215731023616328
 31
0.0
  0
LINE
  5
302
  8
DETAIL
  6
CONTINUOUS
 62
     5
 10
-48.898387791020141
 20
40.215731023616328
 30
0.0
 11
-49.24057956563729
 21
40.228133890577077
 31
0.0
  0
LINE
  5
303
  8
DETAIL
  6
CONTINUOUS
 62
     5
 10
-49.24057956563729
 20
40.228133890577077
 30
0.0
 11
-49.24057956563729
 21
40.228133890577077
 31
0.0
  0
LINE
  5
304
  8
DETAIL
  6
CONTINUOUS
 62
     5
 10
-49.24057956563729
 20
40.228133890577077
 30
0.0
 11
-49.58404336723072
 21
40.24056021830534
 31
0.0
  0
LINE
  5
305
  8
DETAIL
  6
CONTINUOUS
 62
     5
 10
-49.58404336723072
 20
40.24056021830534
 30
0.0
 11
-49.928461513651882
 21
40.252995112711041
 31
0.0
  0
LINE
  5
306
  8
DETAIL
  6
CONTINUOUS
 62
     5
 10
-49.928461513651882
 20
40.252995112711041
 30
0.0
 11
-49.928461513651882
 21
40.252995112711041
 31
0.0
  0
LINE
  5
307
  8
DETAIL
  6
CONTINUOUS
 62
     5
 10
-49.928461513651882
 20
40.252995112711041
 30
0.0
 11
-50.272562848632219
 21
40.265391020442337
 31
0.0
  0
LINE
  5
308
  8
DETAIL
  6
CONTINUOUS
 62
     5
 10
-50.272562848632219
 20
40.265391020442337
 30
0.0
 11
-50.6163469376704
 21
40.277759985204383
 31
0.0
  0
LINE
  5
309
  8
DETAIL
  6
CONTINUOUS
 62
     5
 10
-37.68764736639946
 20
38.460697600129912
 30
0.0
 11
-37.69855593083571
 21
38.469638360004097
 31
0.0
  0
LINE
  5
30A
  8
DETAIL
  6
CONTINUOUS
 62
     5
 10
-37.69855593083571
 20
38.469638360004097
 30
0.0
 11
-37.709564592650167
 21
38.478628367858427
 31
0.0
  0
LINE
  5
30B
  8
DETAIL
  6
CONTINUOUS
 62
     5
 10
-37.709564592650167
 20
38.478628367858427
 30
0.0
 11
-37.709564592650167
 21
38.478628367858427
 31
0.0
  0
LINE
  5
30C
  8
DETAIL
  6
CONTINUOUS
 62
     5
 10
-37.709564592650167
 20
38.478628367858427
 30
0.0
 11
-37.720684278623828
 21
38.48765417143391
 31
0.0
  0
LINE
  5
30D
  8
DETAIL
  6
CONTINUOUS
 62
     5
 10
-37.720684278623828
 20
38.48765417143391
 30
0.0
 11
-37.73156923315149
 21
38.496451517515013
 31
0.0
  0
LINE
  5
30E
  8
DETAIL
  6
CONTINUOUS
 62
     5
 10
-37.73156923315149
 20
38.496451517515013
 30
0.0
 11
-37.73156923315149
 21
38.496451517515013
 31
0.0
  0
LINE
  5
30F
  8
DETAIL
  6
CONTINUOUS
 62
     5
 10
-37.73156923315149
 20
38.496451517515013
 30
0.0
 11
-37.742130281677412
 21
38.504957586244601
 31
0.0
  0
LINE
  5
310
  8
DETAIL
  6
CONTINUOUS
 62
     5
 10
-37.742130281677412
 20
38.504957586244601
 30
0.0
 11
-37.753661256230892
 21
38.514166092156493
 31
0.0
  0
LINE
  5
311
  8
DETAIL
  6
CONTINUOUS
 62
     5
 10
-37.753661256230892
 20
38.514166092156493
 30
0.0
 11
-37.753661256230892
 21
38.514166092156493
 31
0.0
  0
LINE
  5
312
  8
DETAIL
  6
CONTINUOUS
 62
     5
 10
-37.753661256230892
 20
38.514166092156493
 30
0.0
 11
-37.766507904499349
 21
38.524341049230642
 31
0.0
  0
LINE
  5
313
  8
DETAIL
  6
CONTINUOUS
 62
     5
 10
-37.766507904499349
 20
38.524341049230642
 30
0.0
 11
-37.775840630215953
 21
38.531771134840227
 31
0.0
  0
LINE
  5
314
  8
DETAIL
  6
CONTINUOUS
 62
     5
 10
-37.775840630215953
 20
38.531771134840227
 30
0.0
 11
-37.775840630215953
 21
38.531771134840227
 31
0.0
  0
LINE
  5
315
  8
DETAIL
  6
CONTINUOUS
 62
     5
 10
-37.775840630215953
 20
38.531771134840227
 30
0.0
 11
-37.780365593433203
 21
38.535462395215767
 31
0.0
  0
LINE
  5
316
  8
DETAIL
  6
CONTINUOUS
 62
     5
 10
-37.780365593433203
 20
38.535462395215767
 30
0.0
 11
-37.798107323434351
 21
38.549265688622782
 31
0.0
  0
LINE
  5
317
  8
DETAIL
  6
CONTINUOUS
 62
     5
 10
-37.798107323434351
 20
38.549265688622782
 30
0.0
 11
-37.798107323434351
 21
38.549265688622782
 31
0.0
  0
LINE
  5
318
  8
DETAIL
  6
CONTINUOUS
 62
     5
 10
-37.798107323434351
 20
38.549265688622782
 30
0.0
 11
-37.844348195576451
 21
38.584825344380207
 31
0.0
  0
LINE
  5
319
  8
DETAIL
  6
CONTINUOUS
 62
     5
 10
-37.844348195576451
 20
38.584825344380207
 30
0.0
 11
-37.904083600282547
 21
38.630114763985347
 31
0.0
  0
LINE
  5
31A
  8
DETAIL
  6
CONTINUOUS
 62
     5
 10
-37.904083600282547
 20
38.630114763985347
 30
0.0
 11
-37.904083600282547
 21
38.630114763985347
 31
0.0
  0
LINE
  5
31B
  8
DETAIL
  6
CONTINUOUS
 62
     5
 10
-37.904083600282547
 20
38.630114763985347
 30
0.0
 11
-37.959511511755288
 21
38.670983811519193
 31
0.0
  0
LINE
  5
31C
  8
DETAIL
  6
CONTINUOUS
 62
     5
 10
-37.959511511755288
 20
38.670983811519193
 30
0.0
 11
-38.011927224250833
 21
38.708459129220763
 31
0.0
  0
LINE
  5
31D
  8
DETAIL
  6
CONTINUOUS
 62
     5
 10
-38.011927224250833
 20
38.708459129220763
 30
0.0
 11
-38.011927224250833
 21
38.708459129220763
 31
0.0
  0
LINE
  5
31E
  8
DETAIL
  6
CONTINUOUS
 62
     5
 10
-38.011927224250833
 20
38.708459129220763
 30
0.0
 11
-38.066096719324953
 21
38.746330502706421
 31
0.0
  0
LINE
  5
31F
  8
DETAIL
  6
CONTINUOUS
 62
     5
 10
-38.066096719324953
 20
38.746330502706421
 30
0.0
 11
-38.121571407671823
 21
38.784263512945103
 31
0.0
  0
LINE
  5
320
  8
DETAIL
  6
CONTINUOUS
 62
     5
 10
-38.121571407671823
 20
38.784263512945103
 30
0.0
 11
-38.121571407671823
 21
38.784263512945103
 31
0.0
  0
LINE
  5
321
  8
DETAIL
  6
CONTINUOUS
 62
     5
 10
-38.121571407671823
 20
38.784263512945103
 30
0.0
 11
-38.177039298118189
 21
38.821222699851809
 31
0.0
  0
LINE
  5
322
  8
DETAIL
  6
CONTINUOUS
 62
     5
 10
-38.177039298118189
 20
38.821222699851809
 30
0.0
 11
-38.232949362878117
 21
38.857492643773973
 31
0.0
  0
LINE
  5
323
  8
DETAIL
  6
CONTINUOUS
 62
     5
 10
-38.232949362878117
 20
38.857492643773973
 30
0.0
 11
-38.232949362878117
 21
38.857492643773973
 31
0.0
  0
LINE
  5
324
  8
DETAIL
  6
CONTINUOUS
 62
     5
 10
-38.232949362878117
 20
38.857492643773973
 30
0.0
 11
-38.289733494339771
 21
38.89339894589655
 31
0.0
  0
LINE
  5
325
  8
DETAIL
  6
CONTINUOUS
 62
     5
 10
-38.289733494339771
 20
38.89339894589655
 30
0.0
 11
-38.345994302202477
 21
38.928111250323163
 31
0.0
  0
LINE
  5
326
  8
DETAIL
  6
CONTINUOUS
 62
     5
 10
-38.345994302202477
 20
38.928111250323163
 30
0.0
 11
-38.345994302202477
 21
38.928111250323163
 31
0.0
  0
LINE
  5
327
  8
DETAIL
  6
CONTINUOUS
 62
     5
 10
-38.345994302202477
 20
38.928111250323163
 30
0.0
 11
-38.400473476737268
 21
38.960878979037368
 31
0.0
  0
LINE
  5
328
  8
DETAIL
  6
CONTINUOUS
 62
     5
 10
-38.400473476737268
 20
38.960878979037368
 30
0.0
 11
-38.454298313188012
 21
38.992426622623512
 31
0.0
  0
LINE
  5
329
  8
DETAIL
  6
CONTINUOUS
 62
     5
 10
-38.454298313188012
 20
38.992426622623512
 30
0.0
 11
-38.454298313188012
 21
38.992426622623512
 31
0.0
  0
LINE
  5
32A
  8
DETAIL
  6
CONTINUOUS
 62
     5
 10
-38.454298313188012
 20
38.992426622623512
 30
0.0
 11
-38.508827549485893
 21
39.023617348910797
 31
0.0
  0
LINE
  5
32B
  8
DETAIL
  6
CONTINUOUS
 62
     5
 10
-38.508827549485893
 20
39.023617348910797
 30
0.0
 11
-38.563960089329491
 21
39.054393966106552
 31
0.0
  0
LINE
  5
32C
  8
DETAIL
  6
CONTINUOUS
 62
     5
 10
-38.563960089329491
 20
39.054393966106552
 30
0.0
 11
-38.563960089329491
 21
39.054393966106552
 31
0.0
  0
LINE
  5
32D
  8
DETAIL
  6
CONTINUOUS
 62
     5
 10
-38.563960089329491
 20
39.054393966106552
 30
0.0
 11
-38.619322043853217
 21
39.084528265631839
 31
0.0
  0
LINE
  5
32E
  8
DETAIL
  6
CONTINUOUS
 62
     5
 10
-38.619322043853217
 20
39.084528265631839
 30
0.0
 11
-38.674908188164409
 21
39.114028331386017
 31
0.0
  0
LINE
  5
32F
  8
DETAIL
  6
CONTINUOUS
 62
     5
 10
-38.674908188164409
 20
39.114028331386017
 30
0.0
 11
-38.674908188164409
 21
39.114028331386017
 31
0.0
  0
LINE
  5
330
  8
DETAIL
  6
CONTINUOUS
 62
     5
 10
-38.674908188164409
 20
39.114028331386017
 30
0.0
 11
-38.730801757948939
 21
39.14295511781517
 31
0.0
  0
LINE
  5
331
  8
DETAIL
  6
CONTINUOUS
 62
     5
 10
-38.730801757948939
 20
39.14295511781517
 30
0.0
 11
-38.787071167230238
 21
39.17134476907583
 31
0.0
  0
LINE
  5
332
  8
DETAIL
  6
CONTINUOUS
 62
     5
 10
-38.787071167230238
 20
39.17134476907583
 30
0.0
 11
-38.787071167230238
 21
39.17134476907583
 31
0.0
  0
LINE
  5
333
  8
DETAIL
  6
CONTINUOUS
 62
     5
 10
-38.787071167230238
 20
39.17134476907583
 30
0.0
 11
-38.84370378028585
 21
39.199192963922208
 31
0.0
  0
LINE
  5
334
  8
DETAIL
  6
CONTINUOUS
 62
     5
 10
-38.84370378028585
 20
39.199192963922208
 30
0.0
 11
-38.90037758406482
 21
39.22635832978996
 31
0.0
  0
LINE
  5
335
  8
DETAIL
  6
CONTINUOUS
 62
     5
 10
-38.90037758406482
 20
39.22635832978996
 30
0.0
 11
-38.90037758406482
 21
39.22635832978996
 31
0.0
  0
LINE
  5
336
  8
DETAIL
  6
CONTINUOUS
 62
     5
 10
-38.90037758406482
 20
39.22635832978996
 30
0.0
 11
-38.956824838892892
 21
39.252727352820408
 31
0.0
  0
LINE
  5
337
  8
DETAIL
  6
CONTINUOUS
 62
     5
 10
-38.956824838892892
 20
39.252727352820408
 30
0.0
 11
-39.013304275921527
 21
39.27843500529417
 31
0.0
  0
LINE
  5
338
  8
DETAIL
  6
CONTINUOUS
 62
     5
 10
-39.013304275921527
 20
39.27843500529417
 30
0.0
 11
-39.013304275921527
 21
39.27843500529417
 31
0.0
  0
LINE
  5
339
  8
DETAIL
  6
CONTINUOUS
 62
     5
 10
-39.013304275921527
 20
39.27843500529417
 30
0.0
 11
-39.070117925388793
 21
39.303636193891712
 31
0.0
  0
LINE
  5
33A
  8
DETAIL
  6
CONTINUOUS
 62
     5
 10
-39.070117925388793
 20
39.303636193891712
 30
0.0
 11
-39.127214543048687
 21
39.328317076750672
 31
0.0
  0
LINE
  5
33B
  8
DETAIL
  6
CONTINUOUS
 62
     5
 10
-39.127214543048687
 20
39.328317076750672
 30
0.0
 11
-39.127214543048687
 21
39.328317076750672
 31
0.0
  0
LINE
  5
33C
  8
DETAIL
  6
CONTINUOUS
 62
     5
 10
-39.127214543048687
 20
39.328317076750672
 30
0.0
 11
-39.184498125710903
 21
39.352439931761282
 31
0.0
  0
LINE
  5
33D
  8
DETAIL
  6
CONTINUOUS
 62
     5
 10
-39.184498125710903
 20
39.352439931761282
 30
0.0
 11
-39.242046908885072
 21
39.376040264364278
 31
0.0
  0
LINE
  5
33E
  8
DETAIL
  6
CONTINUOUS
 62
     5
 10
-39.242046908885072
 20
39.376040264364278
 30
0.0
 11
-39.242046908885072
 21
39.376040264364278
 31
0.0
  0
LINE
  5
33F
  8
DETAIL
  6
CONTINUOUS
 62
     5
 10
-39.242046908885072
 20
39.376040264364278
 30
0.0
 11
-39.299896767676493
 21
39.399140846473188
 31
0.0
  0
LINE
  5
340
  8
DETAIL
  6
CONTINUOUS
 62
     5
 10
-39.299896767676493
 20
39.399140846473188
 30
0.0
 11
-39.357739896869248
 21
39.421640288340122
 31
0.0
  0
LINE
  5
341
  8
DETAIL
  6
CONTINUOUS
 62
     5
 10
-39.357739896869248
 20
39.421640288340122
 30
0.0
 11
-39.357739896869248
 21
39.421640288340122
 31
0.0
  0
LINE
  5
342
  8
DETAIL
  6
CONTINUOUS
 62
     5
 10
-39.357739896869248
 20
39.421640288340122
 30
0.0
 11
-39.415482691812358
 21
39.44351201457583
 31
0.0
  0
LINE
  5
343
  8
DETAIL
  6
CONTINUOUS
 62
     5
 10
-39.415482691812358
 20
39.44351201457583
 30
0.0
 11
-39.474232030439573
 21
39.465152868883322
 31
0.0
  0
LINE
  5
344
  8
DETAIL
  6
CONTINUOUS
 62
     5
 10
-39.474232030439573
 20
39.465152868883322
 30
0.0
 11
-39.474232030439573
 21
39.465152868883322
 31
0.0
  0
LINE
  5
345
  8
DETAIL
  6
CONTINUOUS
 62
     5
 10
-39.474232030439573
 20
39.465152868883322
 30
0.0
 11
-39.534926758195297
 21
39.486895245063529
 31
0.0
  0
LINE
  5
346
  8
DETAIL
  6
CONTINUOUS
 62
     5
 10
-39.534926758195297
 20
39.486895245063529
 30
0.0
 11
-39.596633107984083
 21
39.508390318214602
 31
0.0
  0
LINE
  5
347
  8
DETAIL
  6
CONTINUOUS
 62
     5
 10
-39.596633107984083
 20
39.508390318214602
 30
0.0
 11
-39.596633107984083
 21
39.508390318214602
 31
0.0
  0
LINE
  5
348
  8
DETAIL
  6
CONTINUOUS
 62
     5
 10
-39.596633107984083
 20
39.508390318214602
 30
0.0
 11
-39.658238059733101
 21
39.529228320577417
 31
0.0
  0
LINE
  5
349
  8
DETAIL
  6
CONTINUOUS
 62
     5
 10
-39.658238059733101
 20
39.529228320577417
 30
0.0
 11
-39.71978419399943
 21
39.549436931664602
 31
0.0
  0
LINE
  5
34A
  8
DETAIL
  6
CONTINUOUS
 62
     5
 10
-39.71978419399943
 20
39.549436931664602
 30
0.0
 11
-39.71978419399943
 21
39.549436931664602
 31
0.0
  0
LINE
  5
34B
  8
DETAIL
  6
CONTINUOUS
 62
     5
 10
-39.71978419399943
 20
39.549436931664602
 30
0.0
 11
-39.781553669477603
 21
39.569131164706953
 31
0.0
  0
LINE
  5
34C
  8
DETAIL
  6
CONTINUOUS
 62
     5
 10
-39.781553669477603
 20
39.569131164706953
 30
0.0
 11
-39.843631356774381
 21
39.588337920534443
 31
0.0
  0
LINE
  5
34D
  8
DETAIL
  6
CONTINUOUS
 62
     5
 10
-39.843631356774381
 20
39.588337920534443
 30
0.0
 11
-39.843631356774381
 21
39.588337920534443
 31
0.0
  0
LINE
  5
34E
  8
DETAIL
  6
CONTINUOUS
 62
     5
 10
-39.843631356774381
 20
39.588337920534443
 30
0.0
 11
-39.90596119240422
 21
39.607040822459837
 31
0.0
  0
LINE
  5
34F
  8
DETAIL
  6
CONTINUOUS
 62
     5
 10
-39.90596119240422
 20
39.607040822459837
 30
0.0
 11
-39.968120664597343
 21
39.625138496125452
 31
0.0
  0
LINE
  5
350
  8
DETAIL
  6
CONTINUOUS
 62
     5
 10
-39.968120664597343
 20
39.625138496125452
 30
0.0
 11
-39.968120664597343
 21
39.625138496125452
 31
0.0
  0
LINE
  5
351
  8
DETAIL
  6
CONTINUOUS
 62
     5
 10
-39.968120664597343
 20
39.625138496125452
 30
0.0
 11
-40.030011419819047
 21
39.642615343526643
 31
0.0
  0
LINE
  5
352
  8
DETAIL
  6
CONTINUOUS
 62
     5
 10
-40.030011419819047
 20
39.642615343526643
 30
0.0
 11
-40.093198185757501
 21
39.659883869738778
 31
0.0
  0
LINE
  5
353
  8
DETAIL
  6
CONTINUOUS
 62
     5
 10
-40.093198185757501
 20
39.659883869738778
 30
0.0
 11
-40.093198185757501
 21
39.659883869738778
 31
0.0
  0
LINE
  5
354
  8
DETAIL
  6
CONTINUOUS
 62
     5
 10
-40.093198185757501
 20
39.659883869738778
 30
0.0
 11
-40.159001029931908
 21
39.677285842813397
 31
0.0
  0
LINE
  5
355
  8
DETAIL
  6
CONTINUOUS
 62
     5
 10
-40.159001029931908
 20
39.677285842813397
 30
0.0
 11
-40.226098297963851
 21
39.694451979623928
 31
0.0
  0
LINE
  5
356
  8
DETAIL
  6
CONTINUOUS
 62
     5
 10
-40.226098297963851
 20
39.694451979623928
 30
0.0
 11
-40.226098297963851
 21
39.694451979623928
 31
0.0
  0
LINE
  5
357
  8
DETAIL
  6
CONTINUOUS
 62
     5
 10
-40.226098297963851
 20
39.694451979623928
 30
0.0
 11
-40.292920717792299
 21
39.710951189000738
 31
0.0
  0
LINE
  5
358
  8
DETAIL
  6
CONTINUOUS
 62
     5
 10
-40.292920717792299
 20
39.710951189000738
 30
0.0
 11
-40.35955026852433
 21
39.726816198781073
 31
0.0
  0
LINE
  5
359
  8
DETAIL
  6
CONTINUOUS
 62
     5
 10
-40.35955026852433
 20
39.726816198781073
 30
0.0
 11
-40.35955026852433
 21
39.726816198781073
 31
0.0
  0
LINE
  5
35A
  8
DETAIL
  6
CONTINUOUS
 62
     5
 10
-40.35955026852433
 20
39.726816198781073
 30
0.0
 11
-40.42639400557777
 21
39.742168651253287
 31
0.0
  0
LINE
  5
35B
  8
DETAIL
  6
CONTINUOUS
 62
     5
 10
-40.42639400557777
 20
39.742168651253287
 30
0.0
 11
-40.493508038445853
 21
39.75702202750422
 31
0.0
  0
LINE
  5
35C
  8
DETAIL
  6
CONTINUOUS
 62
     5
 10
-40.493508038445853
 20
39.75702202750422
 30
0.0
 11
-40.493508038445853
 21
39.75702202750422
 31
0.0
  0
LINE
  5
35D
  8
DETAIL
  6
CONTINUOUS
 62
     5
 10
-40.493508038445853
 20
39.75702202750422
 30
0.0
 11
-40.56079887327428
 21
39.771354974770411
 31
0.0
  0
LINE
  5
35E
  8
DETAIL
  6
CONTINUOUS
 62
     5
 10
-40.56079887327428
 20
39.771354974770411
 30
0.0
 11
-40.62792554873613
 21
39.785114966087669
 31
0.0
  0
LINE
  5
35F
  8
DETAIL
  6
CONTINUOUS
 62
     5
 10
-40.62792554873613
 20
39.785114966087669
 30
0.0
 11
-40.62792554873613
 21
39.785114966087669
 31
0.0
  0
LINE
  5
360
  8
DETAIL
  6
CONTINUOUS
 62
     5
 10
-40.62792554873613
 20
39.785114966087669
 30
0.0
 11
-40.69482044059054
 21
39.798299895442632
 31
0.0
  0
LINE
  5
361
  8
DETAIL
  6
CONTINUOUS
 62
     5
 10
-40.69482044059054
 20
39.798299895442632
 30
0.0
 11
-40.762756740402089
 21
39.81114051482546
 31
0.0
  0
LINE
  5
362
  8
DETAIL
  6
CONTINUOUS
 62
     5
 10
-40.762756740402089
 20
39.81114051482546
 30
0.0
 11
-40.762756740402089
 21
39.81114051482546
 31
0.0
  0
LINE
  5
363
  8
DETAIL
  6
CONTINUOUS
 62
     5
 10
-40.762756740402089
 20
39.81114051482546
 30
0.0
 11
-40.832805236215563
 21
39.823826091496969
 31
0.0
  0
LINE
  5
364
  8
DETAIL
  6
CONTINUOUS
 62
     5
 10
-40.832805236215563
 20
39.823826091496969
 30
0.0
 11
-40.903886286182797
 21
39.83614709579669
 31
0.0
  0
LINE
  5
365
  8
DETAIL
  6
CONTINUOUS
 62
     5
 10
-40.903886286182797
 20
39.83614709579669
 30
0.0
 11
-40.903886286182797
 21
39.83614709579669
 31
0.0
  0
LINE
  5
366
  8
DETAIL
  6
CONTINUOUS
 62
     5
 10
-40.903886286182797
 20
39.83614709579669
 30
0.0
 11
-40.974720611988353
 21
39.847860302776382
 31
0.0
  0
LINE
  5
367
  8
DETAIL
  6
CONTINUOUS
 62
     5
 10
-40.974720611988353
 20
39.847860302776382
 30
0.0
 11
-41.045380819339357
 21
39.858986503257263
 31
0.0
  0
LINE
  5
368
  8
DETAIL
  6
CONTINUOUS
 62
     5
 10
-41.045380819339357
 20
39.858986503257263
 30
0.0
 11
-41.045380819339357
 21
39.858986503257263
 31
0.0
  0
LINE
  5
369
  8
DETAIL
  6
CONTINUOUS
 62
     5
 10
-41.045380819339357
 20
39.858986503257263
 30
0.0
 11
-41.116200437284647
 21
39.869596159508852
 31
0.0
  0
LINE
  5
36A
  8
DETAIL
  6
CONTINUOUS
 62
     5
 10
-41.116200437284647
 20
39.869596159508852
 30
0.0
 11
-41.187204804214851
 21
39.879694403823727
 31
0.0
  0
LINE
  5
36B
  8
DETAIL
  6
CONTINUOUS
 62
     5
 10
-41.187204804214851
 20
39.879694403823727
 30
0.0
 11
-41.187204804214851
 21
39.879694403823727
 31
0.0
  0
LINE
  5
36C
  8
DETAIL
  6
CONTINUOUS
 62
     5
 10
-41.187204804214851
 20
39.879694403823727
 30
0.0
 11
-41.258312430508447
 21
39.889269362034852
 31
0.0
  0
LINE
  5
36D
  8
DETAIL
  6
CONTINUOUS
 62
     5
 10
-41.258312430508447
 20
39.889269362034852
 30
0.0
 11
-41.329322705151171
 21
39.898306464112352
 31
0.0
  0
LINE
  5
36E
  8
DETAIL
  6
CONTINUOUS
 62
     5
 10
-41.329322705151171
 20
39.898306464112352
 30
0.0
 11
-41.329322705151171
 21
39.898306464112352
 31
0.0
  0
LINE
  5
36F
  8
DETAIL
  6
CONTINUOUS
 62
     5
 10
-41.329322705151171
 20
39.898306464112352
 30
0.0
 11
-41.400201405837819
 21
39.906809494417622
 31
0.0
  0
LINE
  5
370
  8
DETAIL
  6
CONTINUOUS
 62
     5
 10
-41.400201405837819
 20
39.906809494417622
 30
0.0
 11
-41.471698986491099
 21
39.914858350739749
 31
0.0
  0
LINE
  5
371
  8
DETAIL
  6
CONTINUOUS
 62
     5
 10
-41.471698986491099
 20
39.914858350739749
 30
0.0
 11
-41.471698986491099
 21
39.914858350739749
 31
0.0
  0
LINE
  5
372
  8
DETAIL
  6
CONTINUOUS
 62
     5
 10
-41.471698986491099
 20
39.914858350739749
 30
0.0
 11
-41.54444430949922
 21
39.92251746914674
 31
0.0
  0
LINE
  5
373
  8
DETAIL
  6
CONTINUOUS
 62
     5
 10
-41.54444430949922
 20
39.92251746914674
 30
0.0
 11
-41.617795194882213
 21
39.929713325394047
 31
0.0
  0
LINE
  5
374
  8
DETAIL
  6
CONTINUOUS
 62
     5
 10
-41.617795194882213
 20
39.929713325394047
 30
0.0
 11
-41.617795194882213
 21
39.929713325394047
 31
0.0
  0
LINE
  5
375
  8
DETAIL
  6
CONTINUOUS
 62
     5
 10
-41.617795194882213
 20
39.929713325394047
 30
0.0
 11
-41.690993632900593
 21
39.936360267457971
 31
0.0
  0
LINE
  5
376
  8
DETAIL
  6
CONTINUOUS
 62
     5
 10
-41.690993632900593
 20
39.936360267457971
 30
0.0
 11
-41.764089337148228
 21
39.942462092509047
 31
0.0
  0
LINE
  5
377
  8
DETAIL
  6
CONTINUOUS
 62
     5
 10
-41.764089337148228
 20
39.942462092509047
 30
0.0
 11
-41.764089337148228
 21
39.942462092509047
 31
0.0
  0
LINE
  5
378
  8
DETAIL
  6
CONTINUOUS
 62
     5
 10
-41.764089337148228
 20
39.942462092509047
 30
0.0
 11
-41.837279742741771
 21
39.948043504229759
 31
0.0
  0
LINE
  5
379
  8
DETAIL
  6
CONTINUOUS
 62
     5
 10
-41.837279742741771
 20
39.948043504229759
 30
0.0
 11
-41.910545447556487
 21
39.953123383154221
 31
0.0
  0
LINE
  5
37A
  8
DETAIL
  6
CONTINUOUS
 62
     5
 10
-41.910545447556487
 20
39.953123383154221
 30
0.0
 11
-41.910545447556487
 21
39.953123383154221
 31
0.0
  0
LINE
  5
37B
  8
DETAIL
  6
CONTINUOUS
 62
     5
 10
-41.910545447556487
 20
39.953123383154221
 30
0.0
 11
-41.983827746566931
 21
39.957702614879189
 31
0.0
  0
LINE
  5
37C
  8
DETAIL
  6
CONTINUOUS
 62
     5
 10
-41.983827746566931
 20
39.957702614879189
 30
0.0
 11
-42.05712756037417
 21
39.961715928398441
 31
0.0
  0
LINE
  5
37D
  8
DETAIL
  6
CONTINUOUS
 62
     5
 10
-42.05712756037417
 20
39.961715928398441
 30
0.0
 11
-42.05712756037417
 21
39.961715928398441
 31
0.0
  0
LINE
  5
37E
  8
DETAIL
  6
CONTINUOUS
 62
     5
 10
-42.05712756037417
 20
39.961715928398441
 30
0.0
 11
-42.130455299669499
 21
39.96514912594521
 31
0.0
  0
LINE
  5
37F
  8
DETAIL
  6
CONTINUOUS
 62
     5
 10
-42.130455299669499
 20
39.96514912594521
 30
0.0
 11
-42.203799709867887
 21
39.968258459310952
 31
0.0
  0
LINE
  5
380
  8
DETAIL
  6
CONTINUOUS
 62
     5
 10
-49.120090457076131
 20
44.538433035430621
 30
0.0
 11
-48.551711496890803
 21
44.541565365648729
 31
0.0
  0
LINE
  5
381
  8
DETAIL
  6
CONTINUOUS
 62
     5
 10
-48.551711496890803
 20
44.541565365648729
 30
0.0
 11
-47.983329084092809
 21
44.54469623653673
 31
0.0
  0
LINE
  5
382
  8
DETAIL
  6
CONTINUOUS
 62
     5
 10
-47.983329084092809
 20
44.54469623653673
 30
0.0
 11
-47.983329084092809
 21
44.54469623653673
 31
0.0
  0
LINE
  5
383
  8
DETAIL
  6
CONTINUOUS
 62
     5
 10
-47.983329084092809
 20
44.54469623653673
 30
0.0
 11
-47.414943212263431
 21
44.547824482501987
 31
0.0
  0
LINE
  5
384
  8
DETAIL
  6
CONTINUOUS
 62
     5
 10
-47.414943212263431
 20
44.547824482501987
 30
0.0
 11
-46.84656765975501
 21
44.550950112901603
 31
0.0
  0
LINE
  5
385
  8
DETAIL
  6
CONTINUOUS
 62
     5
 10
-46.84656765975501
 20
44.550950112901603
 30
0.0
 11
-46.84656765975501
 21
44.550950112901603
 31
0.0
  0
LINE
  5
386
  8
DETAIL
  6
CONTINUOUS
 62
     5
 10
-46.84656765975501
 20
44.550950112901603
 30
0.0
 11
-46.27820587277607
 21
44.554073422386892
 31
0.0
  0
LINE
  5
387
  8
DETAIL
  6
CONTINUOUS
 62
     5
 10
-46.27820587277607
 20
44.554073422386892
 30
0.0
 11
-45.709806184184799
 21
44.557194671835482
 31
0.0
  0
LINE
  5
388
  8
DETAIL
  6
CONTINUOUS
 62
     5
 10
-45.709806184184799
 20
44.557194671835482
 30
0.0
 11
-45.709806184184799
 21
44.557194671835482
 31
0.0
  0
LINE
  5
389
  8
DETAIL
  6
CONTINUOUS
 62
     5
 10
-45.709806184184799
 20
44.557194671835482
 30
0.0
 11
-45.141354815659717
 21
44.560313853717403
 31
0.0
  0
LINE
  5
38A
  8
DETAIL
  6
CONTINUOUS
 62
     5
 10
-45.141354815659717
 20
44.560313853717403
 30
0.0
 11
-44.573044657505299
 21
44.563429920647948
 31
0.0
  0
LINE
  5
38B
  8
DETAIL
  6
CONTINUOUS
 62
     5
 10
-44.573044657505299
 20
44.563429920647948
 30
0.0
 11
-44.573044657505299
 21
44.563429920647948
 31
0.0
  0
LINE
  5
38C
  8
DETAIL
  6
CONTINUOUS
 62
     5
 10
-44.573044657505299
 20
44.563429920647948
 30
0.0
 11
-44.004927376893988
 21
44.566542613577042
 31
0.0
  0
LINE
  5
38D
  8
DETAIL
  6
CONTINUOUS
 62
     5
 10
-44.004927376893988
 20
44.566542613577042
 30
0.0
 11
-43.436283079839093
 21
44.569655866649093
 31
0.0
  0
LINE
  5
38E
  8
DETAIL
  6
CONTINUOUS
 62
     5
 10
-43.436283079839093
 20
44.569655866649093
 30
0.0
 11
-43.436283079839093
 21
44.569655866649093
 31
0.0
  0
LINE
  5
38F
  8
DETAIL
  6
CONTINUOUS
 62
     5
 10
-43.436283079839093
 20
44.569655866649093
 30
0.0
 11
-42.86650324348772
 21
44.572773000356968
 31
0.0
  0
LINE
  5
390
  8
DETAIL
  6
CONTINUOUS
 62
     5
 10
-42.86650324348772
 20
44.572773000356968
 30
0.0
 11
-42.296196390676748
 21
44.575890687392487
 31
0.0
  0
LINE
  5
391
  8
DETAIL
  6
CONTINUOUS
 62
     5
 10
-42.296196390676748
 20
44.575890687392487
 30
0.0
 11
-42.296196390676748
 21
44.575890687392487
 31
0.0
  0
LINE
  5
392
  8
DETAIL
  6
CONTINUOUS
 62
     5
 10
-42.296196390676748
 20
44.575890687392487
 30
0.0
 11
-41.726082415386493
 21
44.579004988631191
 31
0.0
  0
LINE
  5
393
  8
DETAIL
  6
CONTINUOUS
 62
     5
 10
-41.726082415386493
 20
44.579004988631191
 30
0.0
 11
-41.15610965048085
 21
44.582116165483768
 31
0.0
  0
LINE
  5
394
  8
DETAIL
  6
CONTINUOUS
 62
     5
 10
-41.15610965048085
 20
44.582116165483768
 30
0.0
 11
-41.15610965048085
 21
44.582116165483768
 31
0.0
  0
LINE
  5
395
  8
DETAIL
  6
CONTINUOUS
 62
     5
 10
-41.15610965048085
 20
44.582116165483768
 30
0.0
 11
-40.586085205697259
 21
44.585225268997263
 31
0.0
  0
LINE
  5
396
  8
DETAIL
  6
CONTINUOUS
 62
     5
 10
-40.586085205697259
 20
44.585225268997263
 30
0.0
 11
-40.016022859379852
 21
44.588332308231138
 31
0.0
  0
LINE
  5
397
  8
DETAIL
  6
CONTINUOUS
 62
     5
 10
-40.016022859379852
 20
44.588332308231138
 30
0.0
 11
-40.016022859379852
 21
44.588332308231138
 31
0.0
  0
LINE
  5
398
  8
DETAIL
  6
CONTINUOUS
 62
     5
 10
-40.016022859379852
 20
44.588332308231138
 30
0.0
 11
-39.445974278696667
 21
44.591437023602097
 31
0.0
  0
LINE
  5
399
  8
DETAIL
  6
CONTINUOUS
 62
     5
 10
-39.445974278696667
 20
44.591437023602097
 30
0.0
 11
-38.875936017502447
 21
44.594539122942876
 31
0.0
  0
LINE
  5
39A
  8
DETAIL
  6
CONTINUOUS
 62
     5
 10
-38.875936017502447
 20
44.594539122942876
 30
0.0
 11
-38.875936017502447
 21
44.594539122942876
 31
0.0
  0
LINE
  5
39B
  8
DETAIL
  6
CONTINUOUS
 62
     5
 10
-38.875936017502447
 20
44.594539122942876
 30
0.0
 11
-38.305894297485906
 21
44.597638599020819
 31
0.0
  0
LINE
  5
39C
  8
DETAIL
  6
CONTINUOUS
 62
     5
 10
-38.305894297485906
 20
44.597638599020819
 30
0.0
 11
-37.735849124977108
 21
44.600736616927023
 31
0.0
  0
LINE
  5
39D
  8
DETAIL
  6
CONTINUOUS
 62
     5
 10
-50.283573390502397
 20
43.9947542033524
 30
0.0
 11
-50.266592035472172
 21
44.014707093014749
 31
0.0
  0
LINE
  5
39E
  8
DETAIL
  6
CONTINUOUS
 62
     5
 10
-50.266592035472172
 20
44.014707093014749
 30
0.0
 11
-50.249383571724707
 21
44.034468996844382
 31
0.0
  0
LINE
  5
39F
  8
DETAIL
  6
CONTINUOUS
 62
     5
 10
-50.249383571724707
 20
44.034468996844382
 30
0.0
 11
-50.249383571724707
 21
44.034468996844382
 31
0.0
  0
LINE
  5
3A0
  8
DETAIL
  6
CONTINUOUS
 62
     5
 10
-50.249383571724707
 20
44.034468996844382
 30
0.0
 11
-50.231770724897842
 21
44.053887679320873
 31
0.0
  0
LINE
  5
3A1
  8
DETAIL
  6
CONTINUOUS
 62
     5
 10
-50.231770724897842
 20
44.053887679320873
 30
0.0
 11
-50.213775558043039
 21
44.072965906173643
 31
0.0
  0
LINE
  5
3A2
  8
DETAIL
  6
CONTINUOUS
 62
     5
 10
-50.213775558043039
 20
44.072965906173643
 30
0.0
 11
-50.213775558043039
 21
44.072965906173643
 31
0.0
  0
LINE
  5
3A3
  8
DETAIL
  6
CONTINUOUS
 62
     5
 10
-50.213775558043039
 20
44.072965906173643
 30
0.0
 11
-50.19545523228328
 21
44.091735929279537
 31
0.0
  0
LINE
  5
3A4
  8
DETAIL
  6
CONTINUOUS
 62
     5
 10
-50.19545523228328
 20
44.091735929279537
 30
0.0
 11
-50.176807963607637
 21
44.110192943858138
 31
0.0
  0
LINE
  5
3A5
  8
DETAIL
  6
CONTINUOUS
 62
     5
 10
-50.176807963607637
 20
44.110192943858138
 30
0.0
 11
-50.176807963607637
 21
44.110192943858138
 31
0.0
  0
LINE
  5
3A6
  8
DETAIL
  6
CONTINUOUS
 62
     5
 10
-50.176807963607637
 20
44.110192943858138
 30
0.0
 11
-50.157826342501281
 21
44.128321187309588
 31
0.0
  0
LINE
  5
3A7
  8
DETAIL
  6
CONTINUOUS
 62
     5
 10
-50.157826342501281
 20
44.128321187309588
 30
0.0
 11
-50.138539402567638
 21
44.146098122415431
 31
0.0
  0
LINE
  5
3A8
  8
DETAIL
  6
CONTINUOUS
 62
     5
 10
-50.138539402567638
 20
44.146098122415431
 30
0.0
 11
-50.138539402567638
 21
44.146098122415431
 31
0.0
  0
LINE
  5
3A9
  8
DETAIL
  6
CONTINUOUS
 62
     5
 10
-50.138539402567638
 20
44.146098122415431
 30
0.0
 11
-50.118963581355487
 21
44.163515557085802
 31
0.0
  0
LINE
  5
3AA
  8
DETAIL
  6
CONTINUOUS
 62
     5
 10
-50.118963581355487
 20
44.163515557085802
 30
0.0
 11
-50.099028489073582
 21
44.180629454363711
 31
0.0
  0
LINE
  5
3AB
  8
DETAIL
  6
CONTINUOUS
 62
     5
 10
-50.099028489073582
 20
44.180629454363711
 30
0.0
 11
-50.099028489073582
 21
44.180629454363711
 31
0.0
  0
LINE
  5
3AC
  8
DETAIL
  6
CONTINUOUS
 62
     5
 10
-50.099028489073582
 20
44.180629454363711
 30
0.0
 11
-50.078674378332273
 21
44.197485329242248
 31
0.0
  0
LINE
  5
3AD
  8
DETAIL
  6
CONTINUOUS
 62
     5
 10
-50.078674378332273
 20
44.197485329242248
 30
0.0
 11
-50.057970898690087
 21
44.214022749382117
 31
0.0
  0
LINE
  5
3AE
  8
DETAIL
  6
CONTINUOUS
 62
     5
 10
-50.057970898690087
 20
44.214022749382117
 30
0.0
 11
-50.057970898690087
 21
44.214022749382117
 31
0.0
  0
LINE
  5
3AF
  8
DETAIL
  6
CONTINUOUS
 62
     5
 10
-50.057970898690087
 20
44.214022749382117
 30
0.0
 11
-50.03700003141239
 21
44.230172314029822
 31
0.0
  0
LINE
  5
3B0
  8
DETAIL
  6
CONTINUOUS
 62
     5
 10
-50.03700003141239
 20
44.230172314029822
 30
0.0
 11
-50.015763687644842
 21
44.245934696107582
 31
0.0
  0
LINE
  5
3B1
  8
DETAIL
  6
CONTINUOUS
 62
     5
 10
-50.015763687644842
 20
44.245934696107582
 30
0.0
 11
-50.015763687644842
 21
44.245934696107582
 31
0.0
  0
LINE
  5
3B2
  8
DETAIL
  6
CONTINUOUS
 62
     5
 10
-50.015763687644842
 20
44.245934696107582
 30
0.0
 11
-49.994248722146388
 21
44.261323615641103
 31
0.0
  0
LINE
  5
3B3
  8
DETAIL
  6
CONTINUOUS
 62
     5
 10
-49.994248722146388
 20
44.261323615641103
 30
0.0
 11
-49.972461834252847
 21
44.276334907394869
 31
0.0
  0
LINE
  5
3B4
  8
DETAIL
  6
CONTINUOUS
 62
     5
 10
-49.972461834252847
 20
44.276334907394869
 30
0.0
 11
-49.972461834252847
 21
44.276334907394869
 31
0.0
  0
LINE
  5
3B5
  8
DETAIL
  6
CONTINUOUS
 62
     5
 10
-49.972461834252847
 20
44.276334907394869
 30
0.0
 11
-49.950414857398641
 21
44.29096030166027
 31
0.0
  0
LINE
  5
3B6
  8
DETAIL
  6
CONTINUOUS
 62
     5
 10
-49.950414857398641
 20
44.29096030166027
 30
0.0
 11
-49.928120316830807
 21
44.305192996098739
 31
0.0
  0
LINE
  5
3B7
  8
DETAIL
  6
CONTINUOUS
 62
     5
 10
-49.928120316830807
 20
44.305192996098739
 30
0.0
 11
-49.928120316830807
 21
44.305192996098739
 31
0.0
  0
LINE
  5
3B8
  8
DETAIL
  6
CONTINUOUS
 62
     5
 10
-49.928120316830807
 20
44.305192996098739
 30
0.0
 11
-49.905585257792502
 21
44.319029559159503
 31
0.0
  0
LINE
  5
3B9
  8
DETAIL
  6
CONTINUOUS
 62
     5
 10
-49.905585257792502
 20
44.319029559159503
 30
0.0
 11
-49.882794113693883
 21
44.332478575074163
 31
0.0
  0
LINE
  5
3BA
  8
DETAIL
  6
CONTINUOUS
 62
     5
 10
-49.882794113693883
 20
44.332478575074163
 30
0.0
 11
-49.882794113693883
 21
44.332478575074163
 31
0.0
  0
LINE
  5
3BB
  8
DETAIL
  6
CONTINUOUS
 62
     5
 10
-49.882794113693883
 20
44.332478575074163
 30
0.0
 11
-49.859735010333452
 21
44.345546442528679
 31
0.0
  0
LINE
  5
3BC
  8
DETAIL
  6
CONTINUOUS
 62
     5
 10
-49.859735010333452
 20
44.345546442528679
 30
0.0
 11
-49.836433454894973
 21
44.358218802244693
 31
0.0
  0
LINE
  5
3BD
  8
DETAIL
  6
CONTINUOUS
 62
     5
 10
-49.836433454894973
 20
44.358218802244693
 30
0.0
 11
-49.836433454894973
 21
44.358218802244693
 31
0.0
  0
LINE
  5
3BE
  8
DETAIL
  6
CONTINUOUS
 62
     5
 10
-49.836433454894973
 20
44.358218802244693
 30
0.0
 11
-49.812919047273112
 21
44.37047945481217
 31
0.0
  0
LINE
  5
3BF
  8
DETAIL
  6
CONTINUOUS
 62
     5
 10
-49.812919047273112
 20
44.37047945481217
 30
0.0
 11
-49.78920037681668
 21
44.382325598260152
 31
0.0
  0
LINE
  5
3C0
  8
DETAIL
  6
CONTINUOUS
 62
     5
 10
-49.78920037681668
 20
44.382325598260152
 30
0.0
 11
-49.78920037681668
 21
44.382325598260152
 31
0.0
  0
LINE
  5
3C1
  8
DETAIL
  6
CONTINUOUS
 62
     5
 10
-49.78920037681668
 20
44.382325598260152
 30
0.0
 11
-49.765279878898127
 21
44.393757673747203
 31
0.0
  0
LINE
  5
3C2
  8
DETAIL
  6
CONTINUOUS
 62
     5
 10
-49.765279878898127
 20
44.393757673747203
 30
0.0
 11
-49.741156383532029
 21
44.404775697513038
 31
0.0
  0
LINE
  5
3C3
  8
DETAIL
  6
CONTINUOUS
 62
     5
 10
-49.741156383532029
 20
44.404775697513038
 30
0.0
 11
-49.741156383532029
 21
44.404775697513038
 31
0.0
  0
LINE
  5
3C4
  8
DETAIL
  6
CONTINUOUS
 62
     5
 10
-49.741156383532029
 20
44.404775697513038
 30
0.0
 11
-49.716836677387512
 21
44.415376655126771
 31
0.0
  0
LINE
  5
3C5
  8
DETAIL
  6
CONTINUOUS
 62
     5
 10
-49.716836677387512
 20
44.415376655126771
 30
0.0
 11
-49.692362979114471
 21
44.425545834395372
 31
0.0
  0
LINE
  5
3C6
  8
DETAIL
  6
CONTINUOUS
 62
     5
 10
-49.692362979114471
 20
44.425545834395372
 30
0.0
 11
-49.692362979114471
 21
44.425545834395372
 31
0.0
  0
LINE
  5
3C7
  8
DETAIL
  6
CONTINUOUS
 62
     5
 10
-49.692362979114471
 20
44.425545834395372
 30
0.0
 11
-49.667751834716903
 21
44.435277402677343
 31
0.0
  0
LINE
  5
3C8
  8
DETAIL
  6
CONTINUOUS
 62
     5
 10
-49.667751834716903
 20
44.435277402677343
 30
0.0
 11
-49.642881667637077
 21
44.444612743299551
 31
0.0
  0
LINE
  5
3C9
  8
DETAIL
  6
CONTINUOUS
 62
     5
 10
-49.642881667637077
 20
44.444612743299551
 30
0.0
 11
-49.642881667637077
 21
44.444612743299551
 31
0.0
  0
LINE
  5
3CA
  8
DETAIL
  6
CONTINUOUS
 62
     5
 10
-49.642881667637077
 20
44.444612743299551
 30
0.0
 11
-49.617650670657902
 21
44.453585436996711
 31
0.0
  0
LINE
  5
3CB
  8
DETAIL
  6
CONTINUOUS
 62
     5
 10
-49.617650670657902
 20
44.453585436996711
 30
0.0
 11
-49.592174236484652
 21
44.46215063816512
 31
0.0
  0
LINE
  5
3CC
  8
DETAIL
  6
CONTINUOUS
 62
     5
 10
-49.592174236484652
 20
44.46215063816512
 30
0.0
 11
-49.592174236484652
 21
44.46215063816512
 31
0.0
  0
LINE
  5
3CD
  8
DETAIL
  6
CONTINUOUS
 62
     5
 10
-49.592174236484652
 20
44.46215063816512
 30
0.0
 11
-49.566587344316311
 21
44.470257238401359
 31
0.0
  0
LINE
  5
3CE
  8
DETAIL
  6
CONTINUOUS
 62
     5
 10
-49.566587344316311
 20
44.470257238401359
 30
0.0
 11
-49.540886119396639
 21
44.477907504439557
 31
0.0
  0
LINE
  5
3CF
  8
DETAIL
  6
CONTINUOUS
 62
     5
 10
-49.540886119396639
 20
44.477907504439557
 30
0.0
 11
-49.540886119396639
 21
44.477907504439557
 31
0.0
  0
LINE
  5
3D0
  8
DETAIL
  6
CONTINUOUS
 62
     5
 10
-49.540886119396639
 20
44.477907504439557
 30
0.0
 11
-49.515043435644323
 21
44.485113124935971
 31
0.0
  0
LINE
  5
3D1
  8
DETAIL
  6
CONTINUOUS
 62
     5
 10
-49.515043435644323
 20
44.485113124935971
 30
0.0
 11
-49.489078015622901
 21
44.491870101096673
 31
0.0
  0
LINE
  5
3D2
  8
DETAIL
  6
CONTINUOUS
 62
     5
 10
-49.489078015622901
 20
44.491870101096673
 30
0.0
 11
-49.489078015622901
 21
44.491870101096673
 31
0.0
  0
LINE
  5
3D3
  8
DETAIL
  6
CONTINUOUS
 62
     5
 10
-49.489078015622901
 20
44.491870101096673
 30
0.0
 11
-49.46300890890096
 21
44.498172855931152
 31
0.0
  0
LINE
  5
3D4
  8
DETAIL
  6
CONTINUOUS
 62
     5
 10
-49.46300890890096
 20
44.498172855931152
 30
0.0
 11
-49.436810624413511
 21
44.504025187110081
 31
0.0
  0
LINE
  5
3D5
  8
DETAIL
  6
CONTINUOUS
 62
     5
 10
-49.436810624413511
 20
44.504025187110081
 30
0.0
 11
-49.436810624413511
 21
44.504025187110081
 31
0.0
  0
LINE
  5
3D6
  8
DETAIL
  6
CONTINUOUS
 62
     5
 10
-49.436810624413511
 20
44.504025187110081
 30
0.0
 11
-49.410479614408473
 21
44.509427783170793
 31
0.0
  0
LINE
  5
3D7
  8
DETAIL
  6
CONTINUOUS
 62
     5
 10
-49.410479614408473
 20
44.509427783170793
 30
0.0
 11
-49.384144645018409
 21
44.514359521453748
 31
0.0
  0
LINE
  5
3D8
  8
DETAIL
  6
CONTINUOUS
 62
     5
 10
-49.384144645018409
 20
44.514359521453748
 30
0.0
 11
-49.384144645018409
 21
44.514359521453748
 31
0.0
  0
LINE
  5
3D9
  8
DETAIL
  6
CONTINUOUS
 62
     5
 10
-49.384144645018409
 20
44.514359521453748
 30
0.0
 11
-49.357916684465863
 21
44.518803482618829
 31
0.0
  0
LINE
  5
3DA
  8
DETAIL
  6
CONTINUOUS
 62
     5
 10
-49.357916684465863
 20
44.518803482618829
 30
0.0
 11
-49.331703195448313
 21
44.52278137180032
 31
0.0
  0
LINE
  5
3DB
  8
DETAIL
  6
CONTINUOUS
 62
     5
 10
-49.331703195448313
 20
44.52278137180032
 30
0.0
 11
-49.331703195448313
 21
44.52278137180032
 31
0.0
  0
LINE
  5
3DC
  8
DETAIL
  6
CONTINUOUS
 62
     5
 10
-49.331703195448313
 20
44.52278137180032
 30
0.0
 11
-49.305393016612243
 21
44.52631696053863
 31
0.0
  0
LINE
  5
3DD
  8
DETAIL
  6
CONTINUOUS
 62
     5
 10
-49.305393016612243
 20
44.52631696053863
 30
0.0
 11
-49.27900399591806
 21
44.529403661522707
 31
0.0
  0
LINE
  5
3DE
  8
DETAIL
  6
CONTINUOUS
 62
     5
 10
-49.27900399591806
 20
44.529403661522707
 30
0.0
 11
-49.27900399591806
 21
44.529403661522707
 31
0.0
  0
LINE
  5
3DF
  8
DETAIL
  6
CONTINUOUS
 62
     5
 10
-49.27900399591806
 20
44.529403661522707
 30
0.0
 11
-49.25257751768914
 21
44.532033383395998
 31
0.0
  0
LINE
  5
3E0
  8
DETAIL
  6
CONTINUOUS
 62
     5
 10
-49.25257751768914
 20
44.532033383395998
 30
0.0
 11
-49.226120102378673
 21
44.534222377469263
 31
0.0
  0
LINE
  5
3E1
  8
DETAIL
  6
CONTINUOUS
 62
     5
 10
-49.226120102378673
 20
44.534222377469263
 30
0.0
 11
-49.226120102378673
 21
44.534222377469263
 31
0.0
  0
LINE
  5
3E2
  8
DETAIL
  6
CONTINUOUS
 62
     5
 10
-49.226120102378673
 20
44.534222377469263
 30
0.0
 11
-49.199632166014112
 21
44.535976227765723
 31
0.0
  0
LINE
  5
3E3
  8
DETAIL
  6
CONTINUOUS
 62
     5
 10
-49.199632166014112
 20
44.535976227765723
 30
0.0
 11
-49.173124570781049
 21
44.537233506489017
 31
0.0
  0
LINE
  5
3E4
  8
DETAIL
  6
CONTINUOUS
 62
     5
 10
-49.173124570781049
 20
44.537233506489017
 30
0.0
 11
-49.173124570781049
 21
44.537233506489017
 31
0.0
  0
LINE
  5
3E5
  8
DETAIL
  6
CONTINUOUS
 62
     5
 10
-49.173124570781049
 20
44.537233506489017
 30
0.0
 11
-49.146609060214033
 21
44.537976959040869
 31
0.0
  0
LINE
  5
3E6
  8
DETAIL
  6
CONTINUOUS
 62
     5
 10
-49.146609060214033
 20
44.537976959040869
 30
0.0
 11
-49.120090457076131
 21
44.538433035430621
 31
0.0
  0
LINE
  5
3E7
  8
DETAIL
  6
CONTINUOUS
 62
     5
 10
-30.645368499094388
 20
47.86061991197338
 30
0.0
 11
-1.6428205667793909
 21
48.113721313397647
 31
0.0
  0
LINE
  5
3E8
  8
DETAIL
  6
CONTINUOUS
 62
     5
 10
-59.174202137609093
 20
-47.611652552302857
 30
0.0
 11
-37.689393669094329
 21
-47.799147635347559
 31
0.0
  0
ARC
  5
3E9
  8
DETAIL
  6
CONTINUOUS
 62
     5
 10
-59.169811427915533
 20
-47.108527055509597
 30
0.0
 40
0.503144654999994
 50
180.0
 51
269.49999999991729
  0
LINE
  5
3EA
  8
DETAIL
  6
CONTINUOUS
 62
     5
 10
-55.849056704926276
 20
-27.134657706830581
 30
0.0
 11
-54.842767394929297
 21
-27.117092861595381
 31
0.0
  0
LINE
  5
3EB
  8
DETAIL
  6
CONTINUOUS
 62
     5
 10
-55.849056704926276
 20
27.134657706830541
 30
0.0
 11
-54.842767394929297
 21
27.117092861595381
 31
0.0
  0
LINE
  5
3EC
  8
DETAIL
  6
CONTINUOUS
 62
     5
 10
-30.645368499094388
 20
-58.113199306588022
 30
0.0
 11
-37.689393669094329
 21
-58.113199306588022
 31
0.0
  0
LINE
  5
3ED
  8
DETAIL
  6
CONTINUOUS
 62
     5
 10
-30.645368499094388
 20
58.113215998411953
 30
0.0
 11
-37.689393669094329
 21
58.113215998411953
 31
0.0
  0
LINE
  5
3EE
  8
DETAIL
  6
CONTINUOUS
 62
     5
 10
-30.645368499094388
 20
58.113199306588022
 30
0.0
 11
-30.645368499094388
 21
-58.113199306588022
 31
0.0
  0
LINE
  5
3EF
  8
DETAIL
  6
CONTINUOUS
 62
     5
 10
-37.689393669094329
 20
58.113199306588022
 30
0.0
 11
-37.689393669094329
 21
-58.113199306588022
 31
0.0
  0
LINE
  5
3F0
  8
DETAIL
  6
CONTINUOUS
 62
     5
 10
-90.566037899999984
 20
0.0
 30
0.0
 11
-90.566037899999984
 21
-22.555594697385171
 31
0.0
  0
LINE
  5
3F1
  8
DETAIL
  6
CONTINUOUS
 62
     5
 10
-66.415094460000205
 20
0.0
 30
0.0
 11
-66.415094460000205
 21
-27.028045273239911
 31
0.0
  0
LINE
  5
3F2
  8
DETAIL
  6
CONTINUOUS
 62
     5
 10
-65.920730889997117
 20
-35.884485261719867
 30
0.0
 11
-55.849056704926276
 21
-36.060286988558737
 31
0.0
  0
LINE
  5
3F3
  8
DETAIL
  6
CONTINUOUS
 62
     5
 10
-66.415094460000205
 20
-25.94378423570236
 30
0.0
 11
-87.599856483001403
 21
-25.574002839107589
 31
0.0
  0
LINE
  5
3F4
  8
DETAIL
  6
CONTINUOUS
 62
     5
 10
-66.415094460000205
 20
-35.381417238065922
 30
0.0
 11
-66.415094460000205
 21
-25.94378423570236
 31
0.0
  0
ARC
  5
3F5
  8
DETAIL
  6
CONTINUOUS
 62
     5
 10
-87.547169970000269
 20
-22.555594697385171
 30
0.0
 40
3.0188679300000358
 50
179.99999819099901
 51
268.9999999456976
  0
ARC
  5
3F6
  8
DETAIL
  6
CONTINUOUS
 62
     5
 10
-65.911949805000177
 20
-35.381417238065922
 30
0.0
 40
0.5031446550000021
 50
180.0
 51
269.00000000002427
  0
LINE
  5
3F7
  8
DETAIL
  6
CONTINUOUS
 62
     5
 10
-90.566037900000211
 20
-22.555538252605231
 30
0.0
 11
-90.566037900000211
 21
-22.397994672344812
 31
0.0
  0
ARC
  5
3F8
  8
DETAIL
  6
CONTINUOUS
 62
     5
 10
-87.547169970000269
 20
22.2721878665822
 30
0.0
 40
3.018867929999999
 50
91.000000005702191
 51
180.00000025760031
  0
LINE
  5
3F9
  8
DETAIL
  6
CONTINUOUS
 62
     5
 10
-66.415094460000205
 20
27.048801183919078
 30
0.0
 11
-66.415094460000205
 21
28.62429564091299
 31
0.0
  0
LINE
  5
3FA
  8
DETAIL
  6
CONTINUOUS
 62
     5
 10
-55.849056740924638
 20
29.34409347295977
 30
0.0
 11
-65.922742514353217
 21
29.128738205953081
 31
0.0
  0
ARC
  5
3FB
  8
DETAIL
  6
CONTINUOUS
 62
     5
 10
-65.911949805000177
 20
28.625708173544481
 30
0.0
 40
0.5031446550000001
 50
91.224680657408072
 51
179.99999999979809
  0
LINE
  5
3FC
  8
DETAIL
  6
CONTINUOUS
 62
     5
 10
-66.415094460000205
 20
25.660377404999991
 30
0.0
 11
-87.599856480384787
 21
25.29059600840532
 31
0.0
  0
LINE
  5
3FD
  8
DETAIL
  6
CONTINUOUS
 62
     5
 10
-66.415094460000205
 20
0.0
 30
0.0
 11
-66.415094460000205
 21
27.028045273239901
 31
0.0
  0
LINE
  5
3FE
  8
DETAIL
  6
CONTINUOUS
 62
     5
 10
-90.566037899999984
 20
0.0
 30
0.0
 11
-90.566037899999984
 21
22.271159481775339
 31
0.0
  0
LINE
  5
3FF
  8
DETAIL
  6
CONTINUOUS
 62
     5
 10
-55.849056704926276
 20
-27.134657706830581
 30
0.0
 11
-66.415094460000205
 21
-26.950226831784551
 31
0.0
  0
LINE
  5
400
  8
DETAIL
  6
CONTINUOUS
 62
     5
 10
-55.849056704926276
 20
27.134657706830541
 30
0.0
 11
-66.415094460000205
 21
26.950226831784509
 31
0.0
  0
LINE
  5
401
  8
DETAIL
  6
CONTINUOUS
 62
     5
 10
-30.645368499094388
 20
51.84893554690084
 30
0.0
 11
0.0
 21
51.84893554690084
 31
0.0
  0
ARC
  5
402
  8
OUTLINE
  6
CONTINUOUS
 62
     3
 10
-10032.704420700011
 20
0.0
 30
0.0
 40
10062.893099999999
 50
359.63506793720052
 51
0.4498159098998624
  0
LINE
  5
403
  8
OUTLINE
  6
CONTINUOUS
 62
     3
 10
28.889873726828451
 20
-79.998870178306191
 30
0.0
 11
0.51192574001675
 21
-80.494209103002433
 31
0.0
  0
ARC
  5
404
  8
OUTLINE
  6
CONTINUOUS
 62
     3
 10
28.872311556733621
 20
-78.99273413099823
 30
0.0
 40
1.0062893100000561
 50
271.00000000000182
 51
359.55018409019789
  0
ARC
  5
405
  8
OUTLINE
  6
CONTINUOUS
 62
     3
 10
-10032.7044207
 20
0.0
 30
0.0
 40
10062.893099999999
 50
359.55018409010017
 51
359.63366406669962
  0
LINE
  5
406
  8
OUTLINE
  6
CONTINUOUS
 62
     3
 10
29.98299309786626
 20
-64.339367574124523
 30
0.0
 11
29.984566531026299
 21
-64.092809939564461
 31
0.0
  0
LINE
  5
407
  8
OUTLINE
  6
CONTINUOUS
 62
     3
 10
28.889873726828451
 20
79.998870178406733
 30
0.0
 11
0.5119257399970821
 21
80.494209102977464
 31
0.0
  0
LINE
  5
408
  8
OUTLINE
  6
CONTINUOUS
 62
     3
 10
0.0
 20
0.0
 30
0.0
 11
0.0
 21
-79.991141079370493
 31
0.0
  0
ARC
  5
409
  8
OUTLINE
  6
CONTINUOUS
 62
     3
 10
0.5031446550000283
 20
79.991132038417817
 30
0.0
 40
0.5031446550000021
 50
89.00001796619145
 51
179.99897045679859
  0
ARC
  5
40A
  8
OUTLINE
  6
CONTINUOUS
 62
     3
 10
28.872311556733621
 20
78.992734131098786
 30
0.0
 40
1.0062893100000141
 50
0.4517529808040189
 51
88.999999999998224
  0
LINE
  5
40B
  8
OUTLINE
  6
CONTINUOUS
 62
     3
 10
0.0
 20
79.991141079424139
 30
0.0
 11
0.0
 21
0.0
 31
0.0
  0
ARC
  5
40C
  8
OUTLINE
  6
CONTINUOUS
 62
     3
 10
0.5031446550000283
 20
-79.991141079370436
 30
0.0
 40
0.5031446550000021
 50
180.00000000000159
 51
271.00000000011238
  0
LINE
  5
40D
  8
OUTLINE
  6
CONTINUOUS
 62
     3
 10
-30.645368499094388
 20
-47.860619911730822
 30
0.0
 11
-1.6428205667793909
 21
-48.113721313172071
 31
0.0
  0
LINE
  5
40E
  8
OUTLINE
  6
CONTINUOUS
 62
     3
 10
-59.672956082915562
 20
-47.108527055509569
 30
0.0
 11
-59.672956082915562
 21
-35.993540576636008
 31
0.0
  0
ARC
  5
40F
  8
OUTLINE
  6
CONTINUOUS
 62
     3
 10
-2.0114013718741721
 20
-90.332066107058594
 30
0.0
 40
42.219949391122093
 50
87.260097950299553
 51
89.499800664102324
  0
LINE
  5
410
  8
OUTLINE
  6
CONTINUOUS
 62
     3
 10
-59.174202137609093
 20
-47.611652552302857
 30
0.0
 11
-37.689393669094329
 21
-47.799147635347559
 31
0.0
  0
ARC
  5
411
  8
OUTLINE
  6
CONTINUOUS
 62
     3
 10
-59.169811427915533
 20
-47.108527055509569
 30
0.0
 40
0.503144654999994
 50
180.0
 51
269.49999999991729
  0
LINE
  5
412
  8
OUTLINE
  6
CONTINUOUS
 62
     3
 10
-30.645368499094388
 20
-58.113199306588022
 30
0.0
 11
-37.689393669094329
 21
-58.113199306588022
 31
0.0
  0
LINE
  5
413
  8
OUTLINE
  6
CONTINUOUS
 62
     3
 10
-30.645368499094388
 20
58.113215998411953
 30
0.0
 11
-37.689393669094329
 21
58.113215998411953
 31
0.0
  0
LINE
  5
414
  8
OUTLINE
  6
CONTINUOUS
 62
     3
 10
-30.645368499094388
 20
58.113199306588022
 30
0.0
 11
-30.645368499094388
 21
-58.113199306588022
 31
0.0
  0
LINE
  5
415
  8
OUTLINE
  6
CONTINUOUS
 62
     3
 10
-37.689393669094329
 20
58.113199306588022
 30
0.0
 11
-37.689393669094329
 21
-58.113199306588022
 31
0.0
  0
LINE
  5
416
  8
OUTLINE
  6
CONTINUOUS
 62
     3
 10
-90.566037899999984
 20
0.0
 30
0.0
 11
-90.566037899999984
 21
-22.555594697385171
 31
0.0
  0
LINE
  5
417
  8
OUTLINE
  6
CONTINUOUS
 62
     3
 10
-65.920730889997117
 20
-35.884485261719867
 30
0.0
 11
-55.849056704926276
 21
-36.060286988558737
 31
0.0
  0
LINE
  5
418
  8
OUTLINE
  6
CONTINUOUS
 62
     3
 10
-66.415094460000205
 20
-25.94378423570236
 30
0.0
 11
-87.599856483001403
 21
-25.574002839107589
 31
0.0
  0
LINE
  5
419
  8
OUTLINE
  6
CONTINUOUS
 62
     3
 10
-66.415094460000205
 20
-35.381417238065922
 30
0.0
 11
-66.415094460000205
 21
-25.94378423570236
 31
0.0
  0
ARC
  5
41A
  8
OUTLINE
  6
CONTINUOUS
 62
     3
 10
-87.547169970000269
 20
-22.555594697385171
 30
0.0
 40
3.0188679300000358
 50
179.99999819099901
 51
268.9999999456976
  0
ARC
  5
41B
  8
OUTLINE
  6
CONTINUOUS
 62
     3
 10
-65.911949805000177
 20
-35.381417238065922
 30
0.0
 40
0.5031446550000021
 50
180.0
 51
269.00000000002427
  0
LINE
  5
41C
  8
OUTLINE
  6
CONTINUOUS
 62
     3
 10
-90.566037900000211
 20
-22.555538252605231
 30
0.0
 11
-90.566037900000211
 21
-22.397994672344812
 31
0.0
  0
ARC
  5
41D
  8
OUTLINE
  6
CONTINUOUS
 62
     3
 10
-87.547169970000269
 20
22.2721878665822
 30
0.0
 40
3.018867929999999
 50
91.000000005702191
 51
180.00000025760031
  0
LINE
  5
41E
  8
OUTLINE
  6
CONTINUOUS
 62
     3
 10
-66.415094460000205
 20
25.660377404999991
 30
0.0
 11
-87.599856480384787
 21
25.29059600840532
 31
0.0
  0
LINE
  5
41F
  8
OUTLINE
  6
CONTINUOUS
 62
     3
 10
-90.566037899999984
 20
0.0
 30
0.0
 11
-90.566037899999984
 21
22.271159481775339
 31
0.0
  0
LINE
  5
420
  8
NOTE
  6
CONTINUOUS
 62
     4
 10
0.0
 20
27.510942853512599
 30
0.0
 11
0.0
 21
79.554578298396763
 31
0.0
  0
LINE
  5
421
  8
NOTE
  6
CONTINUOUS
 62
     4
 10
26.021817722442051
 20
53.532760575954683
 30
0.0
 11
-26.021817722442169
 21
53.532760575954711
 31
0.0
  0
LINE
  5
422
  8
DETAIL
  6
CONTINUOUS
 62
     4
 10
-3.1069402818735679
 20
58.911572840281387
 30
0.0
 11
0.0
 21
53.532760575954697
 31
0.0
  0
LINE
  5
423
  8
DETAIL
  6
CONTINUOUS
 62
     4
 10
0.0
 20
53.532760575954697
 30
0.0
 11
-0.0012737193609187
 21
59.744418781912181
 31
0.0
  0
LINE
  5
424
  8
DETAIL
  6
CONTINUOUS
 62
     4
 10
0.0
 20
53.532760575954697
 30
0.0
 11
-3.1082140012344861
 21
65.123231046238871
 31
0.0
  0
CIRCLE
  5
425
  8
FIX
  6
CONTINUOUS
 62
    11
 39
50.315494059942047
 10
0.0
 20
53.532760575954697
 30
0.0
 40
7.0441691683918863
  0
LINE
  5
426
  8
DETAIL
  6
CONTINUOUS
 62
     5
 10
-57.491533608238683
 20
45.506025834792098
 30
0.0
 11
-57.491454814152227
 21
45.49920946047903
 31
0.0
  0
LINE
  5
427
  8
DETAIL
  6
CONTINUOUS
 62
     5
 10
-57.491454814152227
 20
45.49920946047903
 30
0.0
 11
-57.491303006225387
 21
45.492393047161819
 31
0.0
  0
LINE
  5
428
  8
DETAIL
  6
CONTINUOUS
 62
     5
 10
-57.491303006225387
 20
45.492393047161819
 30
0.0
 11
-57.491303006225387
 21
45.492393047161819
 31
0.0
  0
LINE
  5
429
  8
DETAIL
  6
CONTINUOUS
 62
     5
 10
-57.491303006225387
 20
45.492393047161819
 30
0.0
 11
-57.491020760393539
 21
45.485577504878471
 31
0.0
  0
LINE
  5
42A
  8
DETAIL
  6
CONTINUOUS
 62
     5
 10
-57.491020760393539
 20
45.485577504878471
 30
0.0
 11
-57.490613011692069
 21
45.478767539836753
 31
0.0
  0
LINE
  5
42B
  8
DETAIL
  6
CONTINUOUS
 62
     5
 10
-57.490613011692069
 20
45.478767539836753
 30
0.0
 11
-57.490613011692069
 21
45.478767539836753
 31
0.0
  0
LINE
  5
42C
  8
DETAIL
  6
CONTINUOUS
 62
     5
 10
-57.490613011692069
 20
45.478767539836753
 30
0.0
 11
-57.490095689553968
 21
45.471966342672509
 31
0.0
  0
LINE
  5
42D
  8
DETAIL
  6
CONTINUOUS
 62
     5
 10
-57.490095689553968
 20
45.471966342672509
 30
0.0
 11
-57.489466341898037
 21
45.465167245565887
 31
0.0
  0
LINE
  5
42E
  8
DETAIL
  6
CONTINUOUS
 62
     5
 10
-57.489466341898037
 20
45.465167245565887
 30
0.0
 11
-57.489466341898037
 21
45.465167245565887
 31
0.0
  0
LINE
  5
42F
  8
DETAIL
  6
CONTINUOUS
 62
     5
 10
-57.489466341898037
 20
45.465167245565887
 30
0.0
 11
-57.488720713003417
 21
45.45837002549635
 31
0.0
  0
LINE
  5
430
  8
DETAIL
  6
CONTINUOUS
 62
     5
 10
-57.488720713003417
 20
45.45837002549635
 30
0.0
 11
-57.487865714102213
 21
45.451610097097813
 31
0.0
  0
LINE
  5
431
  8
DETAIL
  6
CONTINUOUS
 62
     5
 10
-57.487865714102213
 20
45.451610097097813
 30
0.0
 11
-57.487865714102213
 21
45.451610097097813
 31
0.0
  0
LINE
  5
432
  8
DETAIL
  6
CONTINUOUS
 62
     5
 10
-57.487865714102213
 20
45.451610097097813
 30
0.0
 11
-57.486904476590787
 21
45.44489861137729
 31
0.0
  0
LINE
  5
433
  8
DETAIL
  6
CONTINUOUS
 62
     5
 10
-57.486904476590787
 20
45.44489861137729
 30
0.0
 11
-57.485813845564607
 21
45.438114027181634
 31
0.0
  0
LINE
  5
434
  8
DETAIL
  6
CONTINUOUS
 62
     5
 10
-57.485813845564607
 20
45.438114027181634
 30
0.0
 11
-57.485813845564607
 21
45.438114027181634
 31
0.0
  0
LINE
  5
435
  8
DETAIL
  6
CONTINUOUS
 62
     5
 10
-57.485813845564607
 20
45.438114027181634
 30
0.0
 11
-57.484573086568147
 21
45.431153951103717
 31
0.0
  0
LINE
  5
436
  8
DETAIL
  6
CONTINUOUS
 62
     5
 10
-57.484573086568147
 20
45.431153951103717
 30
0.0
 11
-57.483197433237237
 21
45.424125272880232
 31
0.0
  0
LINE
  5
437
  8
DETAIL
  6
CONTINUOUS
 62
     5
 10
-57.483197433237237
 20
45.424125272880232
 30
0.0
 11
-57.483197433237237
 21
45.424125272880232
 31
0.0
  0
LINE
  5
438
  8
DETAIL
  6
CONTINUOUS
 62
     5
 10
-57.483197433237237
 20
45.424125272880232
 30
0.0
 11
-57.481706373846571
 21
45.417154467455212
 31
0.0
  0
LINE
  5
439
  8
DETAIL
  6
CONTINUOUS
 62
     5
 10
-57.481706373846571
 20
45.417154467455212
 30
0.0
 11
-57.48010044713272
 21
45.410237067456457
 31
0.0
  0
LINE
  5
43A
  8
DETAIL
  6
CONTINUOUS
 62
     5
 10
-57.48010044713272
 20
45.410237067456457
 30
0.0
 11
-57.48010044713272
 21
45.410237067456457
 31
0.0
  0
LINE
  5
43B
  8
DETAIL
  6
CONTINUOUS
 62
     5
 10
-57.48010044713272
 20
45.410237067456457
 30
0.0
 11
-57.478375798508978
 21
45.403342168247349
 31
0.0
  0
LINE
  5
43C
  8
DETAIL
  6
CONTINUOUS
 62
     5
 10
-57.478375798508978
 20
45.403342168247349
 30
0.0
 11
-57.476529949633573
 21
45.39646405845005
 31
0.0
  0
LINE
  5
43D
  8
DETAIL
  6
CONTINUOUS
 62
     5
 10
-57.476529949633573
 20
45.39646405845005
 30
0.0
 11
-57.476529949633573
 21
45.39646405845005
 31
0.0
  0
LINE
  5
43E
  8
DETAIL
  6
CONTINUOUS
 62
     5
 10
-57.476529949633573
 20
45.39646405845005
 30
0.0
 11
-57.474564127366072
 21
45.389610867321807
 31
0.0
  0
LINE
  5
43F
  8
DETAIL
  6
CONTINUOUS
 62
     5
 10
-57.474564127366072
 20
45.389610867321807
 30
0.0
 11
-57.472493003122857
 21
45.382820893400741
 31
0.0
  0
LINE
  5
440
  8
DETAIL
  6
CONTINUOUS
 62
     5
 10
-57.472493003122857
 20
45.382820893400741
 30
0.0
 11
-57.472493003122857
 21
45.382820893400741
 31
0.0
  0
LINE
  5
441
  8
DETAIL
  6
CONTINUOUS
 62
     5
 10
-57.472493003122857
 20
45.382820893400741
 30
0.0
 11
-57.4703208208416
 21
45.376103509949608
 31
0.0
  0
LINE
  5
442
  8
DETAIL
  6
CONTINUOUS
 62
     5
 10
-57.4703208208416
 20
45.376103509949608
 30
0.0
 11
-57.467996669983343
 21
45.369322219848279
 31
0.0
  0
LINE
  5
443
  8
DETAIL
  6
CONTINUOUS
 62
     5
 10
-57.467996669983343
 20
45.369322219848279
 30
0.0
 11
-57.467996669983343
 21
45.369322219848279
 31
0.0
  0
LINE
  5
444
  8
DETAIL
  6
CONTINUOUS
 62
     5
 10
-57.467996669983343
 20
45.369322219848279
 30
0.0
 11
-57.465476560736192
 21
45.362362704571957
 31
0.0
  0
LINE
  5
445
  8
DETAIL
  6
CONTINUOUS
 62
     5
 10
-57.465476560736192
 20
45.362362704571957
 30
0.0
 11
-57.462799340670813
 21
45.355345230359802
 31
0.0
  0
LINE
  5
446
  8
DETAIL
  6
CONTINUOUS
 62
     5
 10
-57.462799340670813
 20
45.355345230359802
 30
0.0
 11
-57.462799340670813
 21
45.355345230359802
 31
0.0
  0
LINE
  5
447
  8
DETAIL
  6
CONTINUOUS
 62
     5
 10
-57.462799340670813
 20
45.355345230359802
 30
0.0
 11
-57.460012648981333
 21
45.348411917931777
 31
0.0
  0
LINE
  5
448
  8
DETAIL
  6
CONTINUOUS
 62
     5
 10
-57.460012648981333
 20
45.348411917931777
 30
0.0
 11
-57.457116453969661
 21
45.34155772116717
 31
0.0
  0
LINE
  5
449
  8
DETAIL
  6
CONTINUOUS
 62
     5
 10
-57.457116453969661
 20
45.34155772116717
 30
0.0
 11
-57.457116453969661
 21
45.34155772116717
 31
0.0
  0
LINE
  5
44A
  8
DETAIL
  6
CONTINUOUS
 62
     5
 10
-57.457116453969661
 20
45.34155772116717
 30
0.0
 11
-57.454100251288999
 21
45.33474768222024
 31
0.0
  0
LINE
  5
44B
  8
DETAIL
  6
CONTINUOUS
 62
     5
 10
-57.454100251288999
 20
45.33474768222024
 30
0.0
 11
-57.45095931688968
 21
45.3279743631849
 31
0.0
  0
LINE
  5
44C
  8
DETAIL
  6
CONTINUOUS
 62
     5
 10
-57.45095931688968
 20
45.3279743631849
 30
0.0
 11
-57.45095931688968
 21
45.3279743631849
 31
0.0
  0
LINE
  5
44D
  8
DETAIL
  6
CONTINUOUS
 62
     5
 10
-57.45095931688968
 20
45.3279743631849
 30
0.0
 11
-57.447696509222268
 21
45.321246477910307
 31
0.0
  0
LINE
  5
44E
  8
DETAIL
  6
CONTINUOUS
 62
     5
 10
-57.447696509222268
 20
45.321246477910307
 30
0.0
 11
-57.444339236441117
 21
45.314609827327651
 31
0.0
  0
LINE
  5
44F
  8
DETAIL
  6
CONTINUOUS
 62
     5
 10
-57.444339236441117
 20
45.314609827327651
 30
0.0
 11
-57.444339236441117
 21
45.314609827327651
 31
0.0
  0
LINE
  5
450
  8
DETAIL
  6
CONTINUOUS
 62
     5
 10
-57.444339236441117
 20
45.314609827327651
 30
0.0
 11
-57.440895049348462
 21
45.308075517071508
 31
0.0
  0
LINE
  5
451
  8
DETAIL
  6
CONTINUOUS
 62
     5
 10
-57.440895049348462
 20
45.308075517071508
 30
0.0
 11
-57.43726751963333
 21
45.301478784509619
 31
0.0
  0
LINE
  5
452
  8
DETAIL
  6
CONTINUOUS
 62
     5
 10
-57.43726751963333
 20
45.301478784509619
 30
0.0
 11
-57.43726751963333
 21
45.301478784509619
 31
0.0
  0
LINE
  5
453
  8
DETAIL
  6
CONTINUOUS
 62
     5
 10
-57.43726751963333
 20
45.301478784509619
 30
0.0
 11
-57.43337404995362
 21
45.294681809763432
 31
0.0
  0
LINE
  5
454
  8
DETAIL
  6
CONTINUOUS
 62
     5
 10
-57.43337404995362
 20
45.294681809763432
 30
0.0
 11
-57.429291345954979
 21
45.287830412237312
 31
0.0
  0
LINE
  5
455
  8
DETAIL
  6
CONTINUOUS
 62
     5
 10
-57.429291345954979
 20
45.287830412237312
 30
0.0
 11
-57.429291345954979
 21
45.287830412237312
 31
0.0
  0
LINE
  5
456
  8
DETAIL
  6
CONTINUOUS
 62
     5
 10
-57.429291345954979
 20
45.287830412237312
 30
0.0
 11
-57.425112375771718
 21
45.281096628661523
 31
0.0
  0
LINE
  5
457
  8
DETAIL
  6
CONTINUOUS
 62
     5
 10
-57.425112375771718
 20
45.281096628661523
 30
0.0
 11
-57.420835854502791
 21
45.27447372578623
 31
0.0
  0
LINE
  5
458
  8
DETAIL
  6
CONTINUOUS
 62
     5
 10
-57.420835854502791
 20
45.27447372578623
 30
0.0
 11
-57.420835854502791
 21
45.27447372578623
 31
0.0
  0
LINE
  5
459
  8
DETAIL
  6
CONTINUOUS
 62
     5
 10
-57.420835854502791
 20
45.27447372578623
 30
0.0
 11
-57.416440148078443
 21
45.267918617412178
 31
0.0
  0
LINE
  5
45A
  8
DETAIL
  6
CONTINUOUS
 62
     5
 10
-57.416440148078443
 20
45.267918617412178
 30
0.0
 11
-57.411916478788847
 21
45.261421575521318
 31
0.0
  0
LINE
  5
45B
  8
DETAIL
  6
CONTINUOUS
 62
     5
 10
-57.411916478788847
 20
45.261421575521318
 30
0.0
 11
-57.411916478788847
 21
45.261421575521318
 31
0.0
  0
LINE
  5
45C
  8
DETAIL
  6
CONTINUOUS
 62
     5
 10
-57.411916478788847
 20
45.261421575521318
 30
0.0
 11
-57.407269989913161
 21
45.254992545954543
 31
0.0
  0
LINE
  5
45D
  8
DETAIL
  6
CONTINUOUS
 62
     5
 10
-57.407269989913161
 20
45.254992545954543
 30
0.0
 11
-57.402548652324292
 21
45.248686811806898
 31
0.0
  0
LINE
  5
45E
  8
DETAIL
  6
CONTINUOUS
 62
     5
 10
-57.402548652324292
 20
45.248686811806898
 30
0.0
 11
-57.402548652324292
 21
45.248686811806898
 31
0.0
  0
LINE
  5
45F
  8
DETAIL
  6
CONTINUOUS
 62
     5
 10
-57.402548652324292
 20
45.248686811806898
 30
0.0
 11
-57.397765102110597
 21
45.242517313687451
 31
0.0
  0
LINE
  5
460
  8
DETAIL
  6
CONTINUOUS
 62
     5
 10
-57.397765102110597
 20
45.242517313687451
 30
0.0
 11
-57.392747808621273
 21
45.236282285008073
 31
0.0
  0
LINE
  5
461
  8
DETAIL
  6
CONTINUOUS
 62
     5
 10
-57.392747808621273
 20
45.236282285008073
 30
0.0
 11
-57.392747808621273
 21
45.236282285008073
 31
0.0
  0
LINE
  5
462
  8
DETAIL
  6
CONTINUOUS
 62
     5
 10
-57.392747808621273
 20
45.236282285008073
 30
0.0
 11
-57.387350501131777
 21
45.229813353376102
 31
0.0
  0
LINE
  5
463
  8
DETAIL
  6
CONTINUOUS
 62
     5
 10
-57.387350501131777
 20
45.229813353376102
 30
0.0
 11
-57.38171211536006
 21
45.223290430374931
 31
0.0
  0
LINE
  5
464
  8
DETAIL
  6
CONTINUOUS
 62
     5
 10
-57.38171211536006
 20
45.223290430374931
 30
0.0
 11
-57.38171211536006
 21
45.223290430374931
 31
0.0
  0
LINE
  5
465
  8
DETAIL
  6
CONTINUOUS
 62
     5
 10
-57.38171211536006
 20
45.223290430374931
 30
0.0
 11
-57.376000080071442
 21
45.21692527308263
 31
0.0
  0
LINE
  5
466
  8
DETAIL
  6
CONTINUOUS
 62
     5
 10
-57.376000080071442
 20
45.21692527308263
 30
0.0
 11
-57.370210589779042
 21
45.210708736577857
 31
0.0
  0
LINE
  5
467
  8
DETAIL
  6
CONTINUOUS
 62
     5
 10
-57.370210589779042
 20
45.210708736577857
 30
0.0
 11
-57.370210589779042
 21
45.210708736577857
 31
0.0
  0
LINE
  5
468
  8
DETAIL
  6
CONTINUOUS
 62
     5
 10
-57.370210589779042
 20
45.210708736577857
 30
0.0
 11
-57.364303299559083
 21
45.204587000289258
 31
0.0
  0
LINE
  5
469
  8
DETAIL
  6
CONTINUOUS
 62
     5
 10
-57.364303299559083
 20
45.204587000289258
 30
0.0
 11
-57.358262940988077
 21
45.198548443044139
 31
0.0
  0
LINE
  5
46A
  8
DETAIL
  6
CONTINUOUS
 62
     5
 10
-57.358262940988077
 20
45.198548443044139
 30
0.0
 11
-57.358262940988077
 21
45.198548443044139
 31
0.0
  0
LINE
  5
46B
  8
DETAIL
  6
CONTINUOUS
 62
     5
 10
-57.358262940988077
 20
45.198548443044139
 30
0.0
 11
-57.352098246830678
 21
45.192605019620473
 31
0.0
  0
LINE
  5
46C
  8
DETAIL
  6
CONTINUOUS
 62
     5
 10
-57.352098246830678
 20
45.192605019620473
 30
0.0
 11
-57.345888878097071
 21
45.186820789201398
 31
0.0
  0
LINE
  5
46D
  8
DETAIL
  6
CONTINUOUS
 62
     5
 10
-57.345888878097071
 20
45.186820789201398
 30
0.0
 11
-57.345888878097071
 21
45.186820789201398
 31
0.0
  0
LINE
  5
46E
  8
DETAIL
  6
CONTINUOUS
 62
     5
 10
-57.345888878097071
 20
45.186820789201398
 30
0.0
 11
-57.33965503048772
 21
45.18121018281667
 31
0.0
  0
LINE
  5
46F
  8
DETAIL
  6
CONTINUOUS
 62
     5
 10
-57.33965503048772
 20
45.18121018281667
 30
0.0
 11
-57.333108110215903
 21
45.175537014476603
 31
0.0
  0
LINE
  5
470
  8
DETAIL
  6
CONTINUOUS
 62
     5
 10
-57.333108110215903
 20
45.175537014476603
 30
0.0
 11
-57.333108110215903
 21
45.175537014476603
 31
0.0
  0
LINE
  5
471
  8
DETAIL
  6
CONTINUOUS
 62
     5
 10
-57.333108110215903
 20
45.175537014476603
 30
0.0
 11
-57.326002773842447
 21
45.16960503623519
 31
0.0
  0
LINE
  5
472
  8
DETAIL
  6
CONTINUOUS
 62
     5
 10
-57.326002773842447
 20
45.16960503623519
 30
0.0
 11
-57.318575468802351
 21
45.163628369340103
 31
0.0
  0
LINE
  5
473
  8
DETAIL
  6
CONTINUOUS
 62
     5
 10
-57.318575468802351
 20
45.163628369340103
 30
0.0
 11
-57.318575468802351
 21
45.163628369340103
 31
0.0
  0
LINE
  5
474
  8
DETAIL
  6
CONTINUOUS
 62
     5
 10
-57.318575468802351
 20
45.163628369340103
 30
0.0
 11
-57.311110136492637
 21
45.157858013718361
 31
0.0
  0
LINE
  5
475
  8
DETAIL
  6
CONTINUOUS
 62
     5
 10
-57.311110136492637
 20
45.157858013718361
 30
0.0
 11
-57.303598903279969
 21
45.152282114818362
 31
0.0
  0
LINE
  5
476
  8
DETAIL
  6
CONTINUOUS
 62
     5
 10
-57.303598903279969
 20
45.152282114818362
 30
0.0
 11
-57.303598903279969
 21
45.152282114818362
 31
0.0
  0
LINE
  5
477
  8
DETAIL
  6
CONTINUOUS
 62
     5
 10
-57.303598903279969
 20
45.152282114818362
 30
0.0
 11
-57.295972076985208
 21
45.146836163658783
 31
0.0
  0
LINE
  5
478
  8
DETAIL
  6
CONTINUOUS
 62
     5
 10
-57.295972076985208
 20
45.146836163658783
 30
0.0
 11
-57.288204506271427
 21
45.1415078880161
 31
0.0
  0
LINE
  5
479
  8
DETAIL
  6
CONTINUOUS
 62
     5
 10
-57.288204506271427
 20
45.1415078880161
 30
0.0
 11
-57.288204506271427
 21
45.1415078880161
 31
0.0
  0
LINE
  5
47A
  8
DETAIL
  6
CONTINUOUS
 62
     5
 10
-57.288204506271427
 20
45.1415078880161
 30
0.0
 11
-57.280310587927488
 21
45.136311551718087
 31
0.0
  0
LINE
  5
47B
  8
DETAIL
  6
CONTINUOUS
 62
     5
 10
-57.280310587927488
 20
45.136311551718087
 30
0.0
 11
-57.272418370399123
 21
45.131315326037416
 31
0.0
  0
LINE
  5
47C
  8
DETAIL
  6
CONTINUOUS
 62
     5
 10
-57.272418370399123
 20
45.131315326037416
 30
0.0
 11
-57.272418370399123
 21
45.131315326037416
 31
0.0
  0
LINE
  5
47D
  8
DETAIL
  6
CONTINUOUS
 62
     5
 10
-57.272418370399123
 20
45.131315326037416
 30
0.0
 11
-57.264559528178218
 21
45.126533892473603
 31
0.0
  0
LINE
  5
47E
  8
DETAIL
  6
CONTINUOUS
 62
     5
 10
-57.264559528178218
 20
45.126533892473603
 30
0.0
 11
-57.256266588285712
 21
45.121714065986893
 31
0.0
  0
LINE
  5
47F
  8
DETAIL
  6
CONTINUOUS
 62
     5
 10
-57.256266588285712
 20
45.121714065986893
 30
0.0
 11
-57.256266588285712
 21
45.121714065986893
 31
0.0
  0
LINE
  5
480
  8
DETAIL
  6
CONTINUOUS
 62
     5
 10
-57.256266588285712
 20
45.121714065986893
 30
0.0
 11
-57.247143106388179
 21
45.11664727945103
 31
0.0
  0
LINE
  5
481
  8
DETAIL
  6
CONTINUOUS
 62
     5
 10
-57.247143106388179
 20
45.11664727945103
 30
0.0
 11
-57.237575900201698
 21
45.11157130393142
 31
0.0
  0
LINE
  5
482
  8
DETAIL
  6
CONTINUOUS
 62
     5
 10
-57.237575900201698
 20
45.11157130393142
 30
0.0
 11
-57.237575900201698
 21
45.11157130393142
 31
0.0
  0
LINE
  5
483
  8
DETAIL
  6
CONTINUOUS
 62
     5
 10
-57.237575900201698
 20
45.11157130393142
 30
0.0
 11
-57.22802783825432
 21
45.106762617182753
 31
0.0
  0
LINE
  5
484
  8
DETAIL
  6
CONTINUOUS
 62
     5
 10
-57.22802783825432
 20
45.106762617182753
 30
0.0
 11
-57.218482730267752
 21
45.102206185523038
 31
0.0
  0
LINE
  5
485
  8
DETAIL
  6
CONTINUOUS
 62
     5
 10
-57.218482730267752
 20
45.102206185523038
 30
0.0
 11
-57.218482730267752
 21
45.102206185523038
 31
0.0
  0
LINE
  5
486
  8
DETAIL
  6
CONTINUOUS
 62
     5
 10
-57.218482730267752
 20
45.102206185523038
 30
0.0
 11
-57.208824876670519
 21
45.097830103510169
 31
0.0
  0
LINE
  5
487
  8
DETAIL
  6
CONTINUOUS
 62
     5
 10
-57.208824876670519
 20
45.097830103510169
 30
0.0
 11
-57.199019599520959
 21
45.093626490093783
 31
0.0
  0
LINE
  5
488
  8
DETAIL
  6
CONTINUOUS
 62
     5
 10
-57.199019599520959
 20
45.093626490093783
 30
0.0
 11
-57.199019599520959
 21
45.093626490093783
 31
0.0
  0
LINE
  5
489
  8
DETAIL
  6
CONTINUOUS
 62
     5
 10
-57.199019599520959
 20
45.093626490093783
 30
0.0
 11
-57.189091219356442
 21
45.089612323788707
 31
0.0
  0
LINE
  5
48A
  8
DETAIL
  6
CONTINUOUS
 62
     5
 10
-57.189091219356442
 20
45.089612323788707
 30
0.0
 11
-57.179219028997643
 21
45.085839996975871
 31
0.0
  0
LINE
  5
48B
  8
DETAIL
  6
CONTINUOUS
 62
     5
 10
-57.179219028997643
 20
45.085839996975871
 30
0.0
 11
-57.179219028997643
 21
45.085839996975871
 31
0.0
  0
LINE
  5
48C
  8
DETAIL
  6
CONTINUOUS
 62
     5
 10
-57.179219028997643
 20
45.085839996975871
 30
0.0
 11
-57.169445836645203
 21
45.082319335538358
 31
0.0
  0
LINE
  5
48D
  8
DETAIL
  6
CONTINUOUS
 62
     5
 10
-57.169445836645203
 20
45.082319335538358
 30
0.0
 11
-57.159113539734449
 21
45.078854485501083
 31
0.0
  0
LINE
  5
48E
  8
DETAIL
  6
CONTINUOUS
 62
     5
 10
-57.159113539734449
 20
45.078854485501083
 30
0.0
 11
-57.159113539734449
 21
45.078854485501083
 31
0.0
  0
LINE
  5
48F
  8
DETAIL
  6
CONTINUOUS
 62
     5
 10
-57.159113539734449
 20
45.078854485501083
 30
0.0
 11
-57.147666575199537
 21
45.075287887141918
 31
0.0
  0
LINE
  5
490
  8
DETAIL
  6
CONTINUOUS
 62
     5
 10
-57.147666575199537
 20
45.075287887141918
 30
0.0
 11
-57.13566044873221
 21
45.0718208376056
 31
0.0
  0
LINE
  5
491
  8
DETAIL
  6
CONTINUOUS
 62
     5
 10
-57.13566044873221
 20
45.0718208376056
 30
0.0
 11
-57.13566044873221
 21
45.0718208376056
 31
0.0
  0
LINE
  5
492
  8
DETAIL
  6
CONTINUOUS
 62
     5
 10
-57.13566044873221
 20
45.0718208376056
 30
0.0
 11
-57.123753916996748
 21
45.068683536051353
 31
0.0
  0
LINE
  5
493
  8
DETAIL
  6
CONTINUOUS
 62
     5
 10
-57.123753916996748
 20
45.068683536051353
 30
0.0
 11
-57.111907671786071
 21
45.065862932826768
 31
0.0
  0
LINE
  5
494
  8
DETAIL
  6
CONTINUOUS
 62
     5
 10
-57.111907671786071
 20
45.065862932826768
 30
0.0
 11
-57.111907671786071
 21
45.065862932826768
 31
0.0
  0
LINE
  5
495
  8
DETAIL
  6
CONTINUOUS
 62
     5
 10
-57.111907671786071
 20
45.065862932826768
 30
0.0
 11
-57.099954762624073
 21
45.063298997973092
 31
0.0
  0
LINE
  5
496
  8
DETAIL
  6
CONTINUOUS
 62
     5
 10
-57.099954762624073
 20
45.063298997973092
 30
0.0
 11
-57.087915734821877
 21
45.060987029115019
 31
0.0
  0
LINE
  5
497
  8
DETAIL
  6
CONTINUOUS
 62
     5
 10
-57.087915734821877
 20
45.060987029115019
 30
0.0
 11
-57.087915734821877
 21
45.060987029115019
 31
0.0
  0
LINE
  5
498
  8
DETAIL
  6
CONTINUOUS
 62
     5
 10
-57.087915734821877
 20
45.060987029115019
 30
0.0
 11
-57.075845028067853
 21
45.05894164039271
 31
0.0
  0
LINE
  5
499
  8
DETAIL
  6
CONTINUOUS
 62
     5
 10
-57.075845028067853
 20
45.05894164039271
 30
0.0
 11
-57.063745163764573
 21
45.0571993844205
 31
0.0
  0
LINE
  5
49A
  8
DETAIL
  6
CONTINUOUS
 62
     5
 10
-57.063745163764573
 20
45.0571993844205
 30
0.0
 11
-57.063745163764573
 21
45.0571993844205
 31
0.0
  0
LINE
  5
49B
  8
DETAIL
  6
CONTINUOUS
 62
     5
 10
-57.063745163764573
 20
45.0571993844205
 30
0.0
 11
-57.051610728081627
 21
45.055766528061078
 31
0.0
  0
LINE
  5
49C
  8
DETAIL
  6
CONTINUOUS
 62
     5
 10
-57.051610728081627
 20
45.055766528061078
 30
0.0
 11
-57.039456484539983
 21
45.054506256693429
 31
0.0
  0
LINE
  5
49D
  8
DETAIL
  6
CONTINUOUS
 62
     5
 10
-57.491533608238683
 20
39.996365172507673
 30
0.0
 11
-64.691533608218492
 21
39.919410229207728
 31
0.0
  0
ARC
  5
49E
  8
DETAIL
  6
CONTINUOUS
 62
     5
 10
-56.991533608240061
 20
46.978027531588033
 30
0.0
 40
0.4999999999986361
 50
90.977751084117259
 51
180.0
  0
ARC
  5
49F
  8
DETAIL
  6
CONTINUOUS
 62
     5
 10
-56.994917579140171
 20
45.560022316491967
 30
0.0
 40
0.507474319198604
 50
264.96491019740841
 51
270.87472654909982
  0
ARC
  5
4A0
  8
DETAIL
  6
CONTINUOUS
 62
     5
 10
17.257797428768871
 20
-4825.2424513324368
 30
0.0
 40
4870.8609348404307
 50
90.64583784004131
 51
90.873374974302152
  0
LINE
  5
4A1
  8
DETAIL
  6
CONTINUOUS
 62
     5
 10
-57.491533608238683
 20
39.996365172507673
 30
0.0
 11
-57.491533608238683
 21
46.978027531588033
 31
0.0
  0
LINE
  5
4A2
  8
DETAIL
  6
CONTINUOUS
 62
     5
 10
-64.691533608218492
 20
39.919410229207728
 30
0.0
 11
-64.691533608218492
 21
29.292346766016731
 31
0.0
  0
LINE
  5
4A3
  8
DETAIL
  6
CONTINUOUS
 62
     5
 10
-64.691533608317172
 20
29.292346765956928
 30
0.0
 11
-64.691533608317172
 21
39.761162866056999
 31
0.0
  0
LINE
  5
4A4
  8
DETAIL
  6
CONTINUOUS
 62
     5
 10
-64.691644890917019
 20
39.884011317956933
 30
0.0
 11
-67.896441845200002
 21
39.815499164676091
 31
0.0
  0
LINE
  5
4A5
  8
DETAIL
  6
CONTINUOUS
 62
     5
 10
-76.991533608316914
 20
34.469919890311047
 30
0.0
 11
-76.991533608316914
 21
25.635541239256991
 31
0.0
  0
LINE
  5
4A6
  8
OUTLINE
  6
CONTINUOUS
 62
     3
 10
-64.691644890917019
 20
39.884011317956933
 30
0.0
 11
-76.991533608316914
 21
39.621064281634531
 31
0.0
  0
LINE
  5
4A7
  8
OUTLINE
  6
CONTINUOUS
 62
     3
 10
-76.991533608316914
 20
39.621064281634531
 30
0.0
 11
-76.991533608316914
 21
25.635541239256991
 31
0.0
  0
LINE
  5
4A8
  8
DETAIL
  6
CONTINUOUS
 62
     5
 10
-57.000065566372271
 20
47.477954731977313
 30
0.0
 11
-37.645368499094388
 21
50.839794952596272
 31
0.0
  0
ARC
  5
4A9
  8
DETAIL
  6
CONTINUOUS
 62
     5
 10
-55.628647357622739
 20
40.611353271504548
 30
0.0
 40
7.0000000000000231
 50
104.1514069954281
 51
184.97659656632871
  0
LINE
  5
4AA
  8
OUTLINE
  6
CONTINUOUS
 62
     3
 10
-62.596552408573018
 20
39.941801779129072
 30
0.0
 11
-64.691533608218492
 21
39.919410229207728
 31
0.0
  0
LINE
  5
4AB
  8
OUTLINE
  6
CONTINUOUS
 62
     3
 10
-30.645368499094388
 20
51.84893554690084
 30
0.0
 11
0.0
 21
51.848935546900819
 31
0.0
  0
LINE
  5
4AC
  8
OUTLINE
  6
CONTINUOUS
 62
     3
 10
-57.34004308192528
 20
47.398924609976007
 30
0.0
 11
-37.645368499094388
 21
50.839794952596272
 31
0.0
  0
ARC
  5
4AD
  8
OUTLINE
  6
CONTINUOUS
 62
     3
 10
-55.628647357622739
 20
40.611353271504527
 30
0.0
 40
7.0000000000000231
 50
104.1514069954281
 51
184.97659656632871
  0
LINE
  5
4AE
  8
DETAIL
  6
CONTINUOUS
 62
     5
 39
50.0
 10
-50.58201423414129
 20
42.354114558646408
 30
0.0
 11
-37.735849124977108
 21
42.540920019790548
 31
0.0
  0
LINE
  5
4AF
  8
DETAIL
  6
CONTINUOUS
 62
     4
 10
-38.178448982342488
 20
-62.693564048503582
 30
0.0
 11
-34.003774378732828
 21
-58.093912839555607
 31
0.0
  0
LINE
  5
4B0
  8
DETAIL
  6
CONTINUOUS
 62
     4
 10
-34.003774378732828
 20
-58.093912839555607
 30
0.0
 11
-35.319313885235232
 21
-64.164666919308104
 31
0.0
  0
LINE
  5
4B1
  8
DETAIL
  6
CONTINUOUS
 62
     4
 10
-34.003774378732828
 20
-58.093912839555607
 30
0.0
 11
-39.493988488844899
 21
-68.764318128256065
 31
0.0
  0
LINE
  5
4B2
  8
NOTE
  6
CONTINUOUS
 62
     4
 10
-39.493988488844899
 20
-68.764318128256065
 30
0.0
 11
-192.5542133040517
 21
-366.24172057595803
 31
0.0
  0
LINE
  5
4B3
  8
NOTE
  6
CONTINUOUS
 62
     4
 10
-192.5542133040517
 20
-366.24172057595803
 30
0.0
 11
-486.83421330405162
 21
-366.24172057595803
 31
0.0
  0
TEXT
  5
4BC
  8
ETC
  6
CONTINUOUS
 62
    61
 10
246.36035081486219
 20
234.64130357588411
 30
0.0
 40
40.0
  1
V-08PPD7
 41
0.9
  0
ENDSEC
  0
EOF
