  0
SECTION
  2
HEADER
  9
$ACADVER
  1
AC1009
  9
$DWGCODEPAGE
  3
dos932
  9
$INSBASE
 10
0.0
 20
0.0
 30
0.0
  9
$EXTMIN
 10
-104.00052679340919
 20
-108.80946467138369
 30
0.0
  9
$EXTMAX
 10
829.42871669773137
 20
512.5811388372008
 30
0.0
  9
$LIMMIN
 10
-2970.0
 20
-2100.0
  9
$LIMMAX
 10
2970.0
 20
2100.0
  9
$ORTHOMODE
 70
     1
  9
$REGENMODE
 70
     1
  9
$FILLMODE
 70
     1
  9
$QTEXTMODE
 70
     0
  9
$MIRRTEXT
 70
     0
  9
$LTSCALE
 40
20.0
  9
$ATTMODE
 70
     1
  9
$TEXTSIZE
 40
64.0
  9
$TRACEWID
 40
0.05
  9
$TEXTSTYLE
  7
STANDARD
  9
$CLAYER
  8
SIZE
  9
$CELTYPE
  6
CONTINUOUS
  9
$CECOLOR
 62
     7
  9
$DIMSCALE
 40
1.0
  9
$DIMASZ
 40
12.0
  9
$DIMEXO
 40
20.0
  9
$DIMDLI
 40
200.0
  9
$DIMRND
 40
0.0
  9
$DIMDLE
 40
0.0
  9
$DIMEXE
 40
20.0
  9
$DIMTP
 40
0.0
  9
$DIMTM
 40
0.0
  9
$DIMTXT
 40
64.0
  9
$DIMCEN
 40
0.09
  9
$DIMTSZ
 40
0.0
  9
$DIMTOL
 70
     0
  9
$DIMLIM
 70
     0
  9
$DIMTIH
 70
     0
  9
$DIMTOH
 70
     0
  9
$DIMSE1
 70
     0
  9
$DIMSE2
 70
     0
  9
$DIMTAD
 70
     1
  9
$DIMZIN
 70
     8
  9
$DIMBLK
  1

  9
$DIMASO
 70
     1
  9
$DIMSHO
 70
     0
  9
$DIMPOST
  1

  9
$DIMAPOST
  1

  9
$DIMALT
 70
     0
  9
$DIMALTD
 70
     2
  9
$DIMALTF
 40
25.399999999999999
  9
$DIMLFAC
 40
1.0
  9
$DIMTOFL
 70
     1
  9
$DIMTVP
 40
0.0
  9
$DIMTIX
 70
     1
  9
$DIMSOXD
 70
     0
  9
$DIMSAH
 70
     0
  9
$DIMBLK1
  1

  9
$DIMBLK2
  1

  9
$DIMSTYLE
  2
STANDARD
  9
$DIMCLRD
 70
     7
  9
$DIMCLRE
 70
     7
  9
$DIMCLRT
 70
     7
  9
$DIMTFAC
 40
1.0
  9
$DIMGAP
 40
25.0
  9
$LUNITS
 70
     2
  9
$LUPREC
 70
     4
  9
$SKETCHINC
 40
0.1
  9
$FILLETRAD
 40
3.0
  9
$AUNITS
 70
     1
  9
$AUPREC
 70
     3
  9
$MENU
  1
ACAD
  9
$ELEVATION
 40
0.0
  9
$PELEVATION
 40
0.0
  9
$THICKNESS
 40
0.0
  9
$LIMCHECK
 70
     0
  9
$CHAMFERA
 40
0.0
  9
$CHAMFERB
 40
0.0
  9
$SKPOLY
 70
     0
  9
$TDCREATE
 40
2453019.623009259
  9
$TDUPDATE
 40
2459356.651929664
  9
$TDINDWG
 40
1.717076169
  9
$TDUSRTIMER
 40
1.717076169
  9
$USRTIMER
 70
     1
  9
$ANGBASE
 50
0.0
  9
$ANGDIR
 70
     0
  9
$PDMODE
 70
     3
  9
$PDSIZE
 40
-2.0
  9
$PLINEWID
 40
0.0
  9
$SPLFRAME
 70
     0
  9
$SPLINETYPE
 70
     6
  9
$SPLINESEGS
 70
     8
  9
$SURFTAB1
 70
     6
  9
$SURFTAB2
 70
     6
  9
$SURFTYPE
 70
     6
  9
$SURFU
 70
     6
  9
$SURFV
 70
     6
  9
$UCSNAME
  2

  9
$UCSORG
 10
0.0
 20
0.0
 30
0.0
  9
$UCSXDIR
 10
1.0
 20
0.0
 30
0.0
  9
$UCSYDIR
 10
0.0
 20
1.0
 30
0.0
  9
$PUCSNAME
  2

  9
$PUCSORG
 10
0.0
 20
0.0
 30
0.0
  9
$PUCSXDIR
 10
1.0
 20
0.0
 30
0.0
  9
$PUCSYDIR
 10
0.0
 20
1.0
 30
0.0
  9
$USERI1
 70
     0
  9
$USERI2
 70
     0
  9
$USERI3
 70
     0
  9
$USERI4
 70
     0
  9
$USERI5
 70
     0
  9
$USERR1
 40
20.0
  9
$USERR2
 40
0.0
  9
$USERR3
 40
0.0
  9
$USERR4
 40
0.0
  9
$USERR5
 40
0.0
  9
$WORLDVIEW
 70
     1
  9
$SHADEDGE
 70
     3
  9
$SHADEDIF
 70
    70
  9
$TILEMODE
 70
     1
  9
$MAXACTVP
 70
    48
  9
$PINSBASE
 10
0.0
 20
0.0
 30
0.0
  9
$PLIMCHECK
 70
     0
  9
$PEXTMIN
 10
-100000000000000000000.0
 20
-100000000000000000000.0
 30
-100000000000000000000.0
  9
$PEXTMAX
 10
100000000000000000000.0
 20
100000000000000000000.0
 30
100000000000000000000.0
  9
$PLIMMIN
 10
0.0
 20
0.0
  9
$PLIMMAX
 10
12.0
 20
9.0
  9
$UNITMODE
 70
     0
  9
$VISRETAIN
 70
     0
  9
$PLINEGEN
 70
     0
  9
$PSLTSCALE
 70
     0
  9
$TREEDEPTH
 70
  3020
  9
$ATTDIA
 70
     0
  9
$ATTREQ
 70
     1
  9
$BLIPMODE
 70
     1
  9
$COORDS
 70
     1
  9
$DRAGMODE
 70
     2
  9
$OSMODE
 70
     0
  9
$HANDLING
 70
     0
  9
$HANDSEED
  5
1FE
  0
ENDSEC
  0
SECTION
  2
TABLES
  0
TABLE
  2
LTYPE
 70
     2
  0
LTYPE
  2
CONTINUOUS
 70
     0
  3
実線
 72
    65
 73
     0
 40
0.0
  0
LTYPE
  2
DASHDOT
 70
     0
  3
____ _ ____ _ ____ _ ____ _ ____ _ ____ _ ____
 72
    65
 73
     4
 40
5.5
 49
4.0
 49
-0.6
 49
0.3
 49
-0.6
  0
ENDTAB
  0
TABLE
  2
LAYER
 70
    12
  0
LAYER
  2
SIZE
 70
     0
 62
    30
  6
CONTINUOUS
  0
LAYER
  2
BASIS
 70
     0
 62
     6
  6
DASHDOT
  0
LAYER
  2
OUTLINE
 70
     0
 62
     3
  6
CONTINUOUS
  0
LAYER
  2
DETAIL
 70
     0
 62
     5
  6
CONTINUOUS
  0
LAYER
  2
ARRANGE
 70
     0
 62
     1
  6
CONTINUOUS
  0
LAYER
  2
ETC
 70
     0
 62
    61
  6
CONTINUOUS
  0
LAYER
  2
0
 70
    64
 62
     7
  6
CONTINUOUS
  0
LAYER
  2
DEFPOINTS
 70
    64
 62
     7
  6
CONTINUOUS
  0
LAYER
  2
FIX
 70
    64
 62
    11
  6
CONTINUOUS
  0
LAYER
  2
NOTE
 70
    64
 62
     4
  6
CONTINUOUS
  0
LAYER
  2
SERVICESPACE
 70
    64
 62
     2
  6
DASHDOT
  0
LAYER
  2
SYMBOLLINE
 70
    64
 62
    15
  6
CONTINUOUS
  0
ENDTAB
  0
TABLE
  2
STYLE
 70
     1
  0
STYLE
  2
STANDARD
 70
     0
 40
64.0
 41
0.9
 50
0.0
 71
     0
 42
64.0
  3
SIMPLEX.shx
  4
BIGFONT.shx
  0
ENDTAB
  0
TABLE
  2
APPID
 70
    20
  0
APPID
  2
ACAD
 70
     0
  0
APPID
  2
ACADANNOTATIVE
 70
     0
  0
APPID
  2
AUTOCAD_POSTSCRIPT_FIGURE
 70
     0
  0
APPID
  2
ACAD_EXEMPT_FROM_CAD_STANDARDS
 70
     0
  0
APPID
  2
ACAD_PSEXT
 70
     0
  0
APPID
  2
ACAUTHENVIRON
 70
     0
  0
APPID
  2
GENIUS_GENOENT_13
 70
     0
  0
APPID
  2
GENIUS_GENCFG_13
 70
     0
  0
APPID
  2
GENIUS_GENCFG0_13
 70
     0
  0
APPID
  2
GENIUS_GENCFG1_13
 70
     0
  0
APPID
  2
GENIUS_GENCFG2_13
 70
     0
  0
APPID
  2
GENIUS_GENCFG3_13
 70
     0
  0
APPID
  2
GENIUS_GENCFG4_13
 70
     0
  0
APPID
  2
GENIUS_GEVCFG0_13
 70
     0
  0
APPID
  2
CONTENTBLOCKICON
 70
     0
  0
APPID
  2
CONTENTBLOCKDESCRIPTION
 70
     0
  0
APPID
  2
ACAD_NAV_VCDISPLAY
 70
     0
  0
APPID
  2
ACAD_MLEADERVER
 70
     0
  0
APPID
  2
ACDBDYNAMICBLOCKTRUENAME
 70
     0
  0
APPID
  2
ACDBDYNAMICBLOCKGUID
 70
     0
  0
ENDTAB
  0
TABLE
  2
DIMSTYLE
 70
     1
  0
DIMSTYLE
  2
STANDARD
 70
     0
  3

  4

  5

  6

  7

 40
1.0
 41
12.0
 42
20.0
 43
200.0
 44
20.0
 45
0.0
 46
0.0
 47
0.0
 48
0.0
140
64.0
141
0.09
142
0.0
143
25.399999999999999
144
1.0
145
0.0
146
1.0
147
25.0
 71
     0
 72
     0
 73
     0
 74
     0
 75
     0
 76
     0
 77
     1
 78
     8
170
     0
171
     2
172
     1
173
     0
174
     1
175
     0
176
     7
177
     7
178
     7
  0
ENDTAB
  0
TABLE
  2
VIEW
 70
     1
  0
VIEW
  2
ALL
 70
     0
 40
4282.6198079999986
 10
0.0
 20
41.309904000000003
 41
5940.0
 11
0.0
 21
0.0
 31
1.0
 12
0.0
 22
0.0
 32
0.0
 42
50.0
 43
0.0
 44
0.0
 50
0.0
 71
     0
  0
ENDTAB
  0
TABLE
  2
UCS
 70
     0
  0
ENDTAB
  0
TABLE
  2
VPORT
 70
     1
  0
VPORT
  2
*ACTIVE
 70
     0
 10
0.0
 20
0.0
 11
1.0
 21
1.0
 12
362.77543539504308
 22
201.87378931077359
 13
0.0
 23
0.0
 14
1.0
 24
1.0
 15
0.0
 25
0.0
 16
0.0
 26
0.0
 36
1.0
 17
0.0
 27
0.0
 37
0.0
 40
625.81050176389499
 41
1.767337807606264
 42
50.0
 43
0.0
 44
0.0
 50
0.0
 51
0.0
 71
     0
 72
  1000
 73
     1
 74
     3
 75
     0
 76
     0
 77
     0
 78
     0
  0
ENDTAB
  0
ENDSEC
  0
SECTION
  2
BLOCKS
  0
ENDSEC
  0
SECTION
  2
ENTITIES
  0
TEXT
  8
ETC
  6
CONTINUOUS
 62
    61
 10
223.25728812630311
 20
448.58113883720091
 30
0.0
 40
64.0
  1
V-08PPFL8_2
 41
0.9
  0
TEXT
  8
ETC
  6
CONTINUOUS
 62
    61
 10
219.07129412630269
 20
330.62582882236978
 30
0.0
 40
64.0
  1
換気扇
 41
0.9
  0
CIRCLE
  8
ARRANGE
  6
CONTINUOUS
 62
     1
 10
0.0
 20
-0.0000000000000142
 30
0.0
 40
40.0
  0
POINT
  8
ARRANGE
  6
CONTINUOUS
 62
     1
 10
0.0
 20
-0.0000000000000142
 30
0.0
  0
LINE
  8
BASIS
  6
DASHDOT
 62
     6
 10
0.0
 20
-106.5056315211143
 30
0.0
 11
0.0
 21
106.5056315211143
 31
0.0
  0
LINE
  8
BASIS
  6
DASHDOT
 62
     6
 10
95.967552833830439
 20
-0.0000000000000142
 30
0.0
 11
-95.967646960021909
 21
0.0000000000000142
 31
0.0
  0
TEXT
  8
ETC
  6
CONTINUOUS
 62
    61
 10
269.77269237485871
 20
222.47705593614461
 30
0.0
 40
40.0
  1
V-08PPFL8
 41
0.9
  0
LINE
  8
OUTLINE
  6
CONTINUOUS
 62
     3
 10
-13.501768577741389
 20
-80.000128673445332
 30
0.0
 11
-13.501768577741389
 21
-83.809353978273236
 31
0.0
  0
LINE
  8
OUTLINE
  6
CONTINUOUS
 62
     3
 10
13.5012201362394
 20
-80.000128673445332
 30
0.0
 11
13.5012201362394
 21
-83.809353978273236
 31
0.0
  0
ARC
  8
OUTLINE
  6
CONTINUOUS
 62
     3
 10
-12.501657884631021
 20
-83.809353978273236
 30
0.0
 40
1.0001106931104
 50
180.0
 51
270.0
  0
LINE
  8
OUTLINE
  6
CONTINUOUS
 62
     3
 10
12.501109443129
 20
-84.809464671383623
 30
0.0
 11
-12.501657884631021
 21
-84.809464671383623
 31
0.0
  0
ARC
  8
OUTLINE
  6
CONTINUOUS
 62
     3
 10
12.501109443129
 20
-83.809353978273236
 30
0.0
 40
1.0001106931104
 50
270.0
 51
0.0
  0
LINE
  8
OUTLINE
  6
CONTINUOUS
 62
     3
 10
78.999387908297763
 20
-80.000128673445332
 30
0.0
 11
-79.000416100298779
 21
-80.000128673445332
 31
0.0
  0
ARC
  8
OUTLINE
  6
CONTINUOUS
 62
     3
 10
-79.000416100298779
 20
-79.000017980334945
 30
0.0
 40
1.0001106931104
 50
180.0
 51
270.0
  0
LINE
  8
OUTLINE
  6
CONTINUOUS
 62
     3
 10
-80.000526793409151
 20
-79.000017980334945
 30
0.0
 11
-80.000526793409151
 21
78.999786028261695
 31
0.0
  0
LINE
  8
OUTLINE
  6
CONTINUOUS
 62
     3
 10
79.999498601408263
 20
78.999786028261695
 30
0.0
 11
79.999498601408263
 21
-79.000017980334945
 31
0.0
  0
ARC
  8
OUTLINE
  6
CONTINUOUS
 62
     3
 10
78.999387908297763
 20
-79.000017980334945
 30
0.0
 40
1.0001106931104
 50
270.0
 51
0.0
  0
ARC
  8
OUTLINE
  6
CONTINUOUS
 62
     3
 10
-79.000416100298779
 20
78.999786028261695
 30
0.0
 40
1.0001106931104
 50
90.0
 51
180.0
  0
LINE
  8
OUTLINE
  6
CONTINUOUS
 62
     3
 10
-79.000416100298779
 20
79.99989672137211
 30
0.0
 11
78.999387908297763
 21
79.99989672137211
 31
0.0
  0
ARC
  8
OUTLINE
  6
CONTINUOUS
 62
     3
 10
78.999387908297763
 20
78.999786028261695
 30
0.0
 40
1.0001106931104
 50
0.0
 51
90.0
  0
LINE
  8
SIZE
  6
CONTINUOUS
 62
    30
 10
79.999498601408263
 20
98.999786028261724
 30
0.0
 11
79.999498601408263
 21
225.21909118443881
 31
0.0
  0
LINE
  8
SIZE
  6
CONTINUOUS
 62
    30
 10
-80.000526793409207
 20
98.999786028261724
 30
0.0
 11
-80.000526793409207
 21
225.21909118443881
 31
0.0
  0
LINE
  8
SIZE
  6
CONTINUOUS
 62
    30
 10
91.999498601408277
 20
205.21909118443881
 30
0.0
 11
103.99949860140831
 21
205.21909118443881
 31
0.0
  0
LINE
  8
SIZE
  6
CONTINUOUS
 62
    30
 10
-92.000526793409193
 20
205.21909118443881
 30
0.0
 11
-104.00052679340919
 21
205.21909118443881
 31
0.0
  0
LINE
  8
SIZE
  6
CONTINUOUS
 62
    30
 10
79.999498601408263
 20
205.21909118443881
 30
0.0
 11
-80.000526793409207
 21
205.21909118443881
 31
0.0
  0
CIRCLE
  8
SIZE
  6
CONTINUOUS
 62
    30
 10
79.999498601408263
 20
205.21909118443881
 30
0.0
 40
6.0
  0
LINE
  8
SIZE
  6
CONTINUOUS
 62
    30
 10
79.999498601408263
 20
205.21909118443881
 30
0.0
 11
91.999498601408277
 21
205.21909118443881
 31
0.0
  0
CIRCLE
  8
SIZE
  6
CONTINUOUS
 62
    30
 10
-80.000526793409207
 20
205.21909118443881
 30
0.0
 40
6.0
  0
LINE
  8
SIZE
  6
CONTINUOUS
 62
    30
 10
-80.000526793409207
 20
205.21909118443881
 30
0.0
 11
-92.000526793409193
 21
205.21909118443881
 31
0.0
  0
TEXT
  8
SIZE
  6
CONTINUOUS
 62
    30
 10
-105.051942667429
 20
230.21909118443881
 30
0.0
 40
64.0
  1
□160
 41
0.9
 72
     1
 11
-0.0005140960004724
 21
230.21909118443881
 31
0.0
  0
LINE
  8
SIZE
  6
CONTINUOUS
 62
    30
 10
32.501109443129003
 20
-84.809464671383623
 30
0.0
 11
249.12121779692089
 21
-84.809464671383708
 31
0.0
  0
LINE
  8
SIZE
  6
CONTINUOUS
 62
    30
 10
98.999387908297763
 20
-80.000128673445346
 30
0.0
 11
249.12121779692089
 21
-80.000128673445374
 31
0.0
  0
LINE
  8
SIZE
  6
CONTINUOUS
 62
    30
 10
229.12121779692089
 20
-96.80946467138368
 30
0.0
 11
229.12121779692089
 21
-108.80946467138369
 31
0.0
  0
LINE
  8
SIZE
  6
CONTINUOUS
 62
    30
 10
229.12121779692089
 20
-68.000128673445403
 30
0.0
 11
229.121217796921
 21
32.399871326554653
 31
0.0
  0
LINE
  8
SIZE
  6
CONTINUOUS
 62
    30
 10
229.12121779692089
 20
-84.809464671383708
 30
0.0
 11
229.12121779692089
 21
-80.000128673445374
 31
0.0
  0
CIRCLE
  8
SIZE
  6
CONTINUOUS
 62
    30
 10
229.12121779692089
 20
-84.809464671383708
 30
0.0
 40
6.0
  0
LINE
  8
SIZE
  6
CONTINUOUS
 62
    30
 10
229.12121779692089
 20
-84.809464671383708
 30
0.0
 11
229.12121779692089
 21
-96.80946467138368
 31
0.0
  0
CIRCLE
  8
SIZE
  6
CONTINUOUS
 62
    30
 10
229.12121779692089
 20
-80.000128673445374
 30
0.0
 40
6.0
  0
LINE
  8
SIZE
  6
CONTINUOUS
 62
    30
 10
229.12121779692089
 20
-80.000128673445374
 30
0.0
 11
229.12121779692089
 21
-68.000128673445403
 31
0.0
  0
TEXT
  8
SIZE
  6
CONTINUOUS
 62
    30
 10
204.121217796921
 20
-31.0001286734453
 30
0.0
 40
64.0
  1
5
 50
90.0
 41
0.9
 72
     1
 11
204.121217796921
 21
-11.800128673445309
 31
0.0
  0
LINE
  8
DETAIL
  6
CONTINUOUS
 62
     5
 10
-62.572642577800018
 20
-62.514818782799978
 30
0.0
 11
-62.572642577800018
 21
62.515211389799923
 31
0.0
  0
LINE
  8
DETAIL
  6
CONTINUOUS
 62
     5
 10
-57.403791868500093
 20
62.523935183899887
 30
0.0
 11
-57.403791868499873
 21
-62.523542576900041
 31
0.0
  0
LINE
  8
DETAIL
  6
CONTINUOUS
 62
     5
 10
-55.09580458649998
 20
-62.523542576900041
 30
0.0
 11
-55.09580458649998
 21
62.523935183899887
 31
0.0
  0
LINE
  8
DETAIL
  6
CONTINUOUS
 62
     5
 10
-49.903791868500093
 20
62.523935183899887
 30
0.0
 11
-49.903791868499873
 21
-62.523542576900041
 31
0.0
  0
LINE
  8
DETAIL
  6
CONTINUOUS
 62
     5
 10
-47.59580458649998
 20
-62.523542576900041
 30
0.0
 11
-47.59580458649998
 21
62.523935183899887
 31
0.0
  0
LINE
  8
DETAIL
  6
CONTINUOUS
 62
     5
 10
-42.403791868500093
 20
62.523935183899887
 30
0.0
 11
-42.403791868499873
 21
-62.523542576900041
 31
0.0
  0
LINE
  8
DETAIL
  6
CONTINUOUS
 62
     5
 10
-40.09580458649998
 20
-62.523542576900041
 30
0.0
 11
-40.09580458649998
 21
62.523935183899958
 31
0.0
  0
LINE
  8
DETAIL
  6
CONTINUOUS
 62
     5
 10
-34.903791868500093
 20
62.523935183899958
 30
0.0
 11
-34.903791868499873
 21
-62.523542576900041
 31
0.0
  0
LINE
  8
DETAIL
  6
CONTINUOUS
 62
     5
 10
-32.59580458649998
 20
-62.523542576900041
 30
0.0
 11
-32.59580458649998
 21
62.523935183899958
 31
0.0
  0
LINE
  8
DETAIL
  6
CONTINUOUS
 62
     5
 10
-27.40379186850009
 20
62.523935183899958
 30
0.0
 11
-27.403791868499869
 21
-62.523542576900041
 31
0.0
  0
LINE
  8
DETAIL
  6
CONTINUOUS
 62
     5
 10
-25.09580458649998
 20
-62.523542576900041
 30
0.0
 11
-25.09580458649998
 21
62.523935183899958
 31
0.0
  0
LINE
  8
DETAIL
  6
CONTINUOUS
 62
     5
 10
-19.90379186850009
 20
62.523935183899958
 30
0.0
 11
-19.903791868499869
 21
-62.523542576900041
 31
0.0
  0
LINE
  8
DETAIL
  6
CONTINUOUS
 62
     5
 10
-17.59580458649998
 20
-62.523542576900041
 30
0.0
 11
-17.59580458649998
 21
62.523935183899958
 31
0.0
  0
LINE
  8
DETAIL
  6
CONTINUOUS
 62
     5
 10
-12.40379186850009
 20
62.523935183899958
 30
0.0
 11
-12.403791868499869
 21
-62.523542576900041
 31
0.0
  0
LINE
  8
DETAIL
  6
CONTINUOUS
 62
     5
 10
-10.09580458649998
 20
-62.523542576900041
 30
0.0
 11
-10.09580458649998
 21
62.523935183899958
 31
0.0
  0
LINE
  8
DETAIL
  6
CONTINUOUS
 62
     5
 10
-4.9037918685000932
 20
62.523935183899958
 30
0.0
 11
-4.9037918684998658
 21
-62.523542576900041
 31
0.0
  0
LINE
  8
DETAIL
  6
CONTINUOUS
 62
     5
 10
-2.5958045864999799
 20
-62.523542576900041
 30
0.0
 11
-2.5958045864999799
 21
62.523935183899958
 31
0.0
  0
LINE
  8
DETAIL
  6
CONTINUOUS
 62
     5
 10
-4.9037918685000932
 20
62.515211389799973
 30
0.0
 11
-10.09580458649998
 21
62.515211389799973
 31
0.0
  0
LINE
  8
DETAIL
  6
CONTINUOUS
 62
     5
 10
-12.40379186850009
 20
62.515211389799973
 30
0.0
 11
-17.59580458649998
 21
62.515211389799973
 31
0.0
  0
LINE
  8
DETAIL
  6
CONTINUOUS
 62
     5
 10
-19.90379186850009
 20
62.515211389799973
 30
0.0
 11
-25.09580458649998
 21
62.515211389799973
 31
0.0
  0
LINE
  8
DETAIL
  6
CONTINUOUS
 62
     5
 10
-27.40379186850009
 20
62.515211389799973
 30
0.0
 11
-32.59580458649998
 21
62.515211389799973
 31
0.0
  0
LINE
  8
DETAIL
  6
CONTINUOUS
 62
     5
 10
-34.903791868500093
 20
62.515211389799973
 30
0.0
 11
-40.09580458649998
 21
62.515211389799973
 31
0.0
  0
LINE
  8
DETAIL
  6
CONTINUOUS
 62
     5
 10
-42.403791868500093
 20
62.515211389799923
 30
0.0
 11
-47.59580458649998
 21
62.515211389799923
 31
0.0
  0
LINE
  8
DETAIL
  6
CONTINUOUS
 62
     5
 10
-49.903791868500093
 20
62.515211389799923
 30
0.0
 11
-55.09580458649998
 21
62.515211389799923
 31
0.0
  0
LINE
  8
DETAIL
  6
CONTINUOUS
 62
     5
 10
-57.403791868500093
 20
62.515211389799923
 30
0.0
 11
-62.572642577800018
 21
62.515211389799923
 31
0.0
  0
LINE
  8
DETAIL
  6
CONTINUOUS
 62
     5
 10
-62.572642577800018
 20
-62.514818782799978
 30
0.0
 11
-57.403791868499873
 21
-62.514818782799978
 31
0.0
  0
LINE
  8
DETAIL
  6
CONTINUOUS
 62
     5
 10
-55.09580458649998
 20
-62.514818782799971
 30
0.0
 11
-49.903791868499873
 21
-62.514818782799978
 31
0.0
  0
LINE
  8
DETAIL
  6
CONTINUOUS
 62
     5
 10
-47.59580458649998
 20
-62.514818782799971
 30
0.0
 11
-42.403791868499873
 21
-62.514818782799978
 31
0.0
  0
LINE
  8
DETAIL
  6
CONTINUOUS
 62
     5
 10
-40.09580458649998
 20
-62.514818782799971
 30
0.0
 11
-34.903791868499873
 21
-62.514818782799978
 31
0.0
  0
LINE
  8
DETAIL
  6
CONTINUOUS
 62
     5
 10
-32.59580458649998
 20
-62.514818782799971
 30
0.0
 11
-27.403791868499869
 21
-62.514818782799978
 31
0.0
  0
LINE
  8
DETAIL
  6
CONTINUOUS
 62
     5
 10
-25.09580458649998
 20
-62.514818782799971
 30
0.0
 11
-19.903791868499869
 21
-62.514818782799978
 31
0.0
  0
LINE
  8
DETAIL
  6
CONTINUOUS
 62
     5
 10
-17.59580458649998
 20
-62.514818782799971
 30
0.0
 11
-12.403791868499869
 21
-62.514818782799978
 31
0.0
  0
LINE
  8
DETAIL
  6
CONTINUOUS
 62
     5
 10
-10.09580458649998
 20
-62.514818782799971
 30
0.0
 11
-4.9037918684998658
 21
-62.514818782799978
 31
0.0
  0
LINE
  8
DETAIL
  6
CONTINUOUS
 62
     5
 10
-2.5779201114000898
 20
62.515211389799973
 30
0.0
 11
2.5958045864999799
 21
62.515211389799973
 31
0.0
  0
LINE
  8
DETAIL
  6
CONTINUOUS
 62
     5
 10
4.9037918684998658
 20
62.515211389799973
 30
0.0
 11
10.09580458649998
 21
62.515211389799973
 31
0.0
  0
LINE
  8
DETAIL
  6
CONTINUOUS
 62
     5
 10
12.403791868499869
 20
62.515211389799973
 30
0.0
 11
17.59580458649998
 21
62.515211389799973
 31
0.0
  0
LINE
  8
DETAIL
  6
CONTINUOUS
 62
     5
 10
19.903791868499869
 20
62.515211389799973
 30
0.0
 11
25.09580458649998
 21
62.515211389799973
 31
0.0
  0
LINE
  8
DETAIL
  6
CONTINUOUS
 62
     5
 10
27.403791868499869
 20
62.515211389799973
 30
0.0
 11
32.59580458649998
 21
62.515211389799973
 31
0.0
  0
LINE
  8
DETAIL
  6
CONTINUOUS
 62
     5
 10
34.903791868499873
 20
62.515211389799973
 30
0.0
 11
40.09580458649998
 21
62.515211389799973
 31
0.0
  0
LINE
  8
DETAIL
  6
CONTINUOUS
 62
     5
 10
42.403791868499873
 20
62.515211389799973
 30
0.0
 11
47.59580458649998
 21
62.515211389799973
 31
0.0
  0
LINE
  8
DETAIL
  6
CONTINUOUS
 62
     5
 10
49.903791868499873
 20
62.515211389799973
 30
0.0
 11
55.09580458649998
 21
62.515211389799973
 31
0.0
  0
LINE
  8
DETAIL
  6
CONTINUOUS
 62
     5
 10
57.403791868499873
 20
62.515211389799973
 30
0.0
 11
62.572642577800018
 21
62.515211389799973
 31
0.0
  0
LINE
  8
DETAIL
  6
CONTINUOUS
 62
     5
 10
62.572642577800018
 20
-62.514818782799978
 30
0.0
 11
57.403791868499873
 21
-62.514818782799978
 31
0.0
  0
LINE
  8
DETAIL
  6
CONTINUOUS
 62
     5
 10
55.09580458649998
 20
-62.514818782799971
 30
0.0
 11
49.903791868499873
 21
-62.514818782799978
 31
0.0
  0
LINE
  8
DETAIL
  6
CONTINUOUS
 62
     5
 10
47.59580458649998
 20
-62.514818782799971
 30
0.0
 11
42.403791868499873
 21
-62.514818782799978
 31
0.0
  0
LINE
  8
DETAIL
  6
CONTINUOUS
 62
     5
 10
40.09580458649998
 20
-62.514818782799971
 30
0.0
 11
34.903791868499873
 21
-62.514818782799978
 31
0.0
  0
LINE
  8
DETAIL
  6
CONTINUOUS
 62
     5
 10
32.59580458649998
 20
-62.514818782799971
 30
0.0
 11
27.403791868499869
 21
-62.514818782799978
 31
0.0
  0
LINE
  8
DETAIL
  6
CONTINUOUS
 62
     5
 10
25.09580458649998
 20
-62.514818782799971
 30
0.0
 11
19.903791868499869
 21
-62.514818782799978
 31
0.0
  0
LINE
  8
DETAIL
  6
CONTINUOUS
 62
     5
 10
17.59580458649998
 20
-62.514818782799971
 30
0.0
 11
12.403791868499869
 21
-62.514818782799978
 31
0.0
  0
LINE
  8
DETAIL
  6
CONTINUOUS
 62
     5
 10
10.09580458649998
 20
-62.514818782799971
 30
0.0
 11
4.9037918684998658
 21
-62.514818782799978
 31
0.0
  0
LINE
  8
DETAIL
  6
CONTINUOUS
 62
     5
 10
2.5958045864999799
 20
-62.514818782799978
 30
0.0
 11
-2.5779201114000898
 21
-62.514818782799978
 31
0.0
  0
LINE
  8
DETAIL
  6
CONTINUOUS
 62
     5
 10
-13.5
 20
-79.991000000000014
 30
0.0
 11
-13.5
 21
-83.799803696500049
 31
0.0
  0
LINE
  8
DETAIL
  6
CONTINUOUS
 62
     5
 10
13.5
 20
-79.991000000000014
 30
0.0
 11
13.5
 21
-83.799803696500049
 31
0.0
  0
ARC
  8
DETAIL
  6
CONTINUOUS
 62
     5
 10
-12.5
 20
-83.799803696500049
 30
0.0
 40
1.0
 50
180.0
 51
270.0
  0
LINE
  8
DETAIL
  6
CONTINUOUS
 62
     5
 10
12.5
 20
-84.799803696500049
 30
0.0
 11
-12.5
 21
-84.799803696500049
 31
0.0
  0
ARC
  8
DETAIL
  6
CONTINUOUS
 62
     5
 10
12.5
 20
-83.799803696500049
 30
0.0
 40
1.0
 50
270.0
 51
0.0
  0
LINE
  8
DETAIL
  6
CONTINUOUS
 62
     5
 10
78.990918378599872
 20
-79.991000000000014
 30
0.0
 11
-78.991398075999982
 21
-79.991000000000014
 31
0.0
  0
ARC
  8
DETAIL
  6
CONTINUOUS
 62
     5
 10
-78.991398075999982
 20
-78.991000000000014
 30
0.0
 40
1.0
 50
180.0
 51
270.0
  0
LINE
  8
DETAIL
  6
CONTINUOUS
 62
     5
 10
-79.991398075999982
 20
-78.991000000000014
 30
0.0
 11
-79.991398075999982
 21
78.991316454599982
 31
0.0
  0
ARC
  8
DETAIL
  6
CONTINUOUS
 62
     5
 10
-78.991398075999982
 20
78.991316454599982
 30
0.0
 40
1.0
 50
90.0
 51
180.0
  0
LINE
  8
DETAIL
  6
CONTINUOUS
 62
     5
 10
-78.991398075999982
 20
79.991316454599982
 30
0.0
 11
78.990918378599872
 21
79.991316454599982
 31
0.0
  0
ARC
  8
DETAIL
  6
CONTINUOUS
 62
     5
 10
78.990918378599872
 20
78.991316454599982
 30
0.0
 40
1.0
 50
0.0
 51
90.0
  0
LINE
  8
DETAIL
  6
CONTINUOUS
 62
     5
 10
79.990918378599872
 20
78.991316454599982
 30
0.0
 11
79.990918378599872
 21
-78.991000000000014
 31
0.0
  0
ARC
  8
DETAIL
  6
CONTINUOUS
 62
     5
 10
78.990918378599872
 20
-78.991000000000014
 30
0.0
 40
1.0
 50
270.0
 51
0.0
  0
LINE
  8
DETAIL
  6
CONTINUOUS
 62
     5
 10
62.572642577800018
 20
-62.514818782799978
 30
0.0
 11
62.572642577800018
 21
62.515211389799973
 31
0.0
  0
LINE
  8
DETAIL
  6
CONTINUOUS
 62
     5
 10
57.403791868499873
 20
62.523935183899958
 30
0.0
 11
57.403791868499873
 21
-62.523542576900041
 31
0.0
  0
LINE
  8
DETAIL
  6
CONTINUOUS
 62
     5
 10
55.09580458649998
 20
-62.523542576900041
 30
0.0
 11
55.09580458649998
 21
62.523935183899958
 31
0.0
  0
LINE
  8
DETAIL
  6
CONTINUOUS
 62
     5
 10
49.903791868499873
 20
62.523935183899958
 30
0.0
 11
49.903791868499873
 21
-62.523542576900041
 31
0.0
  0
LINE
  8
DETAIL
  6
CONTINUOUS
 62
     5
 10
47.59580458649998
 20
-62.523542576900041
 30
0.0
 11
47.59580458649998
 21
62.523935183899958
 31
0.0
  0
LINE
  8
DETAIL
  6
CONTINUOUS
 62
     5
 10
42.403791868499873
 20
62.523935183899958
 30
0.0
 11
42.403791868499873
 21
-62.523542576900041
 31
0.0
  0
LINE
  8
DETAIL
  6
CONTINUOUS
 62
     5
 10
40.09580458649998
 20
-62.523542576900041
 30
0.0
 11
40.09580458649998
 21
62.523935183899958
 31
0.0
  0
LINE
  8
DETAIL
  6
CONTINUOUS
 62
     5
 10
34.903791868499873
 20
62.523935183899958
 30
0.0
 11
34.903791868499873
 21
-62.523542576900041
 31
0.0
  0
LINE
  8
DETAIL
  6
CONTINUOUS
 62
     5
 10
32.59580458649998
 20
-62.523542576900041
 30
0.0
 11
32.59580458649998
 21
62.523935183899958
 31
0.0
  0
LINE
  8
DETAIL
  6
CONTINUOUS
 62
     5
 10
27.403791868499869
 20
62.523935183899958
 30
0.0
 11
27.403791868499869
 21
-62.523542576900041
 31
0.0
  0
LINE
  8
DETAIL
  6
CONTINUOUS
 62
     5
 10
25.09580458649998
 20
-62.523542576900041
 30
0.0
 11
25.09580458649998
 21
62.523935183899958
 31
0.0
  0
LINE
  8
DETAIL
  6
CONTINUOUS
 62
     5
 10
19.903791868499869
 20
62.523935183899958
 30
0.0
 11
19.903791868499869
 21
-62.523542576900041
 31
0.0
  0
LINE
  8
DETAIL
  6
CONTINUOUS
 62
     5
 10
17.59580458649998
 20
-62.523542576900041
 30
0.0
 11
17.59580458649998
 21
62.523935183899958
 31
0.0
  0
LINE
  8
DETAIL
  6
CONTINUOUS
 62
     5
 10
12.403791868499869
 20
62.523935183899958
 30
0.0
 11
12.403791868499869
 21
-62.523542576900041
 31
0.0
  0
LINE
  8
DETAIL
  6
CONTINUOUS
 62
     5
 10
10.09580458649998
 20
-62.523542576900041
 30
0.0
 11
10.09580458649998
 21
62.523935183899958
 31
0.0
  0
LINE
  8
DETAIL
  6
CONTINUOUS
 62
     5
 10
4.9037918684998658
 20
62.523935183899958
 30
0.0
 11
4.9037918684998658
 21
-62.523542576900041
 31
0.0
  0
LINE
  8
DETAIL
  6
CONTINUOUS
 62
     5
 10
2.5958045864999799
 20
-62.523542576900041
 30
0.0
 11
2.5958045864999799
 21
62.523935183899958
 31
0.0
  0
ARC
  8
DETAIL
  6
CONTINUOUS
 62
     5
 10
0.0002741903997503
 20
0.0002741905000647
 30
0.0
 40
45.187627657500002
 50
339.78254444173399
 51
20.217455558266
  0
ARC
  8
DETAIL
  6
CONTINUOUS
 62
     5
 10
0.0002741903997503
 20
0.0002741905000647
 30
0.0
 40
45.187627657500009
 50
320.57108464741532
 51
332.53741037193993
  0
ARC
  8
DETAIL
  6
CONTINUOUS
 62
     5
 10
0.0002741903997503
 20
0.0002741905000647
 30
0.0
 40
45.187627657500002
 50
307.33242731064081
 51
316.16501765608149
  0
ARC
  8
DETAIL
  6
CONTINUOUS
 62
     5
 10
0.0002741903997503
 20
0.0002741905000647
 30
0.0
 40
45.187627657500002
 50
296.13348206778869
 51
303.7357117148884
  0
ARC
  8
DETAIL
  6
CONTINUOUS
 62
     5
 10
0.0002741903997503
 20
0.0002741905000647
 30
0.0
 40
45.187627657500002
 50
285.93157866092662
 51
292.91643870489122
  0
ARC
  8
DETAIL
  6
CONTINUOUS
 62
     5
 10
0.0002741903997503
 20
0.0002741905000647
 30
0.0
 40
45.187627657500002
 50
276.22969627896651
 51
282.90960943209188
  0
ARC
  8
DETAIL
  6
CONTINUOUS
 62
     5
 10
0.0002741903997503
 20
0.0002741905000647
 30
0.0
 40
45.187627657500002
 50
266.70648113950898
 51
273.29282238941039
  0
ARC
  8
DETAIL
  6
CONTINUOUS
 62
     5
 10
0.0002741903997503
 20
0.0002741905000647
 30
0.0
 40
45.187627657500002
 50
257.08967721504428
 51
263.7696042692279
  0
ARC
  8
DETAIL
  6
CONTINUOUS
 62
     5
 10
0.0002741903997503
 20
0.0002741905000647
 30
0.0
 40
45.187627657500002
 50
247.08280639037559
 51
254.06769824284001
  0
ARC
  8
DETAIL
  6
CONTINUOUS
 62
     5
 10
0.0002741903997503
 20
0.0002741905000647
 30
0.0
 40
45.187627657500002
 50
236.26345216490259
 51
243.865743432041
  0
ARC
  8
DETAIL
  6
CONTINUOUS
 62
     5
 10
0.0002741903997503
 20
0.0002741905000647
 30
0.0
 40
45.187627657500002
 50
223.8339783825227
 51
232.66669821010771
  0
ARC
  8
DETAIL
  6
CONTINUOUS
 62
     5
 10
0.0002741903997503
 20
0.0002741905000647
 30
0.0
 40
45.187627657500002
 50
207.46108185532421
 51
219.42782055378811
  0
ARC
  8
DETAIL
  6
CONTINUOUS
 62
     5
 10
0.0002741903997503
 20
0.0002741905000647
 30
0.0
 40
45.187627657499988
 50
159.78455655434709
 51
200.21544344565291
  0
ARC
  8
DETAIL
  6
CONTINUOUS
 62
     5
 10
0.0002741903997503
 20
0.0002741905000647
 30
0.0
 40
45.187627657499981
 50
140.57217944621189
 51
152.53891814467579
  0
ARC
  8
DETAIL
  6
CONTINUOUS
 62
     5
 10
0.0002741903997503
 20
0.0002741905000647
 30
0.0
 40
45.187627657500009
 50
127.3333017898923
 51
136.1660216174773
  0
ARC
  8
DETAIL
  6
CONTINUOUS
 62
     5
 10
0.0002741903997503
 20
0.0002741905000647
 30
0.0
 40
45.187627657500009
 50
116.134256567959
 51
123.7365478350974
  0
ARC
  8
DETAIL
  6
CONTINUOUS
 62
     5
 10
0.0002741903997503
 20
0.0002741905000647
 30
0.0
 40
45.187627657500002
 50
105.93230175716
 51
112.91719360962441
  0
ARC
  8
DETAIL
  6
CONTINUOUS
 62
     5
 10
0.0002741903997503
 20
0.0002741905000647
 30
0.0
 40
45.187627657500009
 50
96.230395730772003
 51
102.9103227849558
  0
ARC
  8
DETAIL
  6
CONTINUOUS
 62
     5
 10
0.0002741903997503
 20
0.0002741905000647
 30
0.0
 40
45.187627657500002
 50
86.707177610589625
 51
93.293518860491005
  0
ARC
  8
DETAIL
  6
CONTINUOUS
 62
     5
 10
0.0002741903997503
 20
0.0002741905000647
 30
0.0
 40
45.187627657499981
 50
77.090390567908102
 51
83.709376082601764
  0
ARC
  8
DETAIL
  6
CONTINUOUS
 62
     5
 10
0.0002741903997503
 20
0.0002741905000647
 30
0.0
 40
45.187627657500023
 50
67.083561295108893
 51
74.068421339073424
  0
ARC
  8
DETAIL
  6
CONTINUOUS
 62
     5
 10
0.0002741903997503
 20
0.0002741905000647
 30
0.0
 40
45.187627657500002
 50
56.264288285111647
 51
63.866517932211288
  0
ARC
  8
DETAIL
  6
CONTINUOUS
 62
     5
 10
0.0002741903997503
 20
0.0002741905000647
 30
0.0
 40
45.187627657500009
 50
43.83498234391854
 51
52.66757268935914
  0
ARC
  8
DETAIL
  6
CONTINUOUS
 62
     5
 10
0.0002741903997503
 20
0.0002741905000647
 30
0.0
 40
45.187627657500009
 50
27.46258962806008
 51
39.428915352584752
  0
LINE
  8
DETAIL
  6
CONTINUOUS
 62
     5
 10
-9.9866169171000347
 20
-43.880160570699971
 30
0.0
 11
-10.049725809600201
 21
-43.86599890709995
 31
0.0
  0
ARC
  8
DETAIL
  6
CONTINUOUS
 62
     5
 10
0.0002741903997503
 20
0.0002741905000647
 30
0.0
 40
12.5
 50
36.13377397556593
 51
66.903469660879395
  0
ARC
  8
DETAIL
  6
CONTINUOUS
 62
     5
 10
0.0002741903997503
 20
0.0002741905000647
 30
0.0
 40
12.50000000000003
 50
113.09926299223019
 51
143.87048893367421
  0
ARC
  8
DETAIL
  6
CONTINUOUS
 62
     5
 10
0.0002741903997503
 20
0.0002741905000647
 30
0.0
 40
12.50000000000002
 50
78.01577160808975
 51
101.986798001474
  0
ARC
  8
DETAIL
  6
CONTINUOUS
 62
     5
 10
0.0002741903997503
 20
0.0002741905000647
 30
0.0
 40
12.499999999999989
 50
258.01320199852591
 51
281.98422839191022
  0
ARC
  8
DETAIL
  6
CONTINUOUS
 62
     5
 10
0.0002741903997503
 20
0.0002741905000647
 30
0.0
 40
12.499999999999989
 50
216.1295110663257
 51
246.90073700776969
  0
ARC
  8
DETAIL
  6
CONTINUOUS
 62
     5
 10
0.0002741903997503
 20
0.0002741905000647
 30
0.0
 40
12.500000000000011
 50
293.34648184179969
 51
323.86622602443413
  0
ARC
  8
DETAIL
  6
CONTINUOUS
 62
     5
 10
-12.2547801886609
 20
-12.063864165879369
 30
0.0
 40
14.51743146821237
 50
311.70958787734031
 51
358.32896359252038
  0
ARC
  8
DETAIL
  6
CONTINUOUS
 62
     5
 10
-47.108791977179287
 20
18.76822649615859
 30
0.0
 40
61.307738775941971
 50
307.1374391024807
 51
313.50491124320962
  0
ARC
  8
DETAIL
  6
CONTINUOUS
 62
     5
 10
-43.835580545398557
 20
31.549449108754221
 30
0.0
 40
70.467521781793081
 50
291.86190751292708
 51
296.49055955899439
  0
ARC
  8
DETAIL
  6
CONTINUOUS
 62
     5
 10
-22.37201652454166
 20
-30.309479309171291
 30
0.0
 40
4.9218786130195804
 50
236.4029651207189
 51
300.10166681345032
  0
ARC
  8
DETAIL
  6
CONTINUOUS
 62
     5
 10
34.980567072460083
 20
33.905510278993503
 30
0.0
 40
91.159022153516716
 50
222.1578065368216
 51
226.8160005974612
  0
ARC
  8
DETAIL
  6
CONTINUOUS
 62
     5
 10
44.183450607250393
 20
21.53782647513448
 30
0.0
 40
91.358597072457783
 50
202.70455743561419
 51
210.03998520319871
  0
ARC
  8
DETAIL
  6
CONTINUOUS
 62
     5
 10
-38.528219636800827
 20
8.155666452263814
 30
0.0
 40
3.7874140898294049
 50
26.57902189425285
 51
114.4450790808195
  0
ARC
  8
DETAIL
  6
CONTINUOUS
 62
     5
 10
-2.0686484468518529
 20
30.95715950510434
 30
0.0
 40
39.580352143832407
 50
219.53251165557961
 51
230.20169212944651
  0
ARC
  8
DETAIL
  6
CONTINUOUS
 62
     5
 10
-9.5525701205518754
 20
16.98928654650366
 30
0.0
 40
23.45889311242728
 50
228.504476009793
 51
243.81712335735369
  0
ARC
  8
DETAIL
  6
CONTINUOUS
 62
     5
 10
-11.739510445185831
 20
15.294337749064891
 30
0.0
 40
20.12689704625851
 50
253.0848649776415
 51
267.86312102225628
  0
ARC
  8
DETAIL
  6
CONTINUOUS
 62
     5
 10
157.148710244222
 20
141.94497229342639
 30
0.0
 40
217.8783923026908
 50
216.6759447279552
 51
218.9042453252487
  0
ARC
  8
DETAIL
  6
CONTINUOUS
 62
     5
 10
11.79009642093126
 20
26.138165487839029
 30
0.0
 40
32.866945028344468
 50
164.6443301590634
 51
195.3556698409366
  0
ARC
  8
DETAIL
  6
CONTINUOUS
 62
     5
 10
14.424318866336881
 20
-40.335436173632061
 30
0.0
 40
85.354864781013902
 50
108.3191280920723
 51
112.0328394365106
  0
ARC
  8
DETAIL
  6
CONTINUOUS
 62
     5
 10
1.7689167194344011
 20
-11.82537376657781
 30
0.0
 40
54.436296225586041
 50
97.040636218233587
 51
102.588715881095
  0
ARC
  8
DETAIL
  6
CONTINUOUS
 62
     5
 10
-0.813219485742593
 20
-42.80451955434809
 30
0.0
 40
85.209676114240267
 50
87.706944021638293
 51
91.165812885394956
  0
ARC
  8
DETAIL
  6
CONTINUOUS
 62
     5
 10
-3.6587815565233091
 20
-18.194696590756099
 30
0.0
 40
60.918442824860023
 50
76.950580469281334
 51
81.91960395846931
  0
ARC
  8
DETAIL
  6
CONTINUOUS
 62
     5
 10
-24.874056316347041
 20
-64.867874083347303
 30
0.0
 40
111.7722236330131
 50
67.668151614052704
 51
70.517516354684091
  0
ARC
  8
DETAIL
  6
CONTINUOUS
 62
     5
 10
-63.43219674753766
 20
-99.185619845006443
 30
0.0
 40
159.98409774779191
 50
56.402395858575318
 51
58.607129705314357
  0
ARC
  8
DETAIL
  6
CONTINUOUS
 62
     5
 10
25.797214604839951
 20
28.831999193621311
 30
0.0
 40
3.7661908875080372
 50
295.25525061404261
 51
64.744749385957462
  0
ARC
  8
DETAIL
  6
CONTINUOUS
 62
     5
 10
35.041124273966368
 20
-307.73767990511948
 30
0.0
 40
333.40975671157747
 50
91.709289102124586
 51
92.602166722301604
  0
ARC
  8
DETAIL
  6
CONTINUOUS
 62
     5
 10
24.967726084585021
 20
3.4432236096692321
 30
0.0
 40
22.578109910395799
 50
109.0561933692524
 51
123.81086149522881
  0
ARC
  8
DETAIL
  6
CONTINUOUS
 62
     5
 10
14.91003745436501
 20
10.88575841669036
 30
0.0
 40
11.563088547472461
 50
114.60254511981751
 51
149.92123861324691
  0
ARC
  8
DETAIL
  6
CONTINUOUS
 62
     5
 10
28.184571986535161
 20
-92.802817044694123
 30
0.0
 40
102.68619865745259
 50
95.918577756627087
 51
98.840074076800917
  0
ARC
  8
DETAIL
  6
CONTINUOUS
 62
     5
 10
-58.058442131622542
 20
-514.13021462224674
 30
0.0
 40
529.21271494945279
 50
80.95972355678623
 51
81.528472962980672
  0
ARC
  8
DETAIL
  6
CONTINUOUS
 62
     5
 10
-17.324756486759501
 20
-100.58789501719249
 30
0.0
 40
117.28096233451799
 50
64.808082224759744
 51
67.580700220243131
  0
ARC
  8
DETAIL
  6
CONTINUOUS
 62
     5
 10
-79.512476196415477
 20
-139.73191448828371
 30
0.0
 40
183.81595210764621
 50
49.405799429208649
 51
51.50461135897627
  0
ARC
  8
DETAIL
  6
CONTINUOUS
 62
     5
 10
-51.324063751072693
 20
26.99343318041419
 30
0.0
 40
100.237507569085
 50
329.34333483017173
 51
335.78814395253937
  0
ARC
  8
DETAIL
  6
CONTINUOUS
 62
     5
 10
-118.3326389848347
 20
118.2841923499503
 30
0.0
 40
209.56583403747081
 50
314.06085987622782
 51
316.07076043750351
  0
ARC
  8
DETAIL
  6
CONTINUOUS
 62
     5
 10
-29.982140796496761
 20
48.340868657240136
 30
0.0
 40
99.169178501655196
 50
300.20142521358758
 51
303.73803248071772
  0
ARC
  8
DETAIL
  6
CONTINUOUS
 62
     5
 10
-24.784075755026041
 20
66.787648722144681
 30
0.0
 40
113.4902472549165
 50
289.1278383171832
 51
291.92703370788217
  0
ARC
  8
DETAIL
  6
CONTINUOUS
 62
     5
 10
11.696222452173171
 20
-37.036592427006077
 30
0.0
 40
3.868663709771103
 50
114.43222972571689
 51
245.56777027428311
  0
ARC
  8
DETAIL
  6
CONTINUOUS
 62
     5
 10
-14.188556082832751
 20
-22.675893687041722
 30
0.0
 40
27.222441093966442
 50
348.24129295603967
 51
1.782327046951363
  0
ARC
  8
DETAIL
  6
CONTINUOUS
 62
     5
 10
3.480144363170552
 20
-18.428015681418529
 30
0.0
 40
10.12870178436477
 50
340.37895666947611
 51
28.230368503222831
  0
ENDSEC
  0
EOF
