  0
SECTION
  2
HEADER
  9
$ACADVER
  1
AC1009
  9
$DWGCODEPAGE
  3
dos932
  9
$INSBASE
 10
0.0
 20
0.0
 30
0.0
  9
$EXTMIN
 10
-461.79655307414578
 20
-202.194201878965
 30
-0.0015258207003583
  9
$EXTMAX
 10
779.47999174878896
 20
680.60303547024159
 30
0.0000000349246037
  9
$LIMMIN
 10
-2970.0
 20
-2100.0
  9
$LIMMAX
 10
2970.0
 20
2100.0
  9
$ORTHOMODE
 70
     1
  9
$REGENMODE
 70
     1
  9
$FILLMODE
 70
     1
  9
$QTEXTMODE
 70
     0
  9
$MIRRTEXT
 70
     0
  9
$LTSCALE
 40
20.0
  9
$ATTMODE
 70
     1
  9
$TEXTSIZE
 40
64.0
  9
$TRACEWID
 40
0.05
  9
$TEXTSTYLE
  7
STANDARD
  9
$CLAYER
  8
SIZE
  9
$CELTYPE
  6
CONTINUOUS
  9
$CECOLOR
 62
     7
  9
$DIMSCALE
 40
1.0
  9
$DIMASZ
 40
12.0
  9
$DIMEXO
 40
20.0
  9
$DIMDLI
 40
200.0
  9
$DIMRND
 40
0.0
  9
$DIMDLE
 40
0.0
  9
$DIMEXE
 40
20.0
  9
$DIMTP
 40
0.0
  9
$DIMTM
 40
0.0
  9
$DIMTXT
 40
64.0
  9
$DIMCEN
 40
0.09
  9
$DIMTSZ
 40
0.0
  9
$DIMTOL
 70
     0
  9
$DIMLIM
 70
     0
  9
$DIMTIH
 70
     0
  9
$DIMTOH
 70
     0
  9
$DIMSE1
 70
     0
  9
$DIMSE2
 70
     0
  9
$DIMTAD
 70
     1
  9
$DIMZIN
 70
     8
  9
$DIMBLK
  1

  9
$DIMASO
 70
     1
  9
$DIMSHO
 70
     0
  9
$DIMPOST
  1

  9
$DIMAPOST
  1

  9
$DIMALT
 70
     0
  9
$DIMALTD
 70
     2
  9
$DIMALTF
 40
25.399999999999999
  9
$DIMLFAC
 40
1.0
  9
$DIMTOFL
 70
     1
  9
$DIMTVP
 40
0.0
  9
$DIMTIX
 70
     1
  9
$DIMSOXD
 70
     0
  9
$DIMSAH
 70
     0
  9
$DIMBLK1
  1

  9
$DIMBLK2
  1

  9
$DIMSTYLE
  2
STANDARD
  9
$DIMCLRD
 70
     7
  9
$DIMCLRE
 70
     7
  9
$DIMCLRT
 70
     7
  9
$DIMTFAC
 40
1.0
  9
$DIMGAP
 40
25.0
  9
$LUNITS
 70
     2
  9
$LUPREC
 70
     4
  9
$SKETCHINC
 40
0.1
  9
$FILLETRAD
 40
3.0
  9
$AUNITS
 70
     1
  9
$AUPREC
 70
     3
  9
$MENU
  1
ACAD
  9
$ELEVATION
 40
0.0
  9
$PELEVATION
 40
0.0
  9
$THICKNESS
 40
0.0
  9
$LIMCHECK
 70
     0
  9
$CHAMFERA
 40
0.0
  9
$CHAMFERB
 40
0.0
  9
$SKPOLY
 70
     0
  9
$TDCREATE
 40
2453019.623009259
  9
$TDUPDATE
 40
2459356.652856065
  9
$TDINDWG
 40
1.7305483912
  9
$TDUSRTIMER
 40
1.7305483912
  9
$USRTIMER
 70
     1
  9
$ANGBASE
 50
0.0
  9
$ANGDIR
 70
     0
  9
$PDMODE
 70
     3
  9
$PDSIZE
 40
-2.0
  9
$PLINEWID
 40
0.0
  9
$SPLFRAME
 70
     0
  9
$SPLINETYPE
 70
     6
  9
$SPLINESEGS
 70
     8
  9
$SURFTAB1
 70
     6
  9
$SURFTAB2
 70
     6
  9
$SURFTYPE
 70
     6
  9
$SURFU
 70
     6
  9
$SURFV
 70
     6
  9
$UCSNAME
  2

  9
$UCSORG
 10
0.0
 20
0.0
 30
0.0
  9
$UCSXDIR
 10
1.0
 20
0.0
 30
0.0
  9
$UCSYDIR
 10
0.0
 20
1.0
 30
0.0
  9
$PUCSNAME
  2

  9
$PUCSORG
 10
0.0
 20
0.0
 30
0.0
  9
$PUCSXDIR
 10
1.0
 20
0.0
 30
0.0
  9
$PUCSYDIR
 10
0.0
 20
1.0
 30
0.0
  9
$USERI1
 70
     0
  9
$USERI2
 70
     0
  9
$USERI3
 70
     0
  9
$USERI4
 70
     0
  9
$USERI5
 70
     0
  9
$USERR1
 40
20.0
  9
$USERR2
 40
0.0
  9
$USERR3
 40
0.0
  9
$USERR4
 40
0.0
  9
$USERR5
 40
0.0
  9
$WORLDVIEW
 70
     1
  9
$SHADEDGE
 70
     3
  9
$SHADEDIF
 70
    70
  9
$TILEMODE
 70
     1
  9
$MAXACTVP
 70
    48
  9
$PINSBASE
 10
0.0
 20
0.0
 30
0.0
  9
$PLIMCHECK
 70
     0
  9
$PEXTMIN
 10
-100000000000000000000.0
 20
-100000000000000000000.0
 30
-100000000000000000000.0
  9
$PEXTMAX
 10
100000000000000000000.0
 20
100000000000000000000.0
 30
100000000000000000000.0
  9
$PLIMMIN
 10
0.0
 20
0.0
  9
$PLIMMAX
 10
12.0
 20
9.0
  9
$UNITMODE
 70
     0
  9
$VISRETAIN
 70
     0
  9
$PLINEGEN
 70
     0
  9
$PSLTSCALE
 70
     0
  9
$TREEDEPTH
 70
  3020
  9
$ATTDIA
 70
     0
  9
$ATTREQ
 70
     1
  9
$BLIPMODE
 70
     1
  9
$COORDS
 70
     1
  9
$DRAGMODE
 70
     2
  9
$OSMODE
 70
     0
  9
$HANDLING
 70
     0
  9
$HANDSEED
  5
2DF
  0
ENDSEC
  0
SECTION
  2
TABLES
  0
TABLE
  2
LTYPE
 70
     2
  0
LTYPE
  2
CONTINUOUS
 70
     0
  3
実線
 72
    65
 73
     0
 40
0.0
  0
LTYPE
  2
DASHDOT
 70
     0
  3
____ _ ____ _ ____ _ ____ _ ____ _ ____ _ ____
 72
    65
 73
     4
 40
5.5
 49
4.0
 49
-0.6
 49
0.3
 49
-0.6
  0
ENDTAB
  0
TABLE
  2
LAYER
 70
    12
  0
LAYER
  2
SIZE
 70
     0
 62
    30
  6
CONTINUOUS
  0
LAYER
  2
BASIS
 70
     0
 62
     6
  6
DASHDOT
  0
LAYER
  2
OUTLINE
 70
     0
 62
     3
  6
CONTINUOUS
  0
LAYER
  2
DETAIL
 70
     0
 62
     5
  6
CONTINUOUS
  0
LAYER
  2
ARRANGE
 70
     0
 62
     1
  6
CONTINUOUS
  0
LAYER
  2
ETC
 70
     0
 62
    61
  6
CONTINUOUS
  0
LAYER
  2
FIX
 70
     0
 62
    11
  6
CONTINUOUS
  0
LAYER
  2
NOTE
 70
     0
 62
     4
  6
CONTINUOUS
  0
LAYER
  2
0
 70
    64
 62
     7
  6
CONTINUOUS
  0
LAYER
  2
DEFPOINTS
 70
    64
 62
     7
  6
CONTINUOUS
  0
LAYER
  2
SERVICESPACE
 70
    64
 62
     2
  6
DASHDOT
  0
LAYER
  2
SYMBOLLINE
 70
    64
 62
    15
  6
CONTINUOUS
  0
ENDTAB
  0
TABLE
  2
STYLE
 70
     1
  0
STYLE
  2
STANDARD
 70
     0
 40
64.0
 41
0.9
 50
0.0
 71
     0
 42
64.0
  3
SIMPLEX.shx
  4
BIGFONT.shx
  0
ENDTAB
  0
TABLE
  2
APPID
 70
    20
  0
APPID
  2
ACAD
 70
     0
  0
APPID
  2
ACADANNOTATIVE
 70
     0
  0
APPID
  2
AUTOCAD_POSTSCRIPT_FIGURE
 70
     0
  0
APPID
  2
ACAD_EXEMPT_FROM_CAD_STANDARDS
 70
     0
  0
APPID
  2
ACAD_PSEXT
 70
     0
  0
APPID
  2
ACAUTHENVIRON
 70
     0
  0
APPID
  2
GENIUS_GENOENT_13
 70
     0
  0
APPID
  2
GENIUS_GENCFG_13
 70
     0
  0
APPID
  2
GENIUS_GENCFG0_13
 70
     0
  0
APPID
  2
GENIUS_GENCFG1_13
 70
     0
  0
APPID
  2
GENIUS_GENCFG2_13
 70
     0
  0
APPID
  2
GENIUS_GENCFG3_13
 70
     0
  0
APPID
  2
GENIUS_GENCFG4_13
 70
     0
  0
APPID
  2
GENIUS_GEVCFG0_13
 70
     0
  0
APPID
  2
CONTENTBLOCKICON
 70
     0
  0
APPID
  2
CONTENTBLOCKDESCRIPTION
 70
     0
  0
APPID
  2
ACAD_NAV_VCDISPLAY
 70
     0
  0
APPID
  2
ACAD_MLEADERVER
 70
     0
  0
APPID
  2
ACDBDYNAMICBLOCKTRUENAME
 70
     0
  0
APPID
  2
ACDBDYNAMICBLOCKGUID
 70
     0
  0
ENDTAB
  0
TABLE
  2
DIMSTYLE
 70
     1
  0
DIMSTYLE
  2
STANDARD
 70
     0
  3

  4

  5

  6

  7

 40
1.0
 41
12.0
 42
20.0
 43
200.0
 44
20.0
 45
0.0
 46
0.0
 47
0.0
 48
0.0
140
64.0
141
0.09
142
0.0
143
25.399999999999999
144
1.0
145
0.0
146
1.0
147
25.0
 71
     0
 72
     0
 73
     0
 74
     0
 75
     0
 76
     0
 77
     1
 78
     8
170
     0
171
     2
172
     1
173
     0
174
     1
175
     0
176
     7
177
     7
178
     7
  0
ENDTAB
  0
TABLE
  2
VIEW
 70
     1
  0
VIEW
  2
ALL
 70
     0
 40
4282.6198079999986
 10
0.0
 20
41.309904000000003
 41
5940.0
 11
0.0
 21
0.0
 31
1.0
 12
0.0
 22
0.0
 32
0.0
 42
50.0
 43
0.0
 44
0.0
 50
0.0
 71
     0
  0
ENDTAB
  0
TABLE
  2
UCS
 70
     0
  0
ENDTAB
  0
TABLE
  2
VPORT
 70
     1
  0
VPORT
  2
*ACTIVE
 70
     0
 10
0.0
 20
0.0
 11
1.0
 21
1.0
 12
158.84171933732159
 22
239.20441679563831
 13
0.0
 23
0.0
 14
1.0
 24
1.0
 15
0.0
 25
0.0
 16
0.0
 26
0.0
 36
1.0
 17
0.0
 27
0.0
 37
0.0
 40
796.36846453358066
 41
1.8851435705368289
 42
50.0
 43
0.0
 44
0.0
 50
0.0
 51
0.0
 71
     0
 72
  1000
 73
     1
 74
     3
 75
     0
 76
     0
 77
     0
 78
     0
  0
ENDTAB
  0
ENDSEC
  0
SECTION
  2
BLOCKS
  0
ENDSEC
  0
SECTION
  2
ENTITIES
  0
TEXT
  8
ETC
  6
CONTINUOUS
 62
    61
 10
205.99476660228811
 20
616.6018300569533
 30
0.0
 40
64.0
  1
V-08PPM8_6
 41
0.9
  0
TEXT
  8
ETC
  6
CONTINUOUS
 62
    61
 10
201.80877260228769
 20
498.64652004212212
 30
0.0
 40
64.0
  1
換気扇
 41
0.9
  0
LINE
  8
BASIS
  6
DASHDOT
 62
     6
 10
0.0
 20
-74.455843194256445
 30
0.0
 11
0.0
 21
109.2854010143142
 31
0.0
  0
LINE
  8
BASIS
  6
DASHDOT
 62
     6
 10
95.967552833830496
 20
0.0
 30
0.0
 11
-95.967646960021909
 21
0.0000000000000284
 31
0.0
  0
TEXT
  8
ETC
  6
CONTINUOUS
 62
    61
 10
252.51017085084371
 20
390.49774715589677
 30
0.0
 40
40.0
  1
V-08PPM8
 41
0.9
  0
CIRCLE
  8
FIX
  6
CONTINUOUS
 62
    11
 10
69.945735111388331
 20
0.0
 30
0.0
 40
7.0441691683918863
  0
LINE
  8
NOTE
  6
CONTINUOUS
 62
     4
 10
69.945735111388331
 20
-26.02181772244208
 30
0.0
 11
69.945735111388331
 21
26.02181772244208
 31
0.0
  0
CIRCLE
  8
FIX
  6
CONTINUOUS
 62
    11
 10
-69.945829237579858
 20
0.0
 30
0.0
 40
7.0441691683918863
  0
LINE
  8
NOTE
  6
CONTINUOUS
 62
     4
 10
-69.945829237579858
 20
-26.02181772244208
 30
0.0
 11
-69.945829237579858
 21
26.02181772244208
 31
0.0
  0
LINE
  8
NOTE
  6
CONTINUOUS
 62
     4
 10
-43.924011515137749
 20
0.0
 30
0.0
 11
-95.967646960021909
 21
0.0000000000000284
 31
0.0
  0
TEXT
  8
NOTE
  6
CONTINUOUS
 62
     4
 10
142.25035519483211
 20
57.07725143514746
 30
0.0
 40
64.0
  1
2-φ4×10
 41
0.9
  0
LINE
  8
NOTE
  6
CONTINUOUS
 62
     4
 10
76.10311955087127
 20
0.8193388520101337
 30
0.0
 11
69.945735111388331
 21
0.0000000000000284
 31
0.0
  0
LINE
  8
NOTE
  6
CONTINUOUS
 62
     4
 10
69.945735111388331
 20
0.0000000000000284
 30
0.0
 11
74.868511322141558
 21
3.788267898240917
 31
0.0
  0
LINE
  8
NOTE
  6
CONTINUOUS
 62
     4
 10
69.945735111388331
 20
0.0000000000000284
 30
0.0
 11
81.025895761624497
 21
4.6076067502510236
 31
0.0
  0
LINE
  8
NOTE
  6
CONTINUOUS
 62
     4
 10
81.025895761624497
 20
4.6076067502510236
 30
0.0
 11
130.25035519483211
 21
25.077251435147449
 31
0.0
  0
LINE
  8
NOTE
  6
CONTINUOUS
 62
     4
 10
130.25035519483211
 20
25.077251435147449
 30
0.0
 11
540.57469824787358
 21
25.077251435147449
 31
0.0
  0
LINE
  8
SIZE
  6
CONTINUOUS
 62
    30
 10
-47.513656585632127
 20
60.953834890777607
 30
0.0
 11
-47.513656585632077
 21
333.64626670493732
 31
0.0
  0
LINE
  8
SIZE
  6
CONTINUOUS
 62
    30
 10
47.487149167431987
 20
60.953834890777443
 30
0.0
 11
47.487149167431987
 21
333.64626670493732
 31
0.0
  0
LINE
  8
SIZE
  6
CONTINUOUS
 62
    30
 10
35.487149167431987
 20
313.64626670493732
 30
0.0
 11
-35.513656585632077
 21
313.64626670493732
 31
0.0
  0
LINE
  8
SIZE
  6
CONTINUOUS
 62
    30
 10
-47.513656585632077
 20
313.64626670493732
 30
0.0
 11
-272.89067462489652
 21
313.64626670493732
 31
0.0
  0
CIRCLE
  8
SIZE
  6
CONTINUOUS
 62
    30
 10
47.487149167431987
 20
313.64626670493732
 30
0.0
 40
6.0
  0
LINE
  8
SIZE
  6
CONTINUOUS
 62
    30
 10
47.487149167431987
 20
313.64626670493732
 30
0.0
 11
35.487149167431987
 21
313.64626670493732
 31
0.0
  0
CIRCLE
  8
SIZE
  6
CONTINUOUS
 62
    30
 10
-47.513656585632077
 20
313.64626670493732
 30
0.0
 40
6.0
  0
LINE
  8
SIZE
  6
CONTINUOUS
 62
    30
 10
-47.513656585632077
 20
313.64626670493732
 30
0.0
 11
-35.513656585632077
 21
313.64626670493732
 31
0.0
  0
TEXT
  8
SIZE
  6
CONTINUOUS
 62
    30
 10
-258.03924605346799
 20
349.31293337160378
 30
0.0
 40
64.0
  1
φ95
 41
0.9
 72
     1
 11
-171.09067462489659
 21
349.31293337160378
 31
0.0
  0
LINE
  8
SIZE
  6
CONTINUOUS
 62
    30
 10
-25.427418984399761
 20
110.5523572222003
 30
0.0
 11
-25.427418984399761
 21
177.64579757223279
 31
0.0
  0
LINE
  8
SIZE
  6
CONTINUOUS
 62
    30
 10
25.400911566199849
 20
110.5523572222003
 30
0.0
 11
25.400911566199849
 21
177.64579757223279
 31
0.0
  0
LINE
  8
SIZE
  6
CONTINUOUS
 62
    30
 10
37.400911566199802
 20
157.64579757223279
 30
0.0
 11
49.400911566199802
 21
157.64579757223279
 31
0.0
  0
LINE
  8
SIZE
  6
CONTINUOUS
 62
    30
 10
-37.427418984399758
 20
157.64579757223279
 30
0.0
 11
-273.23363371292533
 21
157.64579757223279
 31
0.0
  0
LINE
  8
SIZE
  6
CONTINUOUS
 62
    30
 10
25.400911566199849
 20
157.64579757223279
 30
0.0
 11
-25.427418984399761
 21
157.64579757223279
 31
0.0
  0
CIRCLE
  8
SIZE
  6
CONTINUOUS
 62
    30
 10
25.400911566199849
 20
157.64579757223279
 30
0.0
 40
6.0
  0
LINE
  8
SIZE
  6
CONTINUOUS
 62
    30
 10
25.400911566199849
 20
157.64579757223279
 30
0.0
 11
37.400911566199852
 21
157.64579757223279
 31
0.0
  0
CIRCLE
  8
SIZE
  6
CONTINUOUS
 62
    30
 10
-25.427418984399761
 20
157.64579757223279
 30
0.0
 40
6.0
  0
LINE
  8
SIZE
  6
CONTINUOUS
 62
    30
 10
-25.427418984399761
 20
157.64579757223279
 30
0.0
 11
-37.427418984399758
 21
157.64579757223279
 31
0.0
  0
TEXT
  8
SIZE
  6
CONTINUOUS
 62
    30
 10
-258.38220514149668
 20
193.31246423889959
 30
0.0
 40
64.0
  1
φ51
 41
0.9
 72
     1
 11
-183.77649085578241
 21
193.31246423889959
 31
0.0
  0
LINE
  8
SIZE
  6
CONTINUOUS
 62
    30
 10
89.986746290899987
 20
-20.0
 30
0.0
 11
89.986746290899987
 21
-201.8404935140675
 31
0.0
  0
LINE
  8
SIZE
  6
CONTINUOUS
 62
    30
 10
-90.000041688000124
 20
-20.0
 30
0.0
 11
-90.000041688000124
 21
-201.8404935140675
 31
0.0
  0
LINE
  8
SIZE
  6
CONTINUOUS
 62
    30
 10
-78.000041688000124
 20
-181.8404935140675
 30
0.0
 11
77.986746290899987
 21
-181.8404935140675
 31
0.0
  0
LINE
  8
SIZE
  6
CONTINUOUS
 62
    30
 10
89.986746290899987
 20
-181.8404935140675
 30
0.0
 11
351.94103200518572
 21
-181.8404935140675
 31
0.0
  0
CIRCLE
  8
SIZE
  6
CONTINUOUS
 62
    30
 10
-90.000041688000124
 20
-181.8404935140675
 30
0.0
 40
6.0
  0
LINE
  8
SIZE
  6
CONTINUOUS
 62
    30
 10
-90.000041688000124
 20
-181.8404935140675
 30
0.0
 11
-78.000041688000124
 21
-181.8404935140675
 31
0.0
  0
CIRCLE
  8
SIZE
  6
CONTINUOUS
 62
    30
 10
89.986746290899987
 20
-181.8404935140675
 30
0.0
 40
6.0
  0
LINE
  8
SIZE
  6
CONTINUOUS
 62
    30
 10
89.986746290899987
 20
-181.8404935140675
 30
0.0
 11
77.986746290899987
 21
-181.8404935140675
 31
0.0
  0
TEXT
  8
SIZE
  6
CONTINUOUS
 62
    30
 10
119.30674629089999
 20
-146.17382684740079
 30
0.0
 40
64.0
  1
φ180
 41
0.9
 72
     1
 11
228.1981748623285
 21
-146.17382684740079
 31
0.0
  0
LINE
  8
SIZE
  6
CONTINUOUS
 62
    30
 10
69.945735111388331
 20
46.021817722442073
 30
0.0
 11
69.945735111388458
 21
471.89058764985009
 31
0.0
  0
LINE
  8
SIZE
  6
CONTINUOUS
 62
    30
 10
-69.945829237579858
 20
46.021817722442073
 30
0.0
 11
-69.945829237579801
 21
471.89058764985009
 31
0.0
  0
LINE
  8
SIZE
  6
CONTINUOUS
 62
    30
 10
57.945735111388437
 20
451.89058764985009
 30
0.0
 11
-57.945829237579787
 21
451.89058764985009
 31
0.0
  0
CIRCLE
  8
SIZE
  6
CONTINUOUS
 62
    30
 10
69.945735111388458
 20
451.89058764985009
 30
0.0
 40
6.0
  0
LINE
  8
SIZE
  6
CONTINUOUS
 62
    30
 10
69.945735111388458
 20
451.89058764985009
 30
0.0
 11
57.945735111388437
 21
451.89058764985009
 31
0.0
  0
CIRCLE
  8
SIZE
  6
CONTINUOUS
 62
    30
 10
-69.945829237579801
 20
451.89058764985009
 30
0.0
 40
6.0
  0
LINE
  8
SIZE
  6
CONTINUOUS
 62
    30
 10
-69.945829237579801
 20
451.89058764985009
 30
0.0
 11
-57.945829237579787
 21
451.89058764985009
 31
0.0
  0
TEXT
  8
SIZE
  6
CONTINUOUS
 62
    30
 10
-68.571475634524305
 20
476.89058764985009
 30
0.0
 40
64.0
  1
140
 41
0.9
 72
     1
 11
-0.0000470630957352
 21
476.89058764985009
 31
0.0
  0
LINE
  8
SIZE
  6
CONTINUOUS
 62
    30
 10
-115.9676469600219
 20
0.0000000000000284
 30
0.0
 11
-170.61946277524021
 21
0.0000000000000284
 31
0.0
  0
LINE
  8
SIZE
  6
CONTINUOUS
 62
    30
 10
-20.00002091849905
 20
-34.830141720499228
 30
0.0
 11
-170.61946277524021
 21
-34.830141720499171
 31
0.0
  0
LINE
  8
SIZE
  6
CONTINUOUS
 62
    30
 10
-150.61946277524021
 20
12.00000000000003
 30
0.0
 11
-150.61946277524021
 21
24.000000000000028
 31
0.0
  0
LINE
  8
SIZE
  6
CONTINUOUS
 62
    30
 10
-150.61946277524021
 20
-46.830141720499171
 30
0.0
 11
-150.61946277524029
 21
-202.08728457764201
 31
0.0
  0
LINE
  8
SIZE
  6
CONTINUOUS
 62
    30
 10
-150.61946277524021
 20
0.0000000000000284
 30
0.0
 11
-150.61946277524021
 21
-34.830141720499171
 31
0.0
  0
CIRCLE
  8
SIZE
  6
CONTINUOUS
 62
    30
 10
-150.61946277524021
 20
0.0000000000000284
 30
0.0
 40
6.0
  0
LINE
  8
SIZE
  6
CONTINUOUS
 62
    30
 10
-150.61946277524021
 20
0.0000000000000284
 30
0.0
 11
-150.61946277524021
 21
12.00000000000003
 31
0.0
  0
CIRCLE
  8
SIZE
  6
CONTINUOUS
 62
    30
 10
-150.61946277524021
 20
-34.830141720499171
 30
0.0
 40
6.0
  0
LINE
  8
SIZE
  6
CONTINUOUS
 62
    30
 10
-150.61946277524021
 20
-34.830141720499171
 30
0.0
 11
-150.61946277524021
 21
-46.830141720499171
 31
0.0
  0
TEXT
  8
SIZE
  6
CONTINUOUS
 62
    30
 10
-175.61946277524021
 20
-177.08728457764201
 30
0.0
 40
64.0
  1
35
 50
90.0
 41
0.9
 72
     1
 11
-175.61946277524021
 21
-130.4587131490706
 31
0.0
  0
LINE
  8
SIZE
  6
CONTINUOUS
 62
    30
 10
-115.9676469600219
 20
0.0000000000000284
 30
0.0
 11
-292.74082746444128
 21
0.0000000000000853
 31
0.0
  0
LINE
  8
SIZE
  6
CONTINUOUS
 62
    30
 10
-66.814098676561912
 20
62.799999999916217
 30
0.0
 11
-292.74082746444128
 21
62.799999999916267
 31
0.0
  0
LINE
  8
SIZE
  6
CONTINUOUS
 62
    30
 10
-272.74082746444128
 20
74.799999999916295
 30
0.0
 11
-272.74082746444128
 21
86.799999999916309
 31
0.0
  0
LINE
  8
SIZE
  6
CONTINUOUS
 62
    30
 10
-272.74082746444128
 20
-11.99999999999994
 30
0.0
 11
-272.74082746444128
 21
-168.2924670045272
 31
0.0
  0
LINE
  8
SIZE
  6
CONTINUOUS
 62
    30
 10
-272.74082746444128
 20
62.799999999916267
 30
0.0
 11
-272.74082746444128
 21
0.0000000000000568
 31
0.0
  0
CIRCLE
  8
SIZE
  6
CONTINUOUS
 62
    30
 10
-272.74082746444128
 20
62.799999999916267
 30
0.0
 40
6.0
  0
LINE
  8
SIZE
  6
CONTINUOUS
 62
    30
 10
-272.74082746444128
 20
62.799999999916267
 30
0.0
 11
-272.74082746444128
 21
74.799999999916295
 31
0.0
  0
CIRCLE
  8
SIZE
  6
CONTINUOUS
 62
    30
 10
-272.74082746444128
 20
0.0000000000000568
 30
0.0
 40
6.0
  0
LINE
  8
SIZE
  6
CONTINUOUS
 62
    30
 10
-272.74082746444128
 20
0.0000000000000568
 30
0.0
 11
-272.74082746444128
 21
-11.99999999999994
 31
0.0
  0
TEXT
  8
SIZE
  6
CONTINUOUS
 62
    30
 10
-297.74082746444128
 20
-143.29246700452731
 30
0.0
 40
64.0
  1
63
 50
90.0
 41
0.9
 72
     1
 11
-297.74082746444128
 21
-96.663895575955848
 31
0.0
  0
LINE
  8
SIZE
  6
CONTINUOUS
 62
    30
 10
-115.9676469600219
 20
0.0000000000000284
 30
0.0
 11
-392.79516282935492
 21
0.0000000000000853
 31
0.0
  0
LINE
  8
SIZE
  6
CONTINUOUS
 62
    30
 10
-42.414622189899653
 20
93.500000000000043
 30
0.0
 11
-392.79516282935492
 21
93.500000000000156
 31
0.0
  0
LINE
  8
SIZE
  6
CONTINUOUS
 62
    30
 10
-372.79516282935492
 20
12.000000000000091
 30
0.0
 11
-372.79516282935492
 21
81.500000000000185
 31
0.0
  0
CIRCLE
  8
SIZE
  6
CONTINUOUS
 62
    30
 10
-372.79516282935492
 20
0.0000000000000853
 30
0.0
 40
6.0
  0
LINE
  8
SIZE
  6
CONTINUOUS
 62
    30
 10
-372.79516282935492
 20
0.0000000000000853
 30
0.0
 11
-372.79516282935492
 21
12.000000000000091
 31
0.0
  0
CIRCLE
  8
SIZE
  6
CONTINUOUS
 62
    30
 10
-372.79516282935492
 20
93.500000000000156
 30
0.0
 40
6.0
  0
LINE
  8
SIZE
  6
CONTINUOUS
 62
    30
 10
-372.79516282935492
 20
93.500000000000156
 30
0.0
 11
-372.79516282935492
 21
81.500000000000185
 31
0.0
  0
TEXT
  8
SIZE
  6
CONTINUOUS
 62
    30
 10
-397.79516282935492
 20
0.121428571428666
 30
0.0
 40
64.0
  1
93
 50
90.0
 41
0.9
 72
     1
 11
-397.79516282935492
 21
46.750000000000092
 31
0.0
  0
CIRCLE
  8
ARRANGE
  6
CONTINUOUS
 62
     1
 10
0.0
 20
0.0
 30
0.0
 40
40.0
  0
POINT
  8
ARRANGE
  6
CONTINUOUS
 62
     1
 10
0.0
 20
0.0
 30
0.0
  0
LINE
  8
DETAIL
  6
CONTINUOUS
 62
     5
 10
89.716839944499952
 20
-15.46292422979991
 30
0.0
 11
89.986746290900101
 21
0.0
 31
0.0
  0
ARC
  8
DETAIL
  6
CONTINUOUS
 62
     5
 10
-79.744870411100237
 20
-15.28840016539993
 30
0.0
 40
9.9999999999999911
 50
181.0000000007021
 51
256.43756842490018
  0
LINE
  8
DETAIL
  6
CONTINUOUS
 62
     5
 10
-89.743347362700206
 20
-15.46292422979991
 30
0.0
 11
-90.013253709100127
 21
0.0
 31
0.0
  0
LINE
  8
DETAIL
  6
CONTINUOUS
 62
     5
 10
-75.013253709100127
 20
-26.639167773599869
 30
0.0
 11
-82.089917959700188
 21
-25.009549891299908
 31
0.0
  0
LINE
  8
DETAIL
  6
CONTINUOUS
 62
     5
 10
-75.013253709100127
 20
-26.639167773599869
 30
0.0
 11
74.986746290899873
 21
-26.639167773599869
 31
0.0
  0
LINE
  8
DETAIL
  6
CONTINUOUS
 62
     5
 10
74.986746290899873
 20
-26.639167773599869
 30
0.0
 11
82.063410541499707
 21
-25.009549891299908
 31
0.0
  0
ARC
  8
DETAIL
  6
CONTINUOUS
 62
     5
 10
73.986746290899873
 20
-25.894651747599941
 30
0.0
 40
1.000000000000058
 50
282.24159669469452
 51
311.57356324640341
  0
ARC
  8
DETAIL
  6
CONTINUOUS
 62
     5
 10
-74.013253709100127
 20
-25.894651747599941
 30
0.0
 40
1.0000000000000699
 50
228.42643675359639
 51
257.75840330529218
  0
ARC
  8
DETAIL
  6
CONTINUOUS
 62
     5
 10
-0.0132537091001268
 20
315.16985827949998
 30
0.0
 40
350.00000000000011
 50
257.75840096580112
 51
282.24159903419888
  0
ARC
  8
DETAIL
  6
CONTINUOUS
 62
     5
 10
79.718362992899756
 20
-15.28840016539993
 30
0.0
 40
10.000000000000011
 50
283.56243157509982
 51
358.99999999999818
  0
LINE
  8
DETAIL
  6
CONTINUOUS
 62
     5
 10
-90.013112522400206
 20
0.0
 30
0.0
 11
89.973492581799746
 21
0.0
 31
0.0
  0
LINE
  8
DETAIL
  6
CONTINUOUS
 62
     5
 10
26.951812338188571
 20
58.999999999926793
 30
0.0
 11
26.934357273267779
 21
57.999999999929862
 31
0.0
  0
ARC
  8
DETAIL
  6
CONTINUOUS
 62
     5
 10
46.800844967461899
 20
62.299999999916047
 30
0.0
 40
0.4999999999999939
 50
0.5000000000827504
 51
90.0
  0
LINE
  8
DETAIL
  6
CONTINUOUS
 62
     5
 10
47.300825928994072
 20
62.304363267665963
 30
0.0
 11
47.813014732614249
 21
5.1325529725686474
 31
0.0
  0
ARC
  8
DETAIL
  6
CONTINUOUS
 62
     5
 10
89.767490531186013
 20
5.4988301096769874
 30
0.0
 40
41.956074631382201
 50
180.50019933589769
 51
187.53094219272171
  0
ARC
  8
DETAIL
  6
CONTINUOUS
 62
     5
 10
35.277942594138722
 20
58.49999999992815
 30
0.0
 40
0.499999999998636
 50
270.0
 51
358.99999999999488
  0
LINE
  8
DETAIL
  6
CONTINUOUS
 62
     5
 10
35.786746290637211
 20
58.999999999926793
 30
0.0
 11
35.777866441737388
 21
58.491273796728137
 31
0.0
  0
LINE
  8
DETAIL
  6
CONTINUOUS
 62
     5
 10
44.443610464603751
 20
62.799999999916039
 30
0.0
 11
44.358122015546542
 21
0.0
 31
0.0
  0
LINE
  8
DETAIL
  6
CONTINUOUS
 62
     5
 10
46.800844967461899
 20
62.799999999916047
 30
0.0
 11
35.75532717410124
 21
62.799999999916047
 31
0.0
  0
LINE
  8
DETAIL
  6
CONTINUOUS
 62
     5
 10
26.951812338188571
 20
58.999999999926793
 30
0.0
 11
26.76853415644382
 21
69.500000000000227
 31
0.0
  0
ARC
  8
DETAIL
  6
CONTINUOUS
 62
     5
 10
35.14702960749969
 20
69.000000000000227
 30
0.0
 40
0.500000000000002
 50
0.9999999999757105
 51
90.0
  0
ARC
  8
DETAIL
  6
CONTINUOUS
 62
     5
 10
22.401368480799871
 20
90.500000000000227
 30
0.0
 40
3.000000000000036
 50
1.0000000542991001
 51
90.000001808992835
  0
LINE
  8
DETAIL
  6
CONTINUOUS
 62
     5
 10
25.768381828399701
 20
69.500000000000227
 30
0.0
 11
25.400911566199738
 21
90.552357222200271
 31
0.0
  0
LINE
  8
DETAIL
  6
CONTINUOUS
 62
     5
 10
35.646953455099947
 20
69.008726203200013
 30
0.0
 11
35.821656420829193
 21
58.999999999926793
 31
0.0
  0
LINE
  8
DETAIL
  6
CONTINUOUS
 62
     5
 10
-26.978319756388601
 20
58.999999999926899
 30
0.0
 11
-26.960864691467801
 21
57.999999999929969
 31
0.0
  0
ARC
  8
DETAIL
  6
CONTINUOUS
 62
     5
 10
-46.827352385661918
 20
62.299999999916217
 30
0.0
 40
0.4999999999999939
 50
90.0
 51
179.49999999991729
  0
LINE
  8
DETAIL
  6
CONTINUOUS
 62
     5
 10
-47.327333347194099
 20
62.304363267666133
 30
0.0
 11
-47.813014732614249
 21
5.1325529725688241
 31
0.0
  0
ARC
  8
DETAIL
  6
CONTINUOUS
 62
     5
 10
-89.767490531186013
 20
5.4988301096772716
 30
0.0
 40
41.956074631382201
 50
352.46905780727752
 51
359.49980066410228
  0
ARC
  8
DETAIL
  6
CONTINUOUS
 62
     5
 10
-35.304450012338748
 20
58.499999999928256
 30
0.0
 40
0.499999999998636
 50
181.000000000005
 51
270.0
  0
LINE
  8
DETAIL
  6
CONTINUOUS
 62
     5
 10
35.277942594138722
 20
57.999999999929742
 30
0.0
 11
-35.304450012338748
 21
57.999999999929862
 31
0.0
  0
LINE
  8
DETAIL
  6
CONTINUOUS
 62
     5
 10
-35.813253708837237
 20
58.999999999926899
 30
0.0
 11
-35.804373859937193
 21
58.491273796728251
 31
0.0
  0
LINE
  8
DETAIL
  6
CONTINUOUS
 62
     5
 10
-44.47011788280372
 20
62.799999999916203
 30
0.0
 11
-44.384629433746568
 21
0.0
 31
0.0
  0
LINE
  8
DETAIL
  6
CONTINUOUS
 62
     5
 10
-46.827352385661918
 20
62.799999999916217
 30
0.0
 11
-35.781834592301493
 21
62.799999999916167
 31
0.0
  0
LINE
  8
DETAIL
  6
CONTINUOUS
 62
     5
 10
-26.978319756388601
 20
58.999999999926899
 30
0.0
 11
-26.79504157464385
 21
69.500000000000341
 31
0.0
  0
ARC
  8
DETAIL
  6
CONTINUOUS
 62
     5
 10
-35.173537025699723
 20
69.000000000000341
 30
0.0
 40
0.500000000000002
 50
90.0
 51
179.0000000000243
  0
ARC
  8
DETAIL
  6
CONTINUOUS
 62
     5
 10
-22.41457112294313
 20
90.499978059903498
 30
0.0
 40
3.0000514421602422
 50
90.254097171961789
 51
178.9995980128856
  0
LINE
  8
DETAIL
  6
CONTINUOUS
 62
     5
 10
-35.173537025699723
 20
69.500000000000341
 30
0.0
 11
35.14702960749969
 21
69.500000000000227
 31
0.0
  0
LINE
  8
DETAIL
  6
CONTINUOUS
 62
     5
 10
-25.794889246599951
 20
69.500000000000284
 30
0.0
 11
-25.414165275299641
 21
90.552357222200328
 31
0.0
  0
LINE
  8
DETAIL
  6
CONTINUOUS
 62
     5
 10
-35.673460873299973
 20
69.008726203200126
 30
0.0
 11
-35.848163839029439
 21
58.999999999926899
 31
0.0
  0
LINE
  8
DETAIL
  6
CONTINUOUS
 62
     5
 10
22.401368480799871
 20
93.5
 30
0.0
 11
-22.427875898999901
 21
93.500000000000057
 31
0.0
  0
LINE
  8
OUTLINE
  6
CONTINUOUS
 62
     3
 10
89.730093653600079
 20
-15.46292422979991
 30
0.0
 11
90.0
 21
0.0
 31
0.0
  0
ARC
  8
OUTLINE
  6
CONTINUOUS
 62
     3
 10
-79.73161670200011
 20
-15.28840016539993
 30
0.0
 40
9.9999999999999911
 50
181.0000000007021
 51
256.43756842490018
  0
LINE
  8
OUTLINE
  6
CONTINUOUS
 62
     3
 10
-89.730093653600079
 20
-15.46292422979991
 30
0.0
 11
-90.0
 21
0.0
 31
0.0
  0
LINE
  8
OUTLINE
  6
CONTINUOUS
 62
     3
 10
-75.0
 20
-26.639167773599869
 30
0.0
 11
-82.076664250600061
 21
-25.009549891299908
 31
0.0
  0
LINE
  8
OUTLINE
  6
CONTINUOUS
 62
     3
 10
75.0
 20
-26.639167773599869
 30
0.0
 11
82.076664250600061
 21
-25.009549891299908
 31
0.0
  0
ARC
  8
OUTLINE
  6
CONTINUOUS
 62
     3
 10
74.0
 20
-25.894651747599941
 30
0.0
 40
1.000000000000058
 50
282.24159669469452
 51
311.57356324640341
  0
ARC
  8
OUTLINE
  6
CONTINUOUS
 62
     3
 10
-74.0
 20
-25.894651747599941
 30
0.0
 40
1.0000000000000699
 50
228.42643675359639
 51
257.75840330529218
  0
ARC
  8
OUTLINE
  6
CONTINUOUS
 62
     3
 10
0.0
 20
315.16985827949998
 30
0.0
 40
350.00000000000011
 50
257.75840096580112
 51
282.24159903419888
  0
ARC
  8
OUTLINE
  6
CONTINUOUS
 62
     3
 10
79.731616701999883
 20
-15.28840016539993
 30
0.0
 40
10.000000000000011
 50
283.56243157509982
 51
358.99999999999818
  0
LINE
  8
OUTLINE
  6
CONTINUOUS
 62
     3
 10
-89.999858813299852
 20
0.0
 30
0.0
 11
89.986746290900101
 21
0.0
 31
0.0
  0
ARC
  8
OUTLINE
  6
CONTINUOUS
 62
     3
 10
46.800528594787238
 20
62.299866521511582
 30
0.0
 40
0.5003175425070773
 50
0.514969041039236
 51
88.445779513312004
  0
LINE
  8
OUTLINE
  6
CONTINUOUS
 62
     3
 10
47.300825928994072
 20
62.304363267665963
 30
0.0
 11
47.813014732614249
 21
5.1325529725686474
 31
0.0
  0
ARC
  8
OUTLINE
  6
CONTINUOUS
 62
     3
 10
89.767490531186013
 20
5.4988301096769874
 30
0.0
 40
41.956074631382201
 50
180.50019933589769
 51
187.53094219272171
  0
LINE
  8
OUTLINE
  6
CONTINUOUS
 62
     3
 10
46.814098676562033
 20
62.799999999916047
 30
0.0
 11
35.75532717410124
 21
62.799999999916047
 31
0.0
  0
ARC
  8
OUTLINE
  6
CONTINUOUS
 62
     3
 10
35.160283316599823
 20
69.000000000000227
 30
0.0
 40
0.500000000000002
 50
0.9999999999757105
 51
90.0
  0
ARC
  8
OUTLINE
  6
CONTINUOUS
 62
     3
 10
22.414622189900001
 20
90.500000000000227
 30
0.0
 40
3.000000000000036
 50
1.0000000542991001
 51
90.000001808992835
  0
LINE
  8
OUTLINE
  6
CONTINUOUS
 62
     3
 10
35.160283316599823
 20
69.500000000000227
 30
0.0
 11
25.78163553749982
 21
69.500000000000227
 31
0.0
  0
LINE
  8
OUTLINE
  6
CONTINUOUS
 62
     3
 10
25.78163553749982
 20
69.500000000000227
 30
0.0
 11
25.414165275300089
 21
90.552357222200271
 31
0.0
  0
LINE
  8
OUTLINE
  6
CONTINUOUS
 62
     3
 10
35.660207164200067
 20
69.008726203200013
 30
0.0
 11
35.75532717410124
 21
62.799999999916047
 31
0.0
  0
ARC
  8
OUTLINE
  6
CONTINUOUS
 62
     3
 10
-46.814098676562033
 20
62.299999999916217
 30
0.0
 40
0.4999999999999939
 50
90.0
 51
179.49999999991729
  0
LINE
  8
OUTLINE
  6
CONTINUOUS
 62
     3
 10
-47.314079638093972
 20
62.304363267666133
 30
0.0
 11
-47.813014732614249
 21
5.1325529725688241
 31
0.0
  0
ARC
  8
OUTLINE
  6
CONTINUOUS
 62
     3
 10
-89.767490531186013
 20
5.4988301096772716
 30
0.0
 40
41.956074631382201
 50
352.46905780727752
 51
359.49980066410228
  0
LINE
  8
OUTLINE
  6
CONTINUOUS
 62
     3
 10
-46.814098676562033
 20
62.799999999916217
 30
0.0
 11
-35.781834592301493
 21
62.799999999916167
 31
0.0
  0
ARC
  8
OUTLINE
  6
CONTINUOUS
 62
     3
 10
-35.160283316599823
 20
69.000000000000341
 30
0.0
 40
0.500000000000002
 50
90.0
 51
179.0000000000243
  0
ARC
  8
OUTLINE
  6
CONTINUOUS
 62
     3
 10
-22.4145711229433
 20
90.499978059903896
 30
0.0
 40
3.000051442159843
 50
90.254097171961789
 51
178.9995980128931
  0
LINE
  8
OUTLINE
  6
CONTINUOUS
 62
     3
 10
-35.160283316599823
 20
69.500000000000341
 30
0.0
 11
-25.794889246599951
 21
69.500000000000327
 31
0.0
  0
LINE
  8
OUTLINE
  6
CONTINUOUS
 62
     3
 10
-25.794889246599951
 20
69.500000000000327
 30
0.0
 11
-25.414165275299641
 21
90.552357222200328
 31
0.0
  0
LINE
  8
OUTLINE
  6
CONTINUOUS
 62
     3
 10
-35.660207164199853
 20
69.008726203200126
 30
0.0
 11
-35.781834592301493
 21
62.799999999916167
 31
0.0
  0
LINE
  8
OUTLINE
  6
CONTINUOUS
 62
     3
 10
22.414622189900001
 20
93.5
 30
0.0
 11
-22.427875898999901
 21
93.500000000000057
 31
0.0
  0
ENDSEC
  0
EOF
