  0
SECTION
  2
HEADER
  9
$ACADVER
  1
AC1009
  9
$DWGCODEPAGE
  3
dos932
  9
$INSBASE
 10
0.0
 20
0.0
 30
0.0
  9
$EXTMIN
 10
-442.76273957542622
 20
-450.53099416025361
 30
-0.0015257624927045
  9
$EXTMAX
 10
1199.5834468276969
 20
539.93225893929048
 30
0.0022888765696933
  9
$LIMMIN
 10
-2970.0
 20
-2100.0
  9
$LIMMAX
 10
2970.0
 20
2100.0
  9
$ORTHOMODE
 70
     1
  9
$REGENMODE
 70
     1
  9
$FILLMODE
 70
     1
  9
$QTEXTMODE
 70
     0
  9
$MIRRTEXT
 70
     0
  9
$LTSCALE
 40
20.0
  9
$ATTMODE
 70
     1
  9
$TEXTSIZE
 40
64.0
  9
$TRACEWID
 40
0.05
  9
$TEXTSTYLE
  7
STANDARD
  9
$CLAYER
  8
SIZE
  9
$CELTYPE
  6
CONTINUOUS
  9
$CECOLOR
 62
     7
  9
$DIMSCALE
 40
1.0
  9
$DIMASZ
 40
12.0
  9
$DIMEXO
 40
20.0
  9
$DIMDLI
 40
200.0
  9
$DIMRND
 40
0.0
  9
$DIMDLE
 40
0.0
  9
$DIMEXE
 40
20.0
  9
$DIMTP
 40
0.0
  9
$DIMTM
 40
0.0
  9
$DIMTXT
 40
64.0
  9
$DIMCEN
 40
0.09
  9
$DIMTSZ
 40
0.0
  9
$DIMTOL
 70
     0
  9
$DIMLIM
 70
     0
  9
$DIMTIH
 70
     0
  9
$DIMTOH
 70
     0
  9
$DIMSE1
 70
     0
  9
$DIMSE2
 70
     0
  9
$DIMTAD
 70
     1
  9
$DIMZIN
 70
     8
  9
$DIMBLK
  1

  9
$DIMASO
 70
     1
  9
$DIMSHO
 70
     0
  9
$DIMPOST
  1

  9
$DIMAPOST
  1

  9
$DIMALT
 70
     0
  9
$DIMALTD
 70
     2
  9
$DIMALTF
 40
25.399999999999999
  9
$DIMLFAC
 40
1.0
  9
$DIMTOFL
 70
     1
  9
$DIMTVP
 40
0.0
  9
$DIMTIX
 70
     1
  9
$DIMSOXD
 70
     0
  9
$DIMSAH
 70
     0
  9
$DIMBLK1
  1

  9
$DIMBLK2
  1

  9
$DIMSTYLE
  2
STANDARD
  9
$DIMCLRD
 70
     7
  9
$DIMCLRE
 70
     7
  9
$DIMCLRT
 70
     7
  9
$DIMTFAC
 40
1.0
  9
$DIMGAP
 40
25.0
  9
$LUNITS
 70
     2
  9
$LUPREC
 70
     4
  9
$SKETCHINC
 40
0.1
  9
$FILLETRAD
 40
3.0
  9
$AUNITS
 70
     1
  9
$AUPREC
 70
     3
  9
$MENU
  1
ACAD
  9
$ELEVATION
 40
0.0
  9
$PELEVATION
 40
0.0
  9
$THICKNESS
 40
50.0
  9
$LIMCHECK
 70
     0
  9
$CHAMFERA
 40
0.0
  9
$CHAMFERB
 40
0.0
  9
$SKPOLY
 70
     0
  9
$TDCREATE
 40
2453019.623009259
  9
$TDUPDATE
 40
2459356.653104803
  9
$TDINDWG
 40
1.9130252431
  9
$TDUSRTIMER
 40
1.9130252431
  9
$USRTIMER
 70
     1
  9
$ANGBASE
 50
0.0
  9
$ANGDIR
 70
     0
  9
$PDMODE
 70
     3
  9
$PDSIZE
 40
-2.0
  9
$PLINEWID
 40
0.0
  9
$SPLFRAME
 70
     0
  9
$SPLINETYPE
 70
     6
  9
$SPLINESEGS
 70
     8
  9
$SURFTAB1
 70
     6
  9
$SURFTAB2
 70
     6
  9
$SURFTYPE
 70
     6
  9
$SURFU
 70
     6
  9
$SURFV
 70
     6
  9
$UCSNAME
  2

  9
$UCSORG
 10
0.0
 20
0.0
 30
0.0
  9
$UCSXDIR
 10
1.0
 20
0.0
 30
0.0
  9
$UCSYDIR
 10
0.0
 20
1.0
 30
0.0
  9
$PUCSNAME
  2

  9
$PUCSORG
 10
0.0
 20
0.0
 30
0.0
  9
$PUCSXDIR
 10
1.0
 20
0.0
 30
0.0
  9
$PUCSYDIR
 10
0.0
 20
1.0
 30
0.0
  9
$USERI1
 70
     0
  9
$USERI2
 70
     0
  9
$USERI3
 70
     0
  9
$USERI4
 70
     0
  9
$USERI5
 70
     0
  9
$USERR1
 40
20.0
  9
$USERR2
 40
0.0
  9
$USERR3
 40
0.0
  9
$USERR4
 40
0.0
  9
$USERR5
 40
0.0
  9
$WORLDVIEW
 70
     1
  9
$SHADEDGE
 70
     3
  9
$SHADEDIF
 70
    70
  9
$TILEMODE
 70
     1
  9
$MAXACTVP
 70
    48
  9
$PINSBASE
 10
0.0
 20
0.0
 30
0.0
  9
$PLIMCHECK
 70
     0
  9
$PEXTMIN
 10
-100000000000000000000.0
 20
-100000000000000000000.0
 30
-100000000000000000000.0
  9
$PEXTMAX
 10
100000000000000000000.0
 20
100000000000000000000.0
 30
100000000000000000000.0
  9
$PLIMMIN
 10
0.0
 20
0.0
  9
$PLIMMAX
 10
12.0
 20
9.0
  9
$UNITMODE
 70
     0
  9
$VISRETAIN
 70
     0
  9
$PLINEGEN
 70
     0
  9
$PSLTSCALE
 70
     0
  9
$TREEDEPTH
 70
  3020
  9
$ATTDIA
 70
     0
  9
$ATTREQ
 70
     1
  9
$BLIPMODE
 70
     1
  9
$COORDS
 70
     1
  9
$DRAGMODE
 70
     2
  9
$OSMODE
 70
     0
  9
$HANDLING
 70
     0
  9
$HANDSEED
  5
3BA
  0
ENDSEC
  0
SECTION
  2
TABLES
  0
TABLE
  2
LTYPE
 70
     2
  0
LTYPE
  2
CONTINUOUS
 70
     0
  3
実線
 72
    65
 73
     0
 40
0.0
  0
LTYPE
  2
DASHDOT
 70
     0
  3
____ _ ____ _ ____ _ ____ _ ____ _ ____ _ ____
 72
    65
 73
     4
 40
5.5
 49
4.0
 49
-0.6
 49
0.3
 49
-0.6
  0
ENDTAB
  0
TABLE
  2
LAYER
 70
    12
  0
LAYER
  2
0
 70
     0
 62
     7
  6
CONTINUOUS
  0
LAYER
  2
SIZE
 70
     0
 62
    30
  6
CONTINUOUS
  0
LAYER
  2
BASIS
 70
     0
 62
     6
  6
DASHDOT
  0
LAYER
  2
OUTLINE
 70
     0
 62
     3
  6
CONTINUOUS
  0
LAYER
  2
DETAIL
 70
     0
 62
     5
  6
CONTINUOUS
  0
LAYER
  2
ARRANGE
 70
     0
 62
     1
  6
CONTINUOUS
  0
LAYER
  2
DEFPOINTS
 70
     0
 62
     7
  6
CONTINUOUS
  0
LAYER
  2
ETC
 70
     0
 62
    61
  6
CONTINUOUS
  0
LAYER
  2
FIX
 70
     0
 62
    11
  6
CONTINUOUS
  0
LAYER
  2
NOTE
 70
     0
 62
     4
  6
CONTINUOUS
  0
LAYER
  2
SERVICESPACE
 70
    64
 62
     2
  6
DASHDOT
  0
LAYER
  2
SYMBOLLINE
 70
    64
 62
    15
  6
CONTINUOUS
  0
ENDTAB
  0
TABLE
  2
STYLE
 70
     1
  0
STYLE
  2
STANDARD
 70
     0
 40
64.0
 41
0.9
 50
0.0
 71
     0
 42
64.0
  3
SIMPLEX.shx
  4
BIGFONT.shx
  0
ENDTAB
  0
TABLE
  2
APPID
 70
    18
  0
APPID
  2
ACAD
 70
     0
  0
APPID
  2
ACADANNOTATIVE
 70
     0
  0
APPID
  2
AUTOCAD_POSTSCRIPT_FIGURE
 70
     0
  0
APPID
  2
ACAD_EXEMPT_FROM_CAD_STANDARDS
 70
     0
  0
APPID
  2
ACAD_PSEXT
 70
     0
  0
APPID
  2
ACAUTHENVIRON
 70
     0
  0
APPID
  2
GENIUS_GENOENT_13
 70
     0
  0
APPID
  2
GENIUS_GENCFG_13
 70
     0
  0
APPID
  2
GENIUS_GENCFG0_13
 70
     0
  0
APPID
  2
GENIUS_GENCFG1_13
 70
     0
  0
APPID
  2
GENIUS_GENCFG2_13
 70
     0
  0
APPID
  2
GENIUS_GENCFG3_13
 70
     0
  0
APPID
  2
GENIUS_GENCFG4_13
 70
     0
  0
APPID
  2
GENIUS_GEVCFG0_13
 70
     0
  0
APPID
  2
CONTENTBLOCKICON
 70
     0
  0
APPID
  2
CONTENTBLOCKDESCRIPTION
 70
     0
  0
APPID
  2
ACAD_NAV_VCDISPLAY
 70
     0
  0
APPID
  2
ACAD_MLEADERVER
 70
     0
  0
ENDTAB
  0
TABLE
  2
DIMSTYLE
 70
     1
  0
DIMSTYLE
  2
STANDARD
 70
     0
  3

  4

  5

  6

  7

 40
1.0
 41
0.18
 42
0.0625
 43
0.38
 44
0.18
 45
0.0
 46
0.0
 47
0.0
 48
0.0
140
0.18
141
0.09
142
0.0
143
25.399999999999999
144
1.0
145
0.0
146
1.0
147
0.09
 71
     0
 72
     0
 73
     1
 74
     1
 75
     0
 76
     0
 77
     0
 78
     0
170
     0
171
     2
172
     0
173
     0
174
     0
175
     0
176
     7
177
     7
178
     7
  0
ENDTAB
  0
TABLE
  2
VIEW
 70
     1
  0
VIEW
  2
ALL
 70
     0
 40
4282.6198079999986
 10
0.0
 20
41.309904000000003
 41
5940.0
 11
0.0
 21
0.0
 31
1.0
 12
0.0
 22
0.0
 32
0.0
 42
50.0
 43
0.0
 44
0.0
 50
0.0
 71
     0
  0
ENDTAB
  0
TABLE
  2
UCS
 70
     0
  0
ENDTAB
  0
TABLE
  2
VPORT
 70
     1
  0
VPORT
  2
*ACTIVE
 70
     0
 10
0.0
 20
0.0
 11
1.0
 21
1.0
 12
378.41035362613547
 22
44.700632389518489
 13
0.0
 23
0.0
 14
1.0
 24
1.0
 15
0.0
 25
0.0
 16
0.0
 26
0.0
 36
1.0
 17
0.0
 27
0.0
 37
0.0
 40
806.59523874399315
 41
1.980636237897649
 42
50.0
 43
0.0
 44
0.0
 50
0.0
 51
0.0
 71
     0
 72
  1000
 73
     1
 74
     0
 75
     0
 76
     0
 77
     0
 78
     0
  0
ENDTAB
  0
ENDSEC
  0
SECTION
  2
BLOCKS
  0
BLOCK
  8
0
  2
_ORIGIN
 70
     0
 10
0.0
 20
0.0
 30
0.0
  3
_ORIGIN
  1
_ORIGIN
  0
CIRCLE
  8
0
  6
CONTINUOUS
 62
     7
 10
0.0
 20
0.0
 30
0.0
 40
0.5
  0
LINE
  8
0
  6
CONTINUOUS
 62
     7
 10
0.0
 20
0.0
 30
0.0
 11
-1.0
 21
0.0
 31
0.0
  0
ENDBLK
  8
0
  0
ENDSEC
  0
SECTION
  2
ENTITIES
  0
CIRCLE
  8
ARRANGE
  6
CONTINUOUS
 62
     1
 10
0.0
 20
0.0
 30
0.0
 40
40.0
  0
POINT
  8
ARRANGE
  6
CONTINUOUS
 62
     1
 10
0.0
 20
0.0
 30
0.0
 50
180.0
  0
LINE
  8
NOTE
  6
CONTINUOUS
 62
     4
 10
-7.4579050000000002
 20
-62.0
 30
0.0
 11
155.30653899999999
 21
-450.48020200000002
 31
0.0
  0
LINE
  8
NOTE
  6
CONTINUOUS
 62
     4
 10
155.30653899999999
 20
-450.48020200000002
 30
0.0
 11
1199.4490390000001
 21
-450.48020200000002
 31
0.0
  0
TEXT
  8
NOTE
  6
CONTINUOUS
 62
     4
 10
160.791989
 20
-438.12398499999989
 30
0.0
 40
64.0
  1
3-φ4.5取付用ノックアウト穴
 41
0.9
  0
LINE
  8
NOTE
  6
CONTINUOUS
 62
     4
 10
-7.4999990000000007
 20
46.594735
 30
0.0
 11
-7.4999990000000007
 21
61.0
 31
0.0
  0
CIRCLE
  8
FIX
  6
CONTINUOUS
 62
    11
 10
-7.4999990000000007
 20
53.5
 30
0.0
 40
2.25
  0
LINE
  8
NOTE
  6
CONTINUOUS
 62
     4
 10
-12.049175999999999
 20
53.5
 30
0.0
 11
-2.8666330000000002
 21
53.5
 31
0.0
  0
LINE
  8
OUTLINE
  6
CONTINUOUS
 62
     3
 10
-80.499995999999996
 20
-81.999993000000003
 30
0.0
 11
-80.499995999999996
 21
66.999994999999998
 31
0.0
  0
LINE
  8
OUTLINE
  6
CONTINUOUS
 62
     3
 10
46.499996000000003
 20
-48.249996000000003
 30
0.0
 11
0.0
 21
-48.249996000000003
 31
0.0
  0
LINE
  8
OUTLINE
  6
CONTINUOUS
 62
     3
 10
-80.499995999999996
 20
-81.999993000000003
 30
0.0
 11
-8.4999990000000007
 21
-81.999993000000003
 31
0.0
  0
LINE
  8
OUTLINE
  6
CONTINUOUS
 62
     3
 10
-19.696152999999999
 20
-99.892505
 30
0.0
 11
-0.8263520000000001
 21
-96.565250000000006
 31
0.0
  0
LINE
  8
OUTLINE
  6
CONTINUOUS
 62
     3
 10
-17.303920999999999
 20
-89.316424999999995
 30
0.0
 11
-11.441134
 21
-88.282657999999998
 31
0.0
  0
ARC
  8
OUTLINE
  6
CONTINUOUS
 62
     3
 10
-16.782979000000001
 20
-92.270848000000001
 30
0.0
 40
3.0
 50
100.0
 51
180.0
  0
LINE
  8
OUTLINE
  6
CONTINUOUS
 62
     3
 10
-19.782978
 20
-99.400102000000004
 30
0.0
 11
-19.782978
 21
-92.270848000000001
 31
0.0
  0
LINE
  8
OUTLINE
  6
CONTINUOUS
 62
     3
 10
-19.782978
 20
-99.400102000000004
 30
0.0
 11
-19.696152999999999
 21
-99.892505
 31
0.0
  0
LINE
  8
OUTLINE
  6
CONTINUOUS
 62
     3
 10
0.0
 20
-95.580442000000005
 30
0.0
 11
0.0
 21
-48.249996000000003
 31
0.0
  0
ARC
  8
OUTLINE
  6
CONTINUOUS
 62
     3
 10
-1.0
 20
-95.580442000000005
 30
0.0
 40
1.0
 50
280.0
 51
0.0
  0
LINE
  8
OUTLINE
  6
CONTINUOUS
 62
     3
 10
-11.441134
 20
-88.282657999999998
 30
0.0
 11
-1.1736470000000001
 21
-86.472223
 31
0.0
  0
LINE
  8
OUTLINE
  6
CONTINUOUS
 62
     3
 10
-8.4999990000000007
 20
-83.999993000000003
 30
0.0
 11
-8.4999990000000007
 21
-81.999993000000003
 31
0.0
  0
LINE
  8
OUTLINE
  6
CONTINUOUS
 62
     3
 10
-8.4999990000000007
 20
-83.999993000000003
 30
0.0
 11
-8.4999990000000007
 21
-81.999993000000003
 31
0.0
  0
LINE
  8
OUTLINE
  6
CONTINUOUS
 62
     3
 10
-8.4999990000000007
 20
-87.764056999999994
 30
0.0
 11
-8.4999990000000007
 21
-83.999993000000003
 31
0.0
  0
LINE
  8
OUTLINE
  6
CONTINUOUS
 62
     3
 10
-7.9999990000000007
 20
-87.675893000000002
 30
0.0
 11
-7.4999990000000007
 21
-87.587727999999998
 31
0.0
  0
LINE
  8
OUTLINE
  6
CONTINUOUS
 62
     3
 10
-9.2999989999999997
 20
-81.999993000000003
 30
0.0
 11
-10.279024
 21
-81.999993000000003
 31
0.0
  0
LINE
  8
OUTLINE
  6
CONTINUOUS
 62
     3
 10
-9.2999989999999997
 20
-81.999993000000003
 30
0.0
 11
-8.4999990000000007
 21
-81.999993000000003
 31
0.0
  0
ARC
  8
OUTLINE
  6
CONTINUOUS
 62
     3
 10
-1.0
 20
-87.457031000000001
 30
0.0
 40
1.0
 50
0.0
 51
100.0
  0
LINE
  8
OUTLINE
  6
CONTINUOUS
 62
     3
 10
46.999996000000003
 20
47.749996000000003
 30
0.0
 11
46.999996000000003
 21
-47.749996000000003
 31
0.0
  0
ARC
  8
OUTLINE
  6
CONTINUOUS
 62
     3
 10
46.499996000000003
 20
-47.749996000000003
 30
0.0
 40
0.5
 50
270.0
 51
0.0
  0
LINE
  8
OUTLINE
  6
CONTINUOUS
 62
     3
 10
0.0
 20
48.249996000000003
 30
0.0
 11
46.499996000000003
 21
48.249996000000003
 31
0.0
  0
LINE
  8
OUTLINE
  6
CONTINUOUS
 62
     3
 10
0.0
 20
48.249996000000003
 30
0.0
 11
0.0
 21
58.999994999999998
 31
0.0
  0
LINE
  8
OUTLINE
  6
CONTINUOUS
 62
     3
 10
-79.499995999999996
 20
67.999994999999998
 30
0.0
 11
-7.4999990000000007
 21
67.999994999999998
 31
0.0
  0
LINE
  8
OUTLINE
  6
CONTINUOUS
 62
     3
 10
-69.999996999999993
 20
68.499994999999998
 30
0.0
 11
-25.999998000000001
 21
68.499994999999998
 31
0.0
  0
ARC
  8
OUTLINE
  6
CONTINUOUS
 62
     3
 10
-79.499995999999996
 20
66.999994999999998
 30
0.0
 40
1.0
 50
90.0
 51
180.0
  0
ARC
  8
OUTLINE
  6
CONTINUOUS
 62
     3
 10
-71.118029000000007
 20
68.499994999999998
 30
0.0
 40
0.5
 50
270.0
 51
318.189685
  0
ARC
  8
OUTLINE
  6
CONTINUOUS
 62
     3
 10
-69.999996999999993
 20
67.499994999999998
 30
0.0
 40
1.0
 50
90.0
 51
138.189685
  0
LINE
  8
OUTLINE
  6
CONTINUOUS
 62
     3
 10
-71.118029000000007
 20
67.999994999999998
 30
0.0
 11
-69.999996999999993
 21
67.999994999999998
 31
0.0
  0
ARC
  8
OUTLINE
  6
CONTINUOUS
 62
     3
 10
-15.499999000000001
 20
67.499994999999998
 30
0.0
 40
3.0
 50
16.60155
 51
163.39845
  0
LINE
  8
OUTLINE
  6
CONTINUOUS
 62
     3
 10
-25.999998000000001
 20
67.999994999999998
 30
0.0
 11
-24.881962999999999
 21
67.999994999999998
 31
0.0
  0
ARC
  8
OUTLINE
  6
CONTINUOUS
 62
     3
 10
-24.881962999999999
 20
68.499994999999998
 30
0.0
 40
0.5
 50
221.810315
 51
270.0
  0
ARC
  8
OUTLINE
  6
CONTINUOUS
 62
     3
 10
-25.999998000000001
 20
67.499994999999998
 30
0.0
 40
1.0
 50
41.810315000000003
 51
90.0
  0
ARC
  8
OUTLINE
  6
CONTINUOUS
 62
     3
 10
-18.854101
 20
68.499994999999998
 30
0.0
 40
0.5
 50
270.0
 51
343.39845000000003
  0
LINE
  8
OUTLINE
  6
CONTINUOUS
 62
     3
 10
-7.4999990000000007
 20
60.999994999999998
 30
0.0
 11
-7.4999990000000007
 21
67.999994999999998
 31
0.0
  0
LINE
  8
OUTLINE
  6
CONTINUOUS
 62
     3
 10
-7.4999990000000007
 20
60.999994999999998
 30
0.0
 11
-7.4999990000000007
 21
66.499994999999998
 31
0.0
  0
LINE
  8
OUTLINE
  6
CONTINUOUS
 62
     3
 10
-0.5
 20
59.499994999999998
 30
0.0
 11
-6.9999990000000007
 21
59.499994999999998
 31
0.0
  0
LINE
  8
OUTLINE
  6
CONTINUOUS
 62
     3
 10
-0.5
 20
60.499994999999998
 30
0.0
 11
-6.9999990000000007
 21
60.499994999999998
 31
0.0
  0
LINE
  8
OUTLINE
  6
CONTINUOUS
 62
     3
 10
0.0
 20
58.999994999999998
 30
0.0
 11
-7.4999990000000007
 21
58.999994999999998
 31
0.0
  0
ARC
  8
OUTLINE
  6
CONTINUOUS
 62
     3
 10
-6.9999990000000007
 20
58.999994999999998
 30
0.0
 40
0.5
 50
90.0
 51
180.0
  0
ARC
  8
OUTLINE
  6
CONTINUOUS
 62
     3
 10
-6.9999990000000007
 20
60.999994999999998
 30
0.0
 40
0.5
 50
180.0
 51
270.0
  0
ARC
  8
OUTLINE
  6
CONTINUOUS
 62
     3
 10
-0.5
 20
59.999994999999998
 30
0.0
 40
0.5
 50
270.0
 51
90.0
  0
ARC
  8
OUTLINE
  6
CONTINUOUS
 62
     3
 10
-12.145897
 20
68.499994999999998
 30
0.0
 40
0.5
 50
196.60155
 51
270.0
  0
ARC
  8
OUTLINE
  6
CONTINUOUS
 62
     3
 10
46.499996000000003
 20
47.749996000000003
 30
0.0
 40
0.5
 50
0.0
 51
90.0
  0
LINE
  8
SIZE
  6
CONTINUOUS
 62
    30
 10
-102.000083
 20
68.0
 30
0.0
 11
-373.49423400000001
 21
68.0
 31
0.0
  0
LINE
  8
SIZE
  6
CONTINUOUS
 62
    30
 10
-102.99999099999999
 20
-81.999998000000005
 30
0.0
 11
-373.49423400000001
 21
-81.999998000000005
 31
0.0
  0
LINE
  8
SIZE
  6
CONTINUOUS
 62
    30
 10
-353.49423400000001
 20
56.0
 30
0.0
 11
-353.49423400000001
 21
-69.999998000000005
 31
0.0
  0
CIRCLE
  8
SIZE
  6
CONTINUOUS
 62
    30
 10
-353.49423400000001
 20
68.0
 30
0.0
 40
6.0
  0
LINE
  8
SIZE
  6
CONTINUOUS
 62
    30
 10
-353.49423400000001
 20
68.0
 30
0.0
 11
-353.49423400000001
 21
56.0
 31
0.0
  0
CIRCLE
  8
SIZE
  6
CONTINUOUS
 62
    30
 10
-353.49423400000001
 20
-81.999998000000005
 30
0.0
 40
6.0
  0
LINE
  8
SIZE
  6
CONTINUOUS
 62
    30
 10
-353.49423400000001
 20
-81.999998000000005
 30
0.0
 11
-353.49423400000001
 21
-69.999998000000005
 31
0.0
  0
TEXT
  8
SIZE
  6
CONTINUOUS
 62
    30
 10
-378.49423400000001
 20
-75.571427571428572
 30
0.0
 40
64.0
  1
150
 50
90.0
 41
0.9
 72
     1
 11
-378.49423400000001
 21
-6.9999990000000007
 31
0.0
  0
POINT
  8
DEFPOINTS
  6
CONTINUOUS
 62
    30
 10
-82.000082999999989
 20
68.0
 30
0.0
  0
POINT
  8
DEFPOINTS
  6
CONTINUOUS
 62
    30
 10
-82.999991000000009
 20
-81.999998000000005
 30
0.0
  0
POINT
  8
DEFPOINTS
  6
CONTINUOUS
 62
    30
 10
-353.49423400000001
 20
-81.999998000000005
 30
0.0
  0
LINE
  8
SIZE
  6
CONTINUOUS
 62
    30
 10
-19.782983000000002
 20
-122.40778899999999
 30
0.0
 11
-19.782983000000002
 21
-255.598838
 31
0.0
  0
LINE
  8
SIZE
  6
CONTINUOUS
 62
    30
 10
0.00004
 20
-122.40778899999999
 30
0.0
 11
0.00004
 21
-255.598838
 31
0.0
  0
LINE
  8
SIZE
  6
CONTINUOUS
 62
    30
 10
12.00004
 20
-235.598838
 30
0.0
 11
24.000039999999998
 21
-235.598838
 31
0.0
  0
LINE
  8
SIZE
  6
CONTINUOUS
 62
    30
 10
-31.782983000000002
 20
-235.598838
 30
0.0
 11
-187.04012599999999
 21
-235.598838
 31
0.0
  0
LINE
  8
SIZE
  6
CONTINUOUS
 62
    30
 10
0.00004
 20
-235.598838
 30
0.0
 11
-19.782983000000002
 21
-235.598838
 31
0.0
  0
CIRCLE
  8
SIZE
  6
CONTINUOUS
 62
    30
 10
0.00004
 20
-235.598838
 30
0.0
 40
6.0
  0
LINE
  8
SIZE
  6
CONTINUOUS
 62
    30
 10
0.00004
 20
-235.598838
 30
0.0
 11
12.00004
 21
-235.598838
 31
0.0
  0
CIRCLE
  8
SIZE
  6
CONTINUOUS
 62
    30
 10
-19.782983000000002
 20
-235.598838
 30
0.0
 40
6.0
  0
LINE
  8
SIZE
  6
CONTINUOUS
 62
    30
 10
-19.782983000000002
 20
-235.598838
 30
0.0
 11
-31.782983000000002
 21
-235.598838
 31
0.0
  0
TEXT
  8
SIZE
  6
CONTINUOUS
 62
    30
 10
-162.0401264285714
 20
-210.598838
 30
0.0
 40
64.0
  1
20
 41
0.9
 72
     1
 11
-115.41155500000001
 21
-210.598838
 31
0.0
  0
POINT
  8
DEFPOINTS
  6
CONTINUOUS
 62
    30
 10
-19.782983000000002
 20
-102.40778899999999
 30
0.0
  0
POINT
  8
DEFPOINTS
  6
CONTINUOUS
 62
    30
 10
0.00004
 20
-102.40778899999999
 30
0.0
  0
POINT
  8
DEFPOINTS
  6
CONTINUOUS
 62
    30
 10
0.00004
 20
-235.598838
 30
0.0
  0
LINE
  8
SIZE
  6
CONTINUOUS
 62
    30
 10
0.00004
 20
-122.40778899999999
 30
0.0
 11
0.00004
 21
-255.598838
 31
0.0
  0
LINE
  8
SIZE
  6
CONTINUOUS
 62
    30
 10
46.999974000000002
 20
-70.249981000000005
 30
0.0
 11
46.999974000000002
 21
-255.598838
 31
0.0
  0
LINE
  8
SIZE
  6
CONTINUOUS
 62
    30
 10
-11.99996
 20
-235.598838
 30
0.0
 11
-23.999960000000002
 21
-235.598838
 31
0.0
  0
LINE
  8
SIZE
  6
CONTINUOUS
 62
    30
 10
58.999974000000002
 20
-235.598838
 30
0.0
 11
214.25711699999999
 21
-235.598838
 31
0.0
  0
LINE
  8
SIZE
  6
CONTINUOUS
 62
    30
 10
0.00004
 20
-235.598838
 30
0.0
 11
46.999974000000002
 21
-235.598838
 31
0.0
  0
CIRCLE
  8
SIZE
  6
CONTINUOUS
 62
    30
 10
0.00004
 20
-235.598838
 30
0.0
 40
6.0
  0
LINE
  8
SIZE
  6
CONTINUOUS
 62
    30
 10
0.00004
 20
-235.598838
 30
0.0
 11
-11.99996
 21
-235.598838
 31
0.0
  0
CIRCLE
  8
SIZE
  6
CONTINUOUS
 62
    30
 10
46.999974000000002
 20
-235.598838
 30
0.0
 40
6.0
  0
LINE
  8
SIZE
  6
CONTINUOUS
 62
    30
 10
46.999974000000002
 20
-235.598838
 30
0.0
 11
58.999974000000002
 21
-235.598838
 31
0.0
  0
TEXT
  8
SIZE
  6
CONTINUOUS
 62
    30
 10
95.999973571428583
 20
-210.598838
 30
0.0
 40
64.0
  1
47
 41
0.9
 72
     1
 11
142.628545
 21
-210.598838
 31
0.0
  0
POINT
  8
DEFPOINTS
  6
CONTINUOUS
 62
    30
 10
0.00004
 20
-102.40778899999999
 30
0.0
  0
POINT
  8
DEFPOINTS
  6
CONTINUOUS
 62
    30
 10
46.999974000000002
 20
-50.249980999999998
 30
0.0
  0
POINT
  8
DEFPOINTS
  6
CONTINUOUS
 62
    30
 10
46.999974000000002
 20
-235.598838
 30
0.0
  0
LINE
  8
SIZE
  6
CONTINUOUS
 62
    30
 10
68.999943999999999
 20
48.249996000000003
 30
0.0
 11
365.60369900000001
 21
48.249996000000003
 31
0.0
  0
LINE
  8
SIZE
  6
CONTINUOUS
 62
    30
 10
68.999943999999999
 20
-48.250011000000001
 30
0.0
 11
365.60369900000001
 21
-48.250011000000001
 31
0.0
  0
LINE
  8
SIZE
  6
CONTINUOUS
 62
    30
 10
345.60369900000001
 20
36.249996000000003
 30
0.0
 11
345.60369900000001
 21
-36.250011000000001
 31
0.0
  0
LINE
  8
SIZE
  6
CONTINUOUS
 62
    30
 10
345.60369900000001
 20
-48.250011000000001
 30
0.0
 11
345.60369900000001
 21
-263.85001099999999
 31
0.0
  0
CIRCLE
  8
SIZE
  6
CONTINUOUS
 62
    30
 10
345.60369900000001
 20
48.249996000000003
 30
0.0
 40
6.0
  0
LINE
  8
SIZE
  6
CONTINUOUS
 62
    30
 10
345.60369900000001
 20
48.249996000000003
 30
0.0
 11
345.60369900000001
 21
36.249996000000003
 31
0.0
  0
CIRCLE
  8
SIZE
  6
CONTINUOUS
 62
    30
 10
345.60369900000001
 20
-48.250011000000001
 30
0.0
 40
6.0
  0
LINE
  8
SIZE
  6
CONTINUOUS
 62
    30
 10
345.60369900000001
 20
-48.250011000000001
 30
0.0
 11
345.60369900000001
 21
-36.250011000000001
 31
0.0
  0
TEXT
  8
SIZE
  6
CONTINUOUS
 62
    30
 10
309.93703299999999
 20
-248.9985824285715
 30
0.0
 40
64.0
  1
φ97
 50
90.0
 41
0.9
 72
     1
 11
309.93703299999999
 21
-162.05001100000001
 31
0.0
  0
POINT
  8
DEFPOINTS
  6
CONTINUOUS
 62
    30
 10
48.999943999999999
 20
48.249996000000003
 30
0.0
  0
POINT
  8
DEFPOINTS
  6
CONTINUOUS
 62
    30
 10
48.999943999999999
 20
-48.250011000000001
 30
0.0
  0
POINT
  8
DEFPOINTS
  6
CONTINUOUS
 62
    30
 10
345.60369900000001
 20
-48.250011000000001
 30
0.0
  0
LINE
  8
SIZE
  6
CONTINUOUS
 62
    30
 10
15.000035
 20
68.0
 30
0.0
 11
201.246533
 21
68.0
 31
0.0
  0
LINE
  8
SIZE
  6
CONTINUOUS
 62
    30
 10
7.000006
 20
70.499999000000003
 30
0.0
 11
201.246533
 21
70.499999000000003
 31
0.0
  0
LINE
  8
SIZE
  6
CONTINUOUS
 62
    30
 10
181.246533
 20
56.0
 30
0.0
 11
181.246533
 21
44.0
 31
0.0
  0
LINE
  8
SIZE
  6
CONTINUOUS
 62
    30
 10
181.246533
 20
82.499999000000003
 30
0.0
 11
181.246533
 21
265.18571400000002
 31
0.0
  0
LINE
  8
SIZE
  6
CONTINUOUS
 62
    30
 10
181.246533
 20
68.0
 30
0.0
 11
181.246533
 21
70.499999000000003
 31
0.0
  0
CIRCLE
  8
SIZE
  6
CONTINUOUS
 62
    30
 10
181.246533
 20
68.0
 30
0.0
 40
6.0
  0
LINE
  8
SIZE
  6
CONTINUOUS
 62
    30
 10
181.246533
 20
68.0
 30
0.0
 11
181.246533
 21
56.0
 31
0.0
  0
CIRCLE
  8
SIZE
  6
CONTINUOUS
 62
    30
 10
181.246533
 20
70.499999000000003
 30
0.0
 40
6.0
  0
LINE
  8
SIZE
  6
CONTINUOUS
 62
    30
 10
181.246533
 20
70.499999000000003
 30
0.0
 11
181.246533
 21
82.499999000000003
 31
0.0
  0
TEXT
  8
SIZE
  6
CONTINUOUS
 62
    30
 10
156.246533
 20
119.4999998571429
 30
0.0
 40
64.0
  1
2.5
 50
90.0
 41
0.9
 72
     1
 11
156.246533
 21
179.84285700000001
 31
0.0
  0
POINT
  8
DEFPOINTS
  6
CONTINUOUS
 62
    30
 10
-4.9999650000000004
 20
68.0
 30
0.0
  0
POINT
  8
DEFPOINTS
  6
CONTINUOUS
 62
    30
 10
-12.999993999999999
 20
70.499999000000003
 30
0.0
  0
POINT
  8
DEFPOINTS
  6
CONTINUOUS
 62
    30
 10
181.246533
 20
70.499999000000003
 30
0.0
  0
LINE
  8
SIZE
  6
CONTINUOUS
 62
    30
 10
0.0
 20
77.509676999999996
 30
0.0
 11
0.0
 21
309.47314699999998
 31
0.0
  0
LINE
  8
SIZE
  6
CONTINUOUS
 62
    30
 10
-7.4999640000000003
 20
90.499999000000003
 30
0.0
 11
-7.4999640000000003
 21
309.47314699999998
 31
0.0
  0
LINE
  8
SIZE
  6
CONTINUOUS
 62
    30
 10
-19.499963999999999
 20
289.47314699999998
 30
0.0
 11
-31.499963999999999
 21
289.47314699999998
 31
0.0
  0
LINE
  8
SIZE
  6
CONTINUOUS
 62
    30
 10
12.0
 20
289.47314699999998
 30
0.0
 11
194.685754
 21
289.47314699999998
 31
0.0
  0
LINE
  8
SIZE
  6
CONTINUOUS
 62
    30
 10
-7.4999640000000003
 20
289.47314699999998
 30
0.0
 11
0.0
 21
289.47314699999998
 31
0.0
  0
CIRCLE
  8
SIZE
  6
CONTINUOUS
 62
    30
 10
-7.4999640000000003
 20
289.47314699999998
 30
0.0
 40
6.0
  0
LINE
  8
SIZE
  6
CONTINUOUS
 62
    30
 10
-7.4999640000000003
 20
289.47314699999998
 30
0.0
 11
-19.499963999999999
 21
289.47314699999998
 31
0.0
  0
CIRCLE
  8
SIZE
  6
CONTINUOUS
 62
    30
 10
0.0
 20
289.47314699999998
 30
0.0
 40
6.0
  0
LINE
  8
SIZE
  6
CONTINUOUS
 62
    30
 10
0.0
 20
289.47314699999998
 30
0.0
 11
12.0
 21
289.47314699999998
 31
0.0
  0
TEXT
  8
SIZE
  6
CONTINUOUS
 62
    30
 10
49.000039857142859
 20
314.47314699999998
 30
0.0
 40
64.0
  1
7.5
 41
0.9
 72
     1
 11
109.34289699999999
 21
314.47314699999998
 31
0.0
  0
POINT
  8
DEFPOINTS
  6
CONTINUOUS
 62
    30
 10
0.0
 20
57.509677000000003
 30
0.0
  0
POINT
  8
DEFPOINTS
  6
CONTINUOUS
 62
    30
 10
-7.4999640000000003
 20
70.499999000000003
 30
0.0
  0
POINT
  8
DEFPOINTS
  6
CONTINUOUS
 62
    30
 10
-7.4999640000000003
 20
289.47314699999998
 30
0.0
  0
LINE
  8
DETAIL
  6
CONTINUOUS
 62
     5
 10
-8.4999990000000007
 20
-55.249996000000003
 30
0.0
 11
-8.4999990000000007
 21
55.249996000000003
 31
0.0
  0
LINE
  8
DETAIL
  6
CONTINUOUS
 62
     5
 10
-80.499995999999996
 20
-81.999993000000003
 30
0.0
 11
-80.499995999999996
 21
66.999994999999998
 31
0.0
  0
LINE
  8
DETAIL
  6
CONTINUOUS
 62
     5
 10
-77.499995999999996
 20
-81.999993000000003
 30
0.0
 11
-77.499995999999996
 21
67.999994999999998
 31
0.0
  0
LINE
  8
DETAIL
  6
CONTINUOUS
 62
     5
 10
-72.499996999999993
 20
-81.999993000000003
 30
0.0
 11
-72.499996999999993
 21
67.999994999999998
 31
0.0
  0
LINE
  8
DETAIL
  6
CONTINUOUS
 62
     5
 10
-7.9999990000000007
 20
-87.675893000000002
 30
0.0
 11
-7.9999990000000007
 21
58.999994999999998
 31
0.0
  0
LINE
  8
DETAIL
  6
CONTINUOUS
 62
     5
 10
-80.499995999999996
 20
-81.999993000000003
 30
0.0
 11
-8.4999990000000007
 21
-81.999993000000003
 31
0.0
  0
LINE
  8
DETAIL
  6
CONTINUOUS
 62
     5
 10
-19.696152999999999
 20
-99.892505
 30
0.0
 11
-0.8263520000000001
 21
-96.565250000000006
 31
0.0
  0
LINE
  8
DETAIL
  6
CONTINUOUS
 62
     5
 10
-19.782978
 20
-99.400102000000004
 30
0.0
 11
-19.696152999999999
 21
-99.892505
 31
0.0
  0
LINE
  8
DETAIL
  6
CONTINUOUS
 62
     5
 10
0.0
 20
-95.580442000000005
 30
0.0
 11
0.0
 21
58.999994999999998
 31
0.0
  0
ARC
  8
DETAIL
  6
CONTINUOUS
 62
     5
 10
-1.0
 20
-95.580442000000005
 30
0.0
 40
1.0
 50
280.0
 51
0.0
  0
ARC
  8
DETAIL
  6
CONTINUOUS
 62
     5
 10
-2.8999999999999999
 20
-85.499993000000003
 30
0.0
 40
8.9999990000000007
 50
163.39845199999999
 51
180.19299599999999
  0
LINE
  8
DETAIL
  6
CONTINUOUS
 62
     5
 10
-8.4999990000000007
 20
-83.999993000000003
 30
0.0
 11
-8.4999990000000007
 21
-81.999993000000003
 31
0.0
  0
LINE
  8
DETAIL
  6
CONTINUOUS
 62
     5
 10
-8.4999990000000007
 20
-83.999993000000003
 30
0.0
 11
-8.4999990000000007
 21
-81.999993000000003
 31
0.0
  0
LINE
  8
DETAIL
  6
CONTINUOUS
 62
     5
 10
-9.2999989999999997
 20
-83.999993000000003
 30
0.0
 11
-8.4999990000000007
 21
-83.999993000000003
 31
0.0
  0
LINE
  8
DETAIL
  6
CONTINUOUS
 62
     5
 10
-8.4999990000000007
 20
-84.559972999999999
 30
0.0
 11
-8.4999990000000007
 21
-83.999993000000003
 31
0.0
  0
LINE
  8
DETAIL
  6
CONTINUOUS
 62
     5
 10
-9.2999989999999997
 20
-81.999993000000003
 30
0.0
 11
-10.279024
 21
-81.999993000000003
 31
0.0
  0
ARC
  8
DETAIL
  6
CONTINUOUS
 62
     5
 10
-10.279024
 20
-83.299992000000003
 30
0.0
 40
1.2999989999999999
 50
90.0
 51
163.39845199999999
  0
LINE
  8
DETAIL
  6
CONTINUOUS
 62
     5
 10
-9.2999989999999997
 20
-81.999993000000003
 30
0.0
 11
-8.4999990000000007
 21
-81.999993000000003
 31
0.0
  0
ARC
  8
DETAIL
  6
CONTINUOUS
 62
     5
 10
-1.0
 20
-87.457031000000001
 30
0.0
 40
1.0
 50
0.0
 51
100.0
  0
LINE
  8
DETAIL
  6
CONTINUOUS
 62
     5
 10
-6.4999989999999999
 20
-53.799995999999993
 30
0.0
 11
-6.4999989999999999
 21
-49.799996
 31
0.0
  0
ARC
  8
DETAIL
  6
CONTINUOUS
 62
     5
 10
-5.7363620000000006
 20
-51.799996
 30
0.0
 40
3.8636370000000002
 50
135.66730799999999
 51
224.33269200000001
  0
LINE
  8
DETAIL
  6
CONTINUOUS
 62
     5
 10
-7.4999990000000007
 20
-53.299995999999993
 30
0.0
 11
-8.4999990000000007
 21
-53.299995999999993
 31
0.0
  0
ARC
  8
DETAIL
  6
CONTINUOUS
 62
     5
 10
-6.9999990000000007
 20
-53.799995999999993
 30
0.0
 40
0.5
 50
180.0
 51
0.0
  0
LINE
  8
DETAIL
  6
CONTINUOUS
 62
     5
 10
-7.9999990000000007
 20
-55.249996000000003
 30
0.0
 11
-8.4999990000000007
 21
-55.249996000000003
 31
0.0
  0
LINE
  8
DETAIL
  6
CONTINUOUS
 62
     5
 10
-7.9999990000000007
 20
-53.549995999999993
 30
0.0
 11
-7.4999990000000007
 21
-53.549995999999993
 31
0.0
  0
LINE
  8
DETAIL
  6
CONTINUOUS
 62
     5
 10
-7.4999990000000007
 20
-50.299996
 30
0.0
 11
-8.4999990000000007
 21
-50.299996
 31
0.0
  0
ARC
  8
DETAIL
  6
CONTINUOUS
 62
     5
 10
-6.9999990000000007
 20
-49.799996
 30
0.0
 40
0.5
 50
0.0
 51
180.0
  0
LINE
  8
DETAIL
  6
CONTINUOUS
 62
     5
 10
-7.9999990000000007
 20
-50.049996
 30
0.0
 11
-7.4999990000000007
 21
-50.049996
 31
0.0
  0
LINE
  8
DETAIL
  6
CONTINUOUS
 62
     5
 10
-7.9999990000000007
 20
-48.999996000000003
 30
0.0
 11
-7.4999990000000007
 21
-48.999996000000003
 31
0.0
  0
LINE
  8
DETAIL
  6
CONTINUOUS
 62
     5
 10
-6.9999990000000007
 20
-44.126404000000001
 30
0.0
 11
-6.3999990000000002
 21
-44.126404000000001
 31
0.0
  0
LINE
  8
DETAIL
  6
CONTINUOUS
 62
     5
 10
-6.9999990000000007
 20
-43.626404000000001
 30
0.0
 11
-6.3999990000000002
 21
-43.626404000000001
 31
0.0
  0
LINE
  8
DETAIL
  6
CONTINUOUS
 62
     5
 10
-6.9999990000000007
 20
-40.726404000000002
 30
0.0
 11
-6.3999990000000002
 21
-40.726404000000002
 31
0.0
  0
LINE
  8
DETAIL
  6
CONTINUOUS
 62
     5
 10
-6.9999990000000007
 20
-41.226404000000002
 30
0.0
 11
-6.3999990000000002
 21
-41.226404000000002
 31
0.0
  0
ARC
  8
DETAIL
  6
CONTINUOUS
 62
     5
 10
-6.9999990000000007
 20
-44.626404000000001
 30
0.0
 40
0.5
 50
90.0
 51
180.0
  0
ARC
  8
DETAIL
  6
CONTINUOUS
 62
     5
 10
-6.9999990000000007
 20
-44.626404000000001
 30
0.0
 40
1.0
 50
90.0
 51
180.0
  0
ARC
  8
DETAIL
  6
CONTINUOUS
 62
     5
 10
-6.9999990000000007
 20
-40.226404000000002
 30
0.0
 40
0.5
 50
180.0
 51
270.0
  0
ARC
  8
DETAIL
  6
CONTINUOUS
 62
     5
 10
-6.9999990000000007
 20
-40.226404000000002
 30
0.0
 40
1.0
 50
180.0
 51
270.0
  0
LINE
  8
DETAIL
  6
CONTINUOUS
 62
     5
 10
-6.3999990000000002
 20
-44.126404000000001
 30
0.0
 11
-6.3999990000000002
 21
-40.726404000000002
 31
0.0
  0
ARC
  8
DETAIL
  6
CONTINUOUS
 62
     5
 10
-6.9999990000000007
 20
-27.999998000000001
 30
0.0
 40
0.5
 50
180.0
 51
0.0
  0
ARC
  8
DETAIL
  6
CONTINUOUS
 62
     5
 10
-5.7363620000000006
 20
-25.999998000000001
 30
0.0
 40
3.8636370000000002
 50
135.66730799999999
 51
224.33269200000001
  0
LINE
  8
DETAIL
  6
CONTINUOUS
 62
     5
 10
-6.4999989999999999
 20
-27.999998000000001
 30
0.0
 11
-6.4999989999999999
 21
-23.999998000000001
 31
0.0
  0
ARC
  8
DETAIL
  6
CONTINUOUS
 62
     5
 10
-6.9999990000000007
 20
-23.999998000000001
 30
0.0
 40
0.5
 50
0.0
 51
180.0
  0
LINE
  8
DETAIL
  6
CONTINUOUS
 62
     5
 10
-7.4999990000000007
 20
-24.499998000000001
 30
0.0
 11
-8.4999990000000007
 21
-24.499998000000001
 31
0.0
  0
LINE
  8
DETAIL
  6
CONTINUOUS
 62
     5
 10
-7.4999990000000007
 20
-27.499998000000001
 30
0.0
 11
-8.4999990000000007
 21
-27.499998000000001
 31
0.0
  0
LINE
  8
DETAIL
  6
CONTINUOUS
 62
     5
 10
-7.9999990000000007
 20
-27.749998000000001
 30
0.0
 11
-7.4999990000000007
 21
-27.749998000000001
 31
0.0
  0
LINE
  8
DETAIL
  6
CONTINUOUS
 62
     5
 10
-7.4999990000000007
 20
-24.249998000000001
 30
0.0
 11
-7.9999990000000007
 21
-24.249998000000001
 31
0.0
  0
LINE
  8
DETAIL
  6
CONTINUOUS
 62
     5
 10
46.999996000000003
 20
47.749996000000003
 30
0.0
 11
46.999996000000003
 21
-47.749996000000003
 31
0.0
  0
ARC
  8
DETAIL
  6
CONTINUOUS
 62
     5
 10
46.499996000000003
 20
-47.749996000000003
 30
0.0
 40
0.5
 50
270.0
 51
0.0
  0
LINE
  8
DETAIL
  6
CONTINUOUS
 62
     5
 10
0.0
 20
48.249996000000003
 30
0.0
 11
46.499996000000003
 21
48.249996000000003
 31
0.0
  0
LINE
  8
DETAIL
  6
CONTINUOUS
 62
     5
 10
-6.4999989999999999
 20
23.999998000000001
 30
0.0
 11
-6.4999989999999999
 21
27.999998000000001
 31
0.0
  0
ARC
  8
DETAIL
  6
CONTINUOUS
 62
     5
 10
-5.7363620000000006
 20
25.999998000000001
 30
0.0
 40
3.8636370000000002
 50
135.66730799999999
 51
224.33269200000001
  0
ARC
  8
DETAIL
  6
CONTINUOUS
 62
     5
 10
-6.9999990000000007
 20
23.999998000000001
 30
0.0
 40
0.5
 50
180.0
 51
0.0
  0
LINE
  8
DETAIL
  6
CONTINUOUS
 62
     5
 10
-7.4999990000000007
 20
24.499998000000001
 30
0.0
 11
-8.4999990000000007
 21
24.499998000000001
 31
0.0
  0
LINE
  8
DETAIL
  6
CONTINUOUS
 62
     5
 10
-7.4999990000000007
 20
24.254677999999998
 30
0.0
 11
-7.9999990000000007
 21
24.254677999999998
 31
0.0
  0
ARC
  8
DETAIL
  6
CONTINUOUS
 62
     5
 10
-6.9999990000000007
 20
27.999998000000001
 30
0.0
 40
0.5
 50
0.0
 51
180.0
  0
LINE
  8
DETAIL
  6
CONTINUOUS
 62
     5
 10
-7.4999990000000007
 20
27.499998000000001
 30
0.0
 11
-8.4999990000000007
 21
27.499998000000001
 31
0.0
  0
LINE
  8
DETAIL
  6
CONTINUOUS
 62
     5
 10
-7.4999990000000007
 20
27.751214999999998
 30
0.0
 11
-7.9999990000000007
 21
27.751214999999998
 31
0.0
  0
ARC
  8
DETAIL
  6
CONTINUOUS
 62
     5
 10
-5.7363620000000006
 20
51.799996
 30
0.0
 40
3.8636370000000002
 50
135.66730799999999
 51
224.33269200000001
  0
LINE
  8
DETAIL
  6
CONTINUOUS
 62
     5
 10
-7.9999990000000007
 20
48.999996000000003
 30
0.0
 11
-7.4999990000000007
 21
48.999996000000003
 31
0.0
  0
LINE
  8
DETAIL
  6
CONTINUOUS
 62
     5
 10
-7.4999990000000007
 20
50.299996
 30
0.0
 11
-8.4999990000000007
 21
50.299996
 31
0.0
  0
LINE
  8
DETAIL
  6
CONTINUOUS
 62
     5
 10
-7.4999990000000007
 20
53.299995999999993
 30
0.0
 11
-8.4999990000000007
 21
53.299995999999993
 31
0.0
  0
ARC
  8
DETAIL
  6
CONTINUOUS
 62
     5
 10
-6.9999990000000007
 20
53.799995999999993
 30
0.0
 40
0.5
 50
0.0
 51
180.0
  0
LINE
  8
DETAIL
  6
CONTINUOUS
 62
     5
 10
-6.4999989999999999
 20
49.799996
 30
0.0
 11
-6.4999989999999999
 21
53.799995999999993
 31
0.0
  0
ARC
  8
DETAIL
  6
CONTINUOUS
 62
     5
 10
-6.9999990000000007
 20
49.799996
 30
0.0
 40
0.5
 50
180.0
 51
0.0
  0
LINE
  8
DETAIL
  6
CONTINUOUS
 62
     5
 10
-7.9999990000000007
 20
53.549995999999993
 30
0.0
 11
-7.4999990000000007
 21
53.549995999999993
 31
0.0
  0
LINE
  8
DETAIL
  6
CONTINUOUS
 62
     5
 10
-7.9999990000000007
 20
50.049996
 30
0.0
 11
-7.4999990000000007
 21
50.049996
 31
0.0
  0
LINE
  8
DETAIL
  6
CONTINUOUS
 62
     5
 10
-79.499995999999996
 20
67.999994999999998
 30
0.0
 11
-7.4999990000000007
 21
67.999994999999998
 31
0.0
  0
LINE
  8
DETAIL
  6
CONTINUOUS
 62
     5
 10
-69.999996999999993
 20
68.499994999999998
 30
0.0
 11
-25.999998000000001
 21
68.499994999999998
 31
0.0
  0
ARC
  8
DETAIL
  6
CONTINUOUS
 62
     5
 10
-79.499995999999996
 20
66.999994999999998
 30
0.0
 40
1.0
 50
90.0
 51
180.0
  0
ARC
  8
DETAIL
  6
CONTINUOUS
 62
     5
 10
-71.118029000000007
 20
68.499994999999998
 30
0.0
 40
0.5
 50
270.0
 51
318.189685
  0
ARC
  8
DETAIL
  6
CONTINUOUS
 62
     5
 10
-69.999996999999993
 20
67.499994999999998
 30
0.0
 40
1.0
 50
90.0
 51
138.189685
  0
LINE
  8
DETAIL
  6
CONTINUOUS
 62
     5
 10
-71.118029000000007
 20
67.999994999999998
 30
0.0
 11
-69.999996999999993
 21
67.999994999999998
 31
0.0
  0
ARC
  8
DETAIL
  6
CONTINUOUS
 62
     5
 10
-15.499999000000001
 20
67.499994999999998
 30
0.0
 40
3.0
 50
16.60155
 51
163.39845
  0
LINE
  8
DETAIL
  6
CONTINUOUS
 62
     5
 10
-25.999998000000001
 20
67.999994999999998
 30
0.0
 11
-24.881962999999999
 21
67.999994999999998
 31
0.0
  0
ARC
  8
DETAIL
  6
CONTINUOUS
 62
     5
 10
-24.881962999999999
 20
68.499994999999998
 30
0.0
 40
0.5
 50
221.810315
 51
270.0
  0
ARC
  8
DETAIL
  6
CONTINUOUS
 62
     5
 10
-25.999998000000001
 20
67.499994999999998
 30
0.0
 40
1.0
 50
41.810315000000003
 51
90.0
  0
ARC
  8
DETAIL
  6
CONTINUOUS
 62
     5
 10
-18.854101
 20
68.499994999999998
 30
0.0
 40
0.5
 50
270.0
 51
343.39845000000003
  0
LINE
  8
DETAIL
  6
CONTINUOUS
 62
     5
 10
-7.4999990000000007
 20
60.999994999999998
 30
0.0
 11
-7.4999990000000007
 21
67.999994999999998
 31
0.0
  0
LINE
  8
DETAIL
  6
CONTINUOUS
 62
     5
 10
-7.4999990000000007
 20
60.999994999999998
 30
0.0
 11
-7.4999990000000007
 21
66.499994999999998
 31
0.0
  0
LINE
  8
DETAIL
  6
CONTINUOUS
 62
     5
 10
-0.5
 20
59.499994999999998
 30
0.0
 11
-6.9999990000000007
 21
59.499994999999998
 31
0.0
  0
LINE
  8
DETAIL
  6
CONTINUOUS
 62
     5
 10
-0.5
 20
60.499994999999998
 30
0.0
 11
-6.9999990000000007
 21
60.499994999999998
 31
0.0
  0
LINE
  8
DETAIL
  6
CONTINUOUS
 62
     5
 10
0.0
 20
58.999994999999998
 30
0.0
 11
-7.4999990000000007
 21
58.999994999999998
 31
0.0
  0
LINE
  8
DETAIL
  6
CONTINUOUS
 62
     5
 10
-7.9999990000000007
 20
55.249996000000003
 30
0.0
 11
-8.4999990000000007
 21
55.249996000000003
 31
0.0
  0
ARC
  8
DETAIL
  6
CONTINUOUS
 62
     5
 10
-6.9999990000000007
 20
58.999994999999998
 30
0.0
 40
0.5
 50
90.0
 51
180.0
  0
LINE
  8
DETAIL
  6
CONTINUOUS
 62
     5
 10
-7.4999990000000007
 20
58.999994999999998
 30
0.0
 11
-7.9999990000000007
 21
58.999994999999998
 31
0.0
  0
ARC
  8
DETAIL
  6
CONTINUOUS
 62
     5
 10
-6.9999990000000007
 20
60.999994999999998
 30
0.0
 40
0.5
 50
180.0
 51
270.0
  0
ARC
  8
DETAIL
  6
CONTINUOUS
 62
     5
 10
-0.5
 20
59.999994999999998
 30
0.0
 40
0.5
 50
270.0
 51
90.0
  0
ARC
  8
DETAIL
  6
CONTINUOUS
 62
     5
 10
-12.145897
 20
68.499994999999998
 30
0.0
 40
0.5
 50
196.60155
 51
270.0
  0
ARC
  8
DETAIL
  6
CONTINUOUS
 62
     5
 10
46.499996000000003
 20
47.749996000000003
 30
0.0
 40
0.5
 50
0.0
 51
90.0
  0
LINE
  8
BASIS
  6
DASHDOT
 62
     6
 10
56.192343000000008
 20
0.0
 30
0.0
 11
-94.62612
 21
0.0
 31
0.0
  0
LINE
  8
SIZE
  6
CONTINUOUS
 62
    30
 10
-114.62612
 20
0.0
 30
0.0
 11
-253.49423400000001
 21
0.0
 31
0.0
  0
LINE
  8
SIZE
  6
CONTINUOUS
 62
    30
 10
-95.309013000000007
 20
67.999994999999998
 30
0.0
 11
-253.49423400000001
 21
67.999994999999998
 31
0.0
  0
LINE
  8
SIZE
  6
CONTINUOUS
 62
    30
 10
-233.49423400000001
 20
-12.0
 30
0.0
 11
-233.49423400000001
 21
-24.0
 31
0.0
  0
LINE
  8
SIZE
  6
CONTINUOUS
 62
    30
 10
-233.49423400000001
 20
79.999994999999998
 30
0.0
 11
-233.49423400000001
 21
235.257137
 31
0.0
  0
LINE
  8
SIZE
  6
CONTINUOUS
 62
    30
 10
-233.49423400000001
 20
0.0
 30
0.0
 11
-233.49423400000001
 21
67.999994999999998
 31
0.0
  0
CIRCLE
  8
SIZE
  6
CONTINUOUS
 62
    30
 10
-233.49423400000001
 20
0.0
 30
0.0
 40
6.0
  0
LINE
  8
SIZE
  6
CONTINUOUS
 62
    30
 10
-233.49423400000001
 20
0.0
 30
0.0
 11
-233.49423400000001
 21
-12.0
 31
0.0
  0
CIRCLE
  8
SIZE
  6
CONTINUOUS
 62
    30
 10
-233.49423400000001
 20
67.999994999999998
 30
0.0
 40
6.0
  0
LINE
  8
SIZE
  6
CONTINUOUS
 62
    30
 10
-233.49423400000001
 20
67.999994999999998
 30
0.0
 11
-233.49423400000001
 21
79.999994999999998
 31
0.0
  0
TEXT
  8
SIZE
  6
CONTINUOUS
 62
    30
 10
-258.49423400000001
 20
116.9999945714286
 30
0.0
 40
64.0
  1
68
 50
90.0
 41
0.9
 72
     1
 11
-258.49423400000001
 21
163.62856600000001
 31
0.0
  0
POINT
  8
DEFPOINTS
  6
CONTINUOUS
 62
    30
 10
-94.62612
 20
0.0
 30
0.0
  0
POINT
  8
DEFPOINTS
  6
CONTINUOUS
 62
    30
 10
-75.309013000000007
 20
67.999994999999998
 30
0.0
  0
POINT
  8
DEFPOINTS
  6
CONTINUOUS
 62
    30
 10
-233.49423400000001
 20
67.999994999999998
 30
0.0
  0
LINE
  8
NOTE
  6
CONTINUOUS
 62
     4
 10
-7.4999990000000007
 20
-68.905265
 30
0.0
 11
-7.4999990000000007
 21
-54.5
 31
0.0
  0
CIRCLE
  8
FIX
  6
CONTINUOUS
 62
    11
 10
-7.4999990000000007
 20
-62.0
 30
0.0
 40
2.25
  0
LINE
  8
NOTE
  6
CONTINUOUS
 62
     4
 10
-12.049175999999999
 20
-62.0
 30
0.0
 11
-2.8666330000000002
 21
-62.0
 31
0.0
  0
LINE
  8
SIZE
  6
CONTINUOUS
 62
    30
 10
17.133367
 20
53.5
 30
0.0
 11
509.08662099999998
 21
53.5
 31
0.0
  0
LINE
  8
SIZE
  6
CONTINUOUS
 62
    30
 10
17.133367
 20
-62.0
 30
0.0
 11
509.08662099999998
 21
-62.0
 31
0.0
  0
LINE
  8
SIZE
  6
CONTINUOUS
 62
    30
 10
489.08662099999998
 20
41.5
 30
0.0
 11
489.08662099999998
 21
-50.0
 31
0.0
  0
LINE
  8
SIZE
  6
CONTINUOUS
 62
    30
 10
489.08662099999998
 20
-62.0
 30
0.0
 11
489.08662099999998
 21
-332.45714299999997
 31
0.0
  0
CIRCLE
  8
SIZE
  6
CONTINUOUS
 62
    30
 10
489.08662099999998
 20
53.5
 30
0.0
 40
6.0
  0
LINE
  8
SIZE
  6
CONTINUOUS
 62
    30
 10
489.08662099999998
 20
53.5
 30
0.0
 11
489.08662099999998
 21
41.5
 31
0.0
  0
CIRCLE
  8
SIZE
  6
CONTINUOUS
 62
    30
 10
489.08662099999998
 20
-62.0
 30
0.0
 40
6.0
  0
LINE
  8
SIZE
  6
CONTINUOUS
 62
    30
 10
489.08662099999998
 20
-62.0
 30
0.0
 11
489.08662099999998
 21
-50.0
 31
0.0
  0
TEXT
  8
SIZE
  6
CONTINUOUS
 62
    30
 10
464.08662099999998
 20
-307.45714242857139
 30
0.0
 40
64.0
  1
115.5
 50
90.0
 41
0.9
 72
     1
 11
464.08662099999998
 21
-203.22857099999999
 31
0.0
  0
POINT
  8
DEFPOINTS
  6
CONTINUOUS
 62
    30
 10
-2.8666330000000002
 20
53.5
 30
0.0
  0
POINT
  8
DEFPOINTS
  6
CONTINUOUS
 62
    30
 10
-2.8666330000000002
 20
-62.0
 30
0.0
  0
POINT
  8
DEFPOINTS
  6
CONTINUOUS
 62
    30
 10
489.08662099999998
 20
-62.0
 30
0.0
  0
LINE
  8
NOTE
  6
CONTINUOUS
 62
     4
 10
-7.4980770000000003
 20
-62.017332999999986
 30
0.0
 11
-1.7173320000000001
 21
-68.581637999999998
 31
0.0
  0
LINE
  8
NOTE
  6
CONTINUOUS
 62
     4
 10
-7.4236750000000002
 20
-61.982395999999987
 30
0.0
 11
-6.0646250000000004
 21
-70.623002999999997
 31
0.0
  0
TEXT
  8
ETC
  6
CONTINUOUS
 62
    61
 10
440.95065699999998
 20
475.91471799999999
 30
0.0
 40
64.0
  1
V-08PPR2_4
 41
0.9
  0
TEXT
  8
ETC
  6
CONTINUOUS
 62
    61
 10
436.76466299999998
 20
357.959408
 30
0.0
 40
64.0
  1
換気扇
 41
0.9
  0
TEXT
  8
ETC
  6
CONTINUOUS
 62
    61
 10
487.37216500000011
 20
251.03847200000001
 30
0.0
 40
40.0
  1
V-08PPR2
 41
0.9
  0
LINE
  8
DETAIL
  6
CONTINUOUS
 62
     5
 10
46.499996000000003
 20
-48.249996000000003
 30
0.0
 11
0.0
 21
-48.249996000000003
 31
0.0
  0
LINE
  8
DETAIL
  6
CONTINUOUS
 62
     5
 10
-23.751353999999999
 20
-95.900205
 30
0.0
 11
-25.538739
 21
-89.132244999999998
 31
0.0
  0
ARC
  8
DETAIL
  6
CONTINUOUS
 62
     5
 10
-31.421323999999998
 20
-98.598089999999999
 30
0.0
 40
6.2999999999999998
 50
104.793764
 51
180.0
  0
ARC
  8
DETAIL
  6
CONTINUOUS
 62
     5
 10
-30.421323999999998
 20
-98.851138000000006
 30
0.0
 40
2.5
 50
104.793764
 51
180.0
  0
LINE
  8
DETAIL
  6
CONTINUOUS
 62
     5
 10
-37.721324000000003
 20
-106.30001
 30
0.0
 11
-37.721324000000003
 21
-112.07376499999999
 31
0.0
  0
LINE
  8
DETAIL
  6
CONTINUOUS
 62
     5
 10
-32.921323999999998
 20
-108.20844099999999
 30
0.0
 11
-32.921323999999998
 21
-112.07376499999999
 31
0.0
  0
LINE
  8
DETAIL
  6
CONTINUOUS
 62
     5
 10
-32.921323999999998
 20
-98.851138000000006
 30
0.0
 11
-32.921323999999998
 21
-105.20844099999999
 31
0.0
  0
LINE
  8
DETAIL
  6
CONTINUOUS
 62
     5
 10
-37.721324000000003
 20
-98.598089999999999
 30
0.0
 11
-37.721324000000003
 21
-103.283022
 31
0.0
  0
CIRCLE
  8
DETAIL
  6
CONTINUOUS
 62
     5
 10
-35.321323999999997
 20
-172.773765
 30
0.0
 40
1.75
  0
CIRCLE
  8
DETAIL
  6
CONTINUOUS
 62
     5
 10
-35.321323999999997
 20
-172.773765
 30
0.0
 40
1.5
  0
LINE
  8
DETAIL
  6
CONTINUOUS
 62
     5
 10
-29.371324000000001
 20
-131.07376500000001
 30
0.0
 11
-41.271324
 21
-131.07376500000001
 31
0.0
  0
LINE
  8
DETAIL
  6
CONTINUOUS
 62
     5
 10
-29.071324000000001
 20
-132.07376500000001
 30
0.0
 11
-41.571323999999997
 21
-132.07376500000001
 31
0.0
  0
ARC
  8
DETAIL
  6
CONTINUOUS
 62
     5
 10
-46.321323999999997
 20
-152.79132300000001
 30
0.0
 40
20.0
 50
0.0
 51
25.107696000000001
  0
LINE
  8
DETAIL
  6
CONTINUOUS
 62
     5
 10
-26.321324000000001
 20
-152.79132300000001
 30
0.0
 11
-26.321324000000001
 21
-161.07376500000001
 31
0.0
  0
LINE
  8
DETAIL
  6
CONTINUOUS
 62
     5
 10
-26.321324000000001
 20
-161.07376500000001
 30
0.0
 11
-35.321323999999997
 21
-161.07376500000001
 31
0.0
  0
LINE
  8
DETAIL
  6
CONTINUOUS
 62
     5
 10
-26.321324000000001
 20
-152.79132300000001
 30
0.0
 11
-26.321324000000001
 21
-161.07376500000001
 31
0.0
  0
ARC
  8
DETAIL
  6
CONTINUOUS
 62
     5
 10
-12.779655999999999
 20
-137.07376500000001
 30
0.0
 40
17.041668000000001
 50
162.938469
 51
205.107696
  0
LINE
  8
DETAIL
  6
CONTINUOUS
 62
     5
 10
-44.321323999999997
 20
-152.79132300000001
 30
0.0
 11
-44.321323999999997
 21
-161.07376500000001
 31
0.0
  0
ARC
  8
DETAIL
  6
CONTINUOUS
 62
     5
 10
-24.321324000000001
 20
-152.79132300000001
 30
0.0
 40
20.0
 50
154.892304
 51
180.0
  0
ARC
  8
DETAIL
  6
CONTINUOUS
 62
     5
 10
-57.862988999999999
 20
-137.07376500000001
 30
0.0
 40
17.041668000000001
 50
334.89230400000002
 51
17.061530999999999
  0
LINE
  8
DETAIL
  6
CONTINUOUS
 62
     5
 10
-30.571324000000001
 20
-128.57376500000001
 30
0.0
 11
-40.071323999999997
 21
-128.57376500000001
 31
0.0
  0
LINE
  8
DETAIL
  6
CONTINUOUS
 62
     5
 10
-30.648458999999999
 20
-127.30103800000001
 30
0.0
 11
-39.994188999999999
 21
-127.30103800000001
 31
0.0
  0
LINE
  8
DETAIL
  6
CONTINUOUS
 62
     5
 10
-30.725594000000001
 20
-126.02831
 30
0.0
 11
-39.917054
 21
-126.02831
 31
0.0
  0
LINE
  8
DETAIL
  6
CONTINUOUS
 62
     5
 10
-30.802728999999999
 20
-124.755583
 30
0.0
 11
-39.839919000000002
 21
-124.755583
 31
0.0
  0
LINE
  8
DETAIL
  6
CONTINUOUS
 62
     5
 10
-30.879864000000001
 20
-123.482855
 30
0.0
 11
-39.762784000000003
 21
-123.482855
 31
0.0
  0
LINE
  8
DETAIL
  6
CONTINUOUS
 62
     5
 10
-30.956999
 20
-122.210128
 30
0.0
 11
-39.685648999999998
 21
-122.210128
 31
0.0
  0
LINE
  8
DETAIL
  6
CONTINUOUS
 62
     5
 10
-31.034134000000002
 20
-120.9374
 30
0.0
 11
-39.608514
 21
-120.9374
 31
0.0
  0
LINE
  8
DETAIL
  6
CONTINUOUS
 62
     5
 10
-31.111269
 20
-119.66467299999999
 30
0.0
 11
-39.531379000000001
 21
-119.66467299999999
 31
0.0
  0
LINE
  8
DETAIL
  6
CONTINUOUS
 62
     5
 10
-31.188403999999998
 20
-118.39194500000001
 30
0.0
 11
-39.454244000000003
 21
-118.39194500000001
 31
0.0
  0
LINE
  8
DETAIL
  6
CONTINUOUS
 62
     5
 10
-31.265539
 20
-117.11922
 30
0.0
 11
-39.377108999999997
 21
-117.11922
 31
0.0
  0
LINE
  8
DETAIL
  6
CONTINUOUS
 62
     5
 10
-31.342673999999999
 20
-115.846493
 30
0.0
 11
-39.299973999999999
 21
-115.846493
 31
0.0
  0
LINE
  8
DETAIL
  6
CONTINUOUS
 62
     5
 10
-31.419809000000001
 20
-114.57376499999999
 30
0.0
 11
-39.222839
 21
-114.57376499999999
 31
0.0
  0
LINE
  8
DETAIL
  6
CONTINUOUS
 62
     5
 10
-32.041936
 20
-112.07376499999999
 30
0.0
 11
-38.600709000000002
 21
-112.07376499999999
 31
0.0
  0
LINE
  8
DETAIL
  6
CONTINUOUS
 62
     5
 10
-29.371324000000001
 20
-131.07376500000001
 30
0.0
 11
-29.071324000000001
 21
-132.07376500000001
 31
0.0
  0
LINE
  8
DETAIL
  6
CONTINUOUS
 62
     5
 10
-32.921323999999998
 20
-114.57376499999999
 30
0.0
 11
-32.921323999999998
 21
-115.846493
 31
0.0
  0
LINE
  8
DETAIL
  6
CONTINUOUS
 62
     5
 10
-32.921323999999998
 20
-127.30103800000001
 30
0.0
 11
-32.921323999999998
 21
-128.57376500000001
 31
0.0
  0
LINE
  8
DETAIL
  6
CONTINUOUS
 62
     5
 10
-32.921323999999998
 20
-124.755583
 30
0.0
 11
-32.921323999999998
 21
-126.02831
 31
0.0
  0
LINE
  8
DETAIL
  6
CONTINUOUS
 62
     5
 10
-32.921323999999998
 20
-122.210128
 30
0.0
 11
-32.921323999999998
 21
-123.482855
 31
0.0
  0
LINE
  8
DETAIL
  6
CONTINUOUS
 62
     5
 10
-32.921323999999998
 20
-119.66467299999999
 30
0.0
 11
-32.921323999999998
 21
-120.9374
 31
0.0
  0
LINE
  8
DETAIL
  6
CONTINUOUS
 62
     5
 10
-32.921323999999998
 20
-117.11922
 30
0.0
 11
-32.921323999999998
 21
-118.39194500000001
 31
0.0
  0
ARC
  8
DETAIL
  6
CONTINUOUS
 62
     5
 10
-33.269044000000001
 20
-127.9374
 30
0.0
 40
0.636363
 50
90.0
 51
270.0
  0
ARC
  8
DETAIL
  6
CONTINUOUS
 62
     5
 10
-33.423313999999998
 20
-125.39194500000001
 30
0.0
 40
0.636363
 50
90.0
 51
270.0
  0
ARC
  8
DETAIL
  6
CONTINUOUS
 62
     5
 10
-33.577584000000002
 20
-122.846493
 30
0.0
 40
0.636363
 50
90.0
 51
270.0
  0
ARC
  8
DETAIL
  6
CONTINUOUS
 62
     5
 10
-33.731853999999998
 20
-120.30103800000001
 30
0.0
 40
0.636363
 50
90.0
 51
270.0
  0
ARC
  8
DETAIL
  6
CONTINUOUS
 62
     5
 10
-33.886124000000002
 20
-117.755583
 30
0.0
 40
0.636363
 50
90.0
 51
270.0
  0
ARC
  8
DETAIL
  6
CONTINUOUS
 62
     5
 10
-34.040393999999999
 20
-115.210128
 30
0.0
 40
0.636363
 50
90.0
 51
270.0
  0
ARC
  8
DETAIL
  6
CONTINUOUS
 62
     5
 10
-31.381240999999999
 20
-115.210128
 30
0.0
 40
0.636363
 50
90.0
 51
270.0
  0
LINE
  8
DETAIL
  6
CONTINUOUS
 62
     5
 10
-30.725594000000001
 20
-126.02831
 30
0.0
 11
-30.648458999999999
 21
-127.30103800000001
 31
0.0
  0
LINE
  8
DETAIL
  6
CONTINUOUS
 62
     5
 10
-30.879864000000001
 20
-123.482855
 30
0.0
 11
-30.802728999999999
 21
-124.755583
 31
0.0
  0
LINE
  8
DETAIL
  6
CONTINUOUS
 62
     5
 10
-31.034134000000002
 20
-120.9374
 30
0.0
 11
-30.956999
 21
-122.210128
 31
0.0
  0
LINE
  8
DETAIL
  6
CONTINUOUS
 62
     5
 10
-31.188403999999998
 20
-118.39194500000001
 30
0.0
 11
-31.111269
 21
-119.66467299999999
 31
0.0
  0
LINE
  8
DETAIL
  6
CONTINUOUS
 62
     5
 10
-31.342673999999999
 20
-115.846493
 30
0.0
 11
-31.265539
 21
-117.11922
 31
0.0
  0
LINE
  8
DETAIL
  6
CONTINUOUS
 62
     5
 10
-31.542853999999998
 20
-112.54351800000001
 30
0.0
 11
-31.419809000000001
 21
-114.57376499999999
 31
0.0
  0
ARC
  8
DETAIL
  6
CONTINUOUS
 62
     5
 10
-30.609891000000001
 20
-127.9374
 30
0.0
 40
0.636363
 50
90.0
 51
270.0
  0
ARC
  8
DETAIL
  6
CONTINUOUS
 62
     5
 10
-30.764161000000001
 20
-125.39194500000001
 30
0.0
 40
0.636363
 50
90.0
 51
270.0
  0
ARC
  8
DETAIL
  6
CONTINUOUS
 62
     5
 10
-30.918431000000002
 20
-122.846493
 30
0.0
 40
0.636363
 50
90.0
 51
270.0
  0
ARC
  8
DETAIL
  6
CONTINUOUS
 62
     5
 10
-31.072700999999999
 20
-120.30103800000001
 30
0.0
 40
0.636363
 50
90.0
 51
270.0
  0
ARC
  8
DETAIL
  6
CONTINUOUS
 62
     5
 10
-31.226970999999999
 20
-117.755583
 30
0.0
 40
0.636363
 50
90.0
 51
270.0
  0
ARC
  8
DETAIL
  6
CONTINUOUS
 62
     5
 10
-25.640491000000001
 20
-127.74496499999999
 30
0.0
 40
5.0
 50
189.54137299999999
 51
221.74063799999999
  0
ARC
  8
DETAIL
  6
CONTINUOUS
 62
     5
 10
-32.041936
 20
-112.57376499999999
 30
0.0
 40
0.5
 50
3.468229
 51
90.0
  0
LINE
  8
DETAIL
  6
CONTINUOUS
 62
     5
 10
-37.721324000000003
 20
-114.57376499999999
 30
0.0
 11
-37.721324000000003
 21
-115.846493
 31
0.0
  0
LINE
  8
DETAIL
  6
CONTINUOUS
 62
     5
 10
-37.721324000000003
 20
-127.30103800000001
 30
0.0
 11
-37.721324000000003
 21
-128.57376500000001
 31
0.0
  0
LINE
  8
DETAIL
  6
CONTINUOUS
 62
     5
 10
-37.721324000000003
 20
-124.755583
 30
0.0
 11
-37.721324000000003
 21
-126.02831
 31
0.0
  0
LINE
  8
DETAIL
  6
CONTINUOUS
 62
     5
 10
-37.721324000000003
 20
-122.210128
 30
0.0
 11
-37.721324000000003
 21
-123.482855
 31
0.0
  0
LINE
  8
DETAIL
  6
CONTINUOUS
 62
     5
 10
-37.721324000000003
 20
-119.66467299999999
 30
0.0
 11
-37.721324000000003
 21
-120.9374
 31
0.0
  0
LINE
  8
DETAIL
  6
CONTINUOUS
 62
     5
 10
-37.721324000000003
 20
-117.11922
 30
0.0
 11
-37.721324000000003
 21
-118.39194500000001
 31
0.0
  0
ARC
  8
DETAIL
  6
CONTINUOUS
 62
     5
 10
-37.373601000000001
 20
-127.9374
 30
0.0
 40
0.636363
 50
270.0
 51
90.0
  0
ARC
  8
DETAIL
  6
CONTINUOUS
 62
     5
 10
-37.219330999999997
 20
-125.39194500000001
 30
0.0
 40
0.636363
 50
270.0
 51
90.0
  0
ARC
  8
DETAIL
  6
CONTINUOUS
 62
     5
 10
-37.065061
 20
-122.846493
 30
0.0
 40
0.636363
 50
270.0
 51
90.0
  0
ARC
  8
DETAIL
  6
CONTINUOUS
 62
     5
 10
-36.910791000000003
 20
-120.30103800000001
 30
0.0
 40
0.636363
 50
270.0
 51
90.0
  0
ARC
  8
DETAIL
  6
CONTINUOUS
 62
     5
 10
-36.756520999999999
 20
-117.755583
 30
0.0
 40
0.636363
 50
270.0
 51
90.0
  0
ARC
  8
DETAIL
  6
CONTINUOUS
 62
     5
 10
-36.602251000000003
 20
-115.210128
 30
0.0
 40
0.636363
 50
270.0
 51
90.0
  0
LINE
  8
DETAIL
  6
CONTINUOUS
 62
     5
 10
-41.271324
 20
-131.07376500000001
 30
0.0
 11
-41.571323999999997
 21
-132.07376500000001
 31
0.0
  0
ARC
  8
DETAIL
  6
CONTINUOUS
 62
     5
 10
-39.261406000000001
 20
-115.210128
 30
0.0
 40
0.636363
 50
270.0
 51
90.0
  0
LINE
  8
DETAIL
  6
CONTINUOUS
 62
     5
 10
-39.917054
 20
-126.02831
 30
0.0
 11
-39.994188999999999
 21
-127.30103800000001
 31
0.0
  0
LINE
  8
DETAIL
  6
CONTINUOUS
 62
     5
 10
-39.762784000000003
 20
-123.482855
 30
0.0
 11
-39.839919000000002
 21
-124.755583
 31
0.0
  0
LINE
  8
DETAIL
  6
CONTINUOUS
 62
     5
 10
-39.608514
 20
-120.9374
 30
0.0
 11
-39.685648999999998
 21
-122.210128
 31
0.0
  0
LINE
  8
DETAIL
  6
CONTINUOUS
 62
     5
 10
-39.454244000000003
 20
-118.39194500000001
 30
0.0
 11
-39.531379000000001
 21
-119.66467299999999
 31
0.0
  0
LINE
  8
DETAIL
  6
CONTINUOUS
 62
     5
 10
-39.299973999999999
 20
-115.846493
 30
0.0
 11
-39.377108999999997
 21
-117.11922
 31
0.0
  0
LINE
  8
DETAIL
  6
CONTINUOUS
 62
     5
 10
-39.099794000000003
 20
-112.54351800000001
 30
0.0
 11
-39.222839
 21
-114.57376499999999
 31
0.0
  0
ARC
  8
DETAIL
  6
CONTINUOUS
 62
     5
 10
-40.032755999999999
 20
-127.9374
 30
0.0
 40
0.636363
 50
270.0
 51
90.0
  0
ARC
  8
DETAIL
  6
CONTINUOUS
 62
     5
 10
-39.878486000000002
 20
-125.39194500000001
 30
0.0
 40
0.636363
 50
270.0
 51
90.0
  0
ARC
  8
DETAIL
  6
CONTINUOUS
 62
     5
 10
-39.724215999999998
 20
-122.846493
 30
0.0
 40
0.636363
 50
270.0
 51
90.0
  0
ARC
  8
DETAIL
  6
CONTINUOUS
 62
     5
 10
-39.569946000000002
 20
-120.30103800000001
 30
0.0
 40
0.636363
 50
270.0
 51
90.0
  0
ARC
  8
DETAIL
  6
CONTINUOUS
 62
     5
 10
-39.415675999999998
 20
-117.755583
 30
0.0
 40
0.636363
 50
270.0
 51
90.0
  0
ARC
  8
DETAIL
  6
CONTINUOUS
 62
     5
 10
-38.600709000000002
 20
-112.57376499999999
 30
0.0
 40
0.5
 50
90.0
 51
176.53177099999999
  0
ARC
  8
DETAIL
  6
CONTINUOUS
 62
     5
 10
-45.002153999999997
 20
-127.74496499999999
 30
0.0
 40
5.0
 50
318.25936200000001
 51
350.45862699999998
  0
LINE
  8
DETAIL
  6
CONTINUOUS
 62
     5
 10
-32.171323999999998
 20
-161.07376500000001
 30
0.0
 11
-32.171323999999998
 21
-177.07376500000001
 31
0.0
  0
LINE
  8
DETAIL
  6
CONTINUOUS
 62
     5
 10
-38.471324000000003
 20
-161.07376500000001
 30
0.0
 11
-38.471324000000003
 21
-177.07376500000001
 31
0.0
  0
LINE
  8
DETAIL
  6
CONTINUOUS
 62
     5
 10
-32.171323999999998
 20
-177.07376500000001
 30
0.0
 11
-38.471324000000003
 21
-177.07376500000001
 31
0.0
  0
ARC
  8
DETAIL
  6
CONTINUOUS
 62
     5
 10
-35.321323999999997
 20
-172.612515
 30
0.0
 40
5.4612499999999997
 50
234.774844
 51
305.22515600000003
  0
LINE
  8
DETAIL
  6
CONTINUOUS
 62
     5
 10
-35.321323999999997
 20
-161.07376500000001
 30
0.0
 11
-44.321323999999997
 21
-161.07376500000001
 31
0.0
  0
LINE
  8
DETAIL
  6
CONTINUOUS
 62
     5
 10
-19.782978
 20
-94.852176
 30
0.0
 11
-23.751353999999999
 21
-95.900205
 31
0.0
  0
LINE
  8
DETAIL
  6
CONTINUOUS
 62
     5
 10
-8.9893239999999999
 20
-84.761628000000002
 30
0.0
 11
-25.538739
 21
-89.132244999999998
 31
0.0
  0
LINE
  8
DETAIL
  6
CONTINUOUS
 62
     5
 10
-42.028122000000003
 20
-105.759244
 30
0.0
 11
-41.340389000000002
 21
-105.21569
 31
0.0
  0
LINE
  8
DETAIL
  6
CONTINUOUS
 62
     5
 10
-41.340389000000002
 20
-105.21569
 30
0.0
 11
-40.659145000000002
 21
-104.695926
 31
0.0
  0
LINE
  8
DETAIL
  6
CONTINUOUS
 62
     5
 10
-40.659145000000002
 20
-104.695926
 30
0.0
 11
-39.990876
 21
-104.22374000000001
 31
0.0
  0
LINE
  8
DETAIL
  6
CONTINUOUS
 62
     5
 10
-39.990876
 20
-104.22374000000001
 30
0.0
 11
-39.342071999999987
 21
-103.822923
 31
0.0
  0
LINE
  8
DETAIL
  6
CONTINUOUS
 62
     5
 10
-39.342071999999987
 20
-103.822923
 30
0.0
 11
-38.719219000000002
 21
-103.517264
 31
0.0
  0
LINE
  8
DETAIL
  6
CONTINUOUS
 62
     5
 10
-38.719219000000002
 20
-103.517264
 30
0.0
 11
-38.128807000000002
 21
-103.33055299999999
 31
0.0
  0
LINE
  8
DETAIL
  6
CONTINUOUS
 62
     5
 10
-38.128807000000002
 20
-103.33055299999999
 30
0.0
 11
-37.577323
 21
-103.28657800000001
 31
0.0
  0
LINE
  8
DETAIL
  6
CONTINUOUS
 62
     5
 10
-37.577323
 20
-103.28657800000001
 30
0.0
 11
-37.067290999999997
 21
-103.39795599999999
 31
0.0
  0
LINE
  8
DETAIL
  6
CONTINUOUS
 62
     5
 10
-37.067290999999997
 20
-103.39795599999999
 30
0.0
 11
-36.585372999999997
 21
-103.63260699999999
 31
0.0
  0
LINE
  8
DETAIL
  6
CONTINUOUS
 62
     5
 10
-36.585372999999997
 20
-103.63260699999999
 30
0.0
 11
-36.114269
 21
-103.947278
 31
0.0
  0
LINE
  8
DETAIL
  6
CONTINUOUS
 62
     5
 10
-36.114269
 20
-103.947278
 30
0.0
 11
-35.636676999999999
 21
-104.29871300000001
 31
0.0
  0
LINE
  8
DETAIL
  6
CONTINUOUS
 62
     5
 10
-35.636676999999999
 20
-104.29871300000001
 30
0.0
 11
-35.135294999999999
 21
-104.64366099999999
 31
0.0
  0
LINE
  8
DETAIL
  6
CONTINUOUS
 62
     5
 10
-35.135294999999999
 20
-104.64366099999999
 30
0.0
 11
-34.592823000000003
 21
-104.938867
 31
0.0
  0
LINE
  8
DETAIL
  6
CONTINUOUS
 62
     5
 10
-34.592823000000003
 20
-104.938867
 30
0.0
 11
-33.991957999999997
 21
-105.14107799999999
 31
0.0
  0
LINE
  8
DETAIL
  6
CONTINUOUS
 62
     5
 10
-33.991957999999997
 20
-105.14107799999999
 30
0.0
 11
-33.320084999999999
 21
-105.217493
 31
0.0
  0
LINE
  8
DETAIL
  6
CONTINUOUS
 62
     5
 10
-33.320084999999999
 20
-105.217493
 30
0.0
 11
-32.583331000000001
 21
-105.17712299999999
 31
0.0
  0
LINE
  8
DETAIL
  6
CONTINUOUS
 62
     5
 10
-32.583331000000001
 20
-105.17712299999999
 30
0.0
 11
-31.792511000000001
 21
-105.03943200000001
 31
0.0
  0
LINE
  8
DETAIL
  6
CONTINUOUS
 62
     5
 10
-31.792511000000001
 20
-105.03943200000001
 30
0.0
 11
-30.958435999999999
 21
-104.823885
 31
0.0
  0
LINE
  8
DETAIL
  6
CONTINUOUS
 62
     5
 10
-30.958435999999999
 20
-104.823885
 30
0.0
 11
-30.091922
 21
-104.54994499999999
 31
0.0
  0
LINE
  8
DETAIL
  6
CONTINUOUS
 62
     5
 10
-30.091922
 20
-104.54994499999999
 30
0.0
 11
-29.203780999999999
 21
-104.237077
 31
0.0
  0
LINE
  8
DETAIL
  6
CONTINUOUS
 62
     5
 10
-29.203780999999999
 20
-104.237077
 30
0.0
 11
-28.304825999999998
 21
-103.90474500000001
 31
0.0
  0
LINE
  8
DETAIL
  6
CONTINUOUS
 62
     5
 10
-42.028122000000003
 20
-108.759244
 30
0.0
 11
-41.340389000000002
 21
-108.21569
 31
0.0
  0
LINE
  8
DETAIL
  6
CONTINUOUS
 62
     5
 10
-41.340389000000002
 20
-108.21569
 30
0.0
 11
-40.659145000000002
 21
-107.695926
 31
0.0
  0
LINE
  8
DETAIL
  6
CONTINUOUS
 62
     5
 10
-40.659145000000002
 20
-107.695926
 30
0.0
 11
-39.990876
 21
-107.22374000000001
 31
0.0
  0
LINE
  8
DETAIL
  6
CONTINUOUS
 62
     5
 10
-39.990876
 20
-107.22374000000001
 30
0.0
 11
-39.342071999999987
 21
-106.822923
 31
0.0
  0
LINE
  8
DETAIL
  6
CONTINUOUS
 62
     5
 10
-39.342071999999987
 20
-106.822923
 30
0.0
 11
-38.719219000000002
 21
-106.517264
 31
0.0
  0
LINE
  8
DETAIL
  6
CONTINUOUS
 62
     5
 10
-38.719219000000002
 20
-106.517264
 30
0.0
 11
-38.128807000000002
 21
-106.33055299999999
 31
0.0
  0
LINE
  8
DETAIL
  6
CONTINUOUS
 62
     5
 10
-38.128807000000002
 20
-106.33055299999999
 30
0.0
 11
-37.577323
 21
-106.28657800000001
 31
0.0
  0
LINE
  8
DETAIL
  6
CONTINUOUS
 62
     5
 10
-37.577323
 20
-106.28657800000001
 30
0.0
 11
-37.067290999999997
 21
-106.39795599999999
 31
0.0
  0
LINE
  8
DETAIL
  6
CONTINUOUS
 62
     5
 10
-37.067290999999997
 20
-106.39795599999999
 30
0.0
 11
-36.585372999999997
 21
-106.63260699999999
 31
0.0
  0
LINE
  8
DETAIL
  6
CONTINUOUS
 62
     5
 10
-36.585372999999997
 20
-106.63260699999999
 30
0.0
 11
-36.114269
 21
-106.947278
 31
0.0
  0
LINE
  8
DETAIL
  6
CONTINUOUS
 62
     5
 10
-36.114269
 20
-106.947278
 30
0.0
 11
-35.636676999999999
 21
-107.29871300000001
 31
0.0
  0
LINE
  8
DETAIL
  6
CONTINUOUS
 62
     5
 10
-35.636676999999999
 20
-107.29871300000001
 30
0.0
 11
-35.135294999999999
 21
-107.64366099999999
 31
0.0
  0
LINE
  8
DETAIL
  6
CONTINUOUS
 62
     5
 10
-35.135294999999999
 20
-107.64366099999999
 30
0.0
 11
-34.592823000000003
 21
-107.938867
 31
0.0
  0
LINE
  8
DETAIL
  6
CONTINUOUS
 62
     5
 10
-34.592823000000003
 20
-107.938867
 30
0.0
 11
-33.991957999999997
 21
-108.14107799999999
 31
0.0
  0
LINE
  8
DETAIL
  6
CONTINUOUS
 62
     5
 10
-33.991957999999997
 20
-108.14107799999999
 30
0.0
 11
-33.320084999999999
 21
-108.217493
 31
0.0
  0
LINE
  8
DETAIL
  6
CONTINUOUS
 62
     5
 10
-33.320084999999999
 20
-108.217493
 30
0.0
 11
-32.583331000000001
 21
-108.17712299999999
 31
0.0
  0
LINE
  8
DETAIL
  6
CONTINUOUS
 62
     5
 10
-32.583331000000001
 20
-108.17712299999999
 30
0.0
 11
-31.792511000000001
 21
-108.03943200000001
 31
0.0
  0
LINE
  8
DETAIL
  6
CONTINUOUS
 62
     5
 10
-31.792511000000001
 20
-108.03943200000001
 30
0.0
 11
-30.958435999999999
 21
-107.823885
 31
0.0
  0
LINE
  8
DETAIL
  6
CONTINUOUS
 62
     5
 10
-30.958435999999999
 20
-107.823885
 30
0.0
 11
-30.091922
 21
-107.54994499999999
 31
0.0
  0
LINE
  8
DETAIL
  6
CONTINUOUS
 62
     5
 10
-30.091922
 20
-107.54994499999999
 30
0.0
 11
-29.203780999999999
 21
-107.237077
 31
0.0
  0
LINE
  8
DETAIL
  6
CONTINUOUS
 62
     5
 10
-29.203780999999999
 20
-107.237077
 30
0.0
 11
-28.304825999999998
 21
-106.90474500000001
 31
0.0
  0
LINE
  8
DETAIL
  6
CONTINUOUS
 62
     5
 10
-7.5000039999999997
 20
-87.587730000000008
 30
0.0
 11
-7.4999990000000007
 21
58.999994999999998
 31
0.0
  0
LINE
  8
DETAIL
  6
CONTINUOUS
 62
     5
 10
-24.096063999999998
 20
-94.594954999999999
 30
0.0
 11
-31.059674000000001
 21
-96.434010000000001
 31
0.0
  0
LINE
  8
DETAIL
  6
CONTINUOUS
 62
     5
 10
-25.194029
 20
-90.437494999999998
 30
0.0
 11
-33.029969000000001
 21
-92.506927000000005
 31
0.0
  0
LINE
  8
DETAIL
  6
CONTINUOUS
 62
     5
 10
-9.2999989999999997
 20
-84.843675000000005
 30
0.0
 11
-9.2999989999999997
 21
-81.999993000000003
 31
0.0
  0
LINE
  8
SIZE
  6
CONTINUOUS
 62
    30
 10
17.133367
 20
53.5
 30
0.0
 11
509.08662099999998
 21
53.5
 31
0.0
  0
LINE
  8
SIZE
  6
CONTINUOUS
 62
    30
 10
4.5000010000000001
 20
70.499994000000001
 30
0.0
 11
509.08662099999998
 21
70.499994000000001
 31
0.0
  0
LINE
  8
SIZE
  6
CONTINUOUS
 62
    30
 10
489.08662099999998
 20
41.5
 30
0.0
 11
489.08662099999998
 21
29.5
 31
0.0
  0
LINE
  8
SIZE
  6
CONTINUOUS
 62
    30
 10
489.08662099999998
 20
82.499994000000001
 30
0.0
 11
489.08662099999998
 21
226.785709
 31
0.0
  0
LINE
  8
SIZE
  6
CONTINUOUS
 62
    30
 10
489.08662099999998
 20
53.5
 30
0.0
 11
489.08662099999998
 21
70.499994000000001
 31
0.0
  0
CIRCLE
  8
SIZE
  6
CONTINUOUS
 62
    30
 10
489.08662099999998
 20
53.5
 30
0.0
 40
6.0
  0
LINE
  8
SIZE
  6
CONTINUOUS
 62
    30
 10
489.08662099999998
 20
53.5
 30
0.0
 11
489.08662099999998
 21
41.5
 31
0.0
  0
CIRCLE
  8
SIZE
  6
CONTINUOUS
 62
    30
 10
489.08662099999998
 20
70.499994000000001
 30
0.0
 40
6.0
  0
LINE
  8
SIZE
  6
CONTINUOUS
 62
    30
 10
489.08662099999998
 20
70.499994000000001
 30
0.0
 11
489.08662099999998
 21
82.499994000000001
 31
0.0
  0
TEXT
  8
SIZE
  6
CONTINUOUS
 62
    30
 10
464.08662099999998
 20
119.49999485714289
 30
0.0
 40
64.0
  1
17
 50
90.0
 41
0.9
 72
     1
 11
464.08662099999998
 21
160.642852
 31
0.0
  0
POINT
  8
DEFPOINTS
  6
CONTINUOUS
 62
    30
 10
-2.8666330000000002
 20
53.5
 30
0.0
  0
POINT
  8
DEFPOINTS
  6
CONTINUOUS
 62
    30
 10
-15.499999000000001
 20
70.499994000000001
 30
0.0
  0
POINT
  8
DEFPOINTS
  6
CONTINUOUS
 62
    30
 10
489.08662099999998
 20
70.499994000000001
 30
0.0
  0
LINE
  8
DETAIL
  6
CONTINUOUS
 62
     5
 10
-17.303920999999999
 20
-89.316424999999995
 30
0.0
 11
-11.441134
 21
-88.282657999999998
 31
0.0
  0
ARC
  8
DETAIL
  6
CONTINUOUS
 62
     5
 10
-16.782979000000001
 20
-92.270848000000001
 30
0.0
 40
3.0
 50
100.0
 51
180.0
  0
LINE
  8
DETAIL
  6
CONTINUOUS
 62
     5
 10
-19.782978
 20
-99.400102000000004
 30
0.0
 11
-19.782978
 21
-92.270848000000001
 31
0.0
  0
LINE
  8
DETAIL
  6
CONTINUOUS
 62
     5
 10
-11.441134
 20
-88.282657999999998
 30
0.0
 11
-1.1736470000000001
 21
-86.472223
 31
0.0
  0
LINE
  8
DETAIL
  6
CONTINUOUS
 62
     5
 10
-8.4999990000000007
 20
-87.764056999999994
 30
0.0
 11
-8.4999990000000007
 21
-83.999993000000003
 31
0.0
  0
ARC
  8
DETAIL
  6
CONTINUOUS
 62
     5
 10
-9.5000039999999988
 20
-82.827924999999993
 30
0.0
 40
2.0
 50
284.79376400000001
 51
300.00014599999997
  0
LINE
  8
SIZE
  6
CONTINUOUS
 62
    30
 10
0.0
 20
77.509676999999996
 30
0.0
 11
0.0
 21
418.344987
 31
0.0
  0
LINE
  8
SIZE
  6
CONTINUOUS
 62
    30
 10
-80.499995999999996
 20
86.108231000000004
 30
0.0
 11
-80.499995999999996
 21
418.344987
 31
0.0
  0
LINE
  8
SIZE
  6
CONTINUOUS
 62
    30
 10
-12.0
 20
398.344987
 30
0.0
 11
-68.499995999999996
 21
398.344987
 31
0.0
  0
CIRCLE
  8
SIZE
  6
CONTINUOUS
 62
    30
 10
0.0
 20
398.344987
 30
0.0
 40
6.0
  0
LINE
  8
SIZE
  6
CONTINUOUS
 62
    30
 10
0.0
 20
398.344987
 30
0.0
 11
-12.0
 21
398.344987
 31
0.0
  0
CIRCLE
  8
SIZE
  6
CONTINUOUS
 62
    30
 10
-80.499995999999996
 20
398.344987
 30
0.0
 40
6.0
  0
LINE
  8
SIZE
  6
CONTINUOUS
 62
    30
 10
-80.499995999999996
 20
398.344987
 30
0.0
 11
-68.499995999999996
 21
398.344987
 31
0.0
  0
TEXT
  8
SIZE
  6
CONTINUOUS
 62
    30
 10
-128.02142657142861
 20
423.344987
 30
0.0
 40
64.0
  1
80.5
 41
0.9
 72
     1
 11
-40.249997999999998
 21
423.344987
 31
0.0
  0
POINT
  8
DEFPOINTS
  6
CONTINUOUS
 62
    30
 10
0.0
 20
57.509677000000003
 30
0.0
  0
POINT
  8
DEFPOINTS
  6
CONTINUOUS
 62
    30
 10
-80.499995999999996
 20
66.108231000000004
 30
0.0
  0
POINT
  8
DEFPOINTS
  6
CONTINUOUS
 62
    30
 10
-80.499995999999996
 20
398.344987
 30
0.0
  0
ENDSEC
  0
EOF
