  0
SECTION
  2
HEADER
  9
$ACADVER
  1
AC1009
  9
$INSBASE
 10
0.0
 20
0.0
 30
0.0
  9
$EXTMIN
 10
-497.3296069999999
 20
-392.183852
 30
0.0
  9
$EXTMAX
 10
613.56919530855293
 20
599.70901335666713
 30
50.0
  9
$LIMMIN
 10
-2970.0
 20
-2100.0
  9
$LIMMAX
 10
2970.0
 20
2100.0
  9
$ORTHOMODE
 70
     1
  9
$REGENMODE
 70
     1
  9
$FILLMODE
 70
     1
  9
$QTEXTMODE
 70
     0
  9
$MIRRTEXT
 70
     0
  9
$DRAGMODE
 70
     2
  9
$LTSCALE
 40
20.0
  9
$OSMODE
 70
    37
  9
$ATTMODE
 70
     1
  9
$TEXTSIZE
 40
64.0
  9
$TRACEWID
 40
0.05
  9
$TEXTSTYLE
  7
STANDARD
  9
$CLAYER
  8
NOTE
  9
$CELTYPE
  6
CONTINUOUS
  9
$CECOLOR
 62
     7
  9
$DIMSCALE
 40
1.0
  9
$DIMASZ
 40
12.0
  9
$DIMEXO
 40
20.0
  9
$DIMDLI
 40
200.0
  9
$DIMRND
 40
0.0
  9
$DIMDLE
 40
0.0
  9
$DIMEXE
 40
20.0
  9
$DIMTP
 40
0.0
  9
$DIMTM
 40
0.0
  9
$DIMTXT
 40
64.0
  9
$DIMCEN
 40
0.09
  9
$DIMTSZ
 40
0.0
  9
$DIMTOL
 70
     0
  9
$DIMLIM
 70
     0
  9
$DIMTIH
 70
     0
  9
$DIMTOH
 70
     0
  9
$DIMSE1
 70
     0
  9
$DIMSE2
 70
     0
  9
$DIMTAD
 70
     1
  9
$DIMZIN
 70
     8
  9
$DIMBLK
  1
DOT1
  9
$DIMASO
 70
     1
  9
$DIMSHO
 70
     0
  9
$DIMPOST
  1

  9
$DIMAPOST
  1

  9
$DIMALT
 70
     0
  9
$DIMALTD
 70
     2
  9
$DIMALTF
 40
25.399999999999999
  9
$DIMLFAC
 40
1.0
  9
$DIMTOFL
 70
     1
  9
$DIMTVP
 40
0.0
  9
$DIMTIX
 70
     1
  9
$DIMSOXD
 70
     0
  9
$DIMSAH
 70
     1
  9
$DIMBLK1
  1
ORIGIN
  9
$DIMBLK2
  1
ORIGIN
  9
$DIMSTYLE
  2
STANDARD
  9
$DIMCLRD
 70
     7
  9
$DIMCLRE
 70
     7
  9
$DIMCLRT
 70
     7
  9
$DIMTFAC
 40
1.0
  9
$DIMGAP
 40
25.0
  9
$LUNITS
 70
     2
  9
$LUPREC
 70
     4
  9
$SKETCHINC
 40
0.1
  9
$FILLETRAD
 40
3.0
  9
$AUNITS
 70
     1
  9
$AUPREC
 70
     3
  9
$MENU
  1
ACAD
  9
$ELEVATION
 40
0.0
  9
$PELEVATION
 40
0.0
  9
$THICKNESS
 40
50.0
  9
$LIMCHECK
 70
     0
  9
$BLIPMODE
 70
     0
  9
$CHAMFERA
 40
0.0
  9
$CHAMFERB
 40
0.0
  9
$SKPOLY
 70
     0
  9
$TDCREATE
 40
2453019.6230103709
  9
$TDUPDATE
 40
2454963.6168188201
  9
$TDINDWG
 40
1.6928038657
  9
$TDUSRTIMER
 40
1.6928036921
  9
$USRTIMER
 70
     1
  9
$ANGBASE
 50
0.0
  9
$ANGDIR
 70
     0
  9
$PDMODE
 70
     3
  9
$PDSIZE
 40
-2.0
  9
$PLINEWID
 40
0.0
  9
$COORDS
 70
     0
  9
$SPLFRAME
 70
     0
  9
$SPLINETYPE
 70
     6
  9
$SPLINESEGS
 70
     8
  9
$ATTDIA
 70
     0
  9
$ATTREQ
 70
     1
  9
$HANDLING
 70
     1
  9
$HANDSEED
  5
3CD
  9
$SURFTAB1
 70
     6
  9
$SURFTAB2
 70
     6
  9
$SURFTYPE
 70
     6
  9
$SURFU
 70
     6
  9
$SURFV
 70
     6
  9
$UCSNAME
  2

  9
$UCSORG
 10
0.0
 20
0.0
 30
0.0
  9
$UCSXDIR
 10
1.0
 20
0.0
 30
0.0
  9
$UCSYDIR
 10
0.0
 20
1.0
 30
0.0
  9
$PUCSNAME
  2

  9
$PUCSORG
 10
0.0
 20
0.0
 30
0.0
  9
$PUCSXDIR
 10
1.0
 20
0.0
 30
0.0
  9
$PUCSYDIR
 10
0.0
 20
1.0
 30
0.0
  9
$USERI1
 70
     0
  9
$USERI2
 70
     0
  9
$USERI3
 70
     0
  9
$USERI4
 70
     0
  9
$USERI5
 70
     0
  9
$USERR1
 40
20.0
  9
$USERR2
 40
0.0
  9
$USERR3
 40
0.0
  9
$USERR4
 40
0.0
  9
$USERR5
 40
0.0
  9
$WORLDVIEW
 70
     1
  9
$SHADEDGE
 70
     3
  9
$SHADEDIF
 70
    70
  9
$TILEMODE
 70
     1
  9
$MAXACTVP
 70
    48
  9
$PLIMCHECK
 70
     0
  9
$PEXTMIN
 10
-1.0000000000000000E+020
 20
-1.0000000000000000E+020
 30
-1.0000000000000000E+020
  9
$PEXTMAX
 10
1.0000000000000000E+020
 20
1.0000000000000000E+020
 30
1.0000000000000000E+020
  9
$PLIMMIN
 10
0.0
 20
0.0
  9
$PLIMMAX
 10
12.0
 20
9.0
  9
$UNITMODE
 70
     0
  9
$VISRETAIN
 70
     0
  9
$PLINEGEN
 70
     0
  9
$PSLTSCALE
 70
     0
  0
ENDSEC
  0
SECTION
  2
TABLES
  0
TABLE
  2
VPORT
 70
     1
  0
VPORT
  2
*ACTIVE
 70
     0
 10
0.0
 20
0.0
 11
1.0
 21
1.0
 12
233.9348103227959
 22
116.05181530696341
 13
0.0
 23
0.0
 14
1.0
 24
1.0
 15
0.0
 25
0.0
 16
0.0
 26
0.0
 36
1.0
 17
0.0
 27
0.0
 37
0.0
 40
1258.4686180256281
 41
1.3098995695839311
 42
50.0
 43
0.0
 44
0.0
 50
0.0
 51
0.0
 71
     0
 72
  1000
 73
     1
 74
     0
 75
     0
 76
     0
 77
     0
 78
     0
  0
ENDTAB
  0
TABLE
  2
LTYPE
 70
     3
  0
LTYPE
  2
CONTINUOUS
 70
     0
  3
Ä└É³
 72
    65
 73
     0
 40
0.0
  0
LTYPE
  2
DASHDOT
 70
     0
  3
____ _ ____ _ ____ _ ____ _ ____ _ ____ _ ____
 72
    65
 73
     4
 40
5.5
 49
4.0
 49
-0.6
 49
0.3
 49
-0.6
  0
ENDTAB
  0
TABLE
  2
LAYER
 70
    12
  0
LAYER
  2
0
 70
     0
 62
     7
  6
CONTINUOUS
  0
LAYER
  2
NOTE
 70
     0
 62
     4
  6
CONTINUOUS
  0
LAYER
  2
BASIS
 70
     0
 62
     6
  6
DASHDOT
  0
LAYER
  2
OUTLINE
 70
     0
 62
     3
  6
CONTINUOUS
  0
LAYER
  2
DETAIL
 70
     0
 62
     5
  6
CONTINUOUS
  0
LAYER
  2
SIZE
 70
     0
 62
    30
  6
CONTINUOUS
  0
LAYER
  2
ARRANGE
 70
     0
 62
     1
  6
CONTINUOUS
  0
LAYER
  2
DEFPOINTS
 70
     0
 62
     7
  6
CONTINUOUS
  0
LAYER
  2
ETC
 70
     0
 62
    61
  6
CONTINUOUS
  0
LAYER
  2
FIX
 70
     0
 62
    11
  6
CONTINUOUS
  0
LAYER
  2
SERVICESPACE
 70
     0
 62
     2
  6
DASHDOT
  0
LAYER
  2
SYMBOLLINE
 70
     0
 62
    15
  6
CONTINUOUS
  0
ENDTAB
  0
TABLE
  2
STYLE
 70
     2
  0
STYLE
  2
STANDARD
 70
     0
 40
64.0
 41
0.9
 50
0.0
 71
     0
 42
64.0
  3
SIMPLEX.shx
  4
BIGFONT.shx
  0
STYLE
  2
ANNOTATIVE
 70
     0
 40
0.0
 41
1.0
 50
0.0
 71
     0
 42
0.2
  3
txt
  4

  0
ENDTAB
  0
TABLE
  2
VIEW
 70
     1
  0
VIEW
  2
ALL
 70
     0
 40
4282.6198079999986
 10
0.0
 20
41.309903999999989
 41
5940.0
 11
0.0
 21
0.0
 31
1.0
 12
0.0
 22
0.0
 32
0.0
 42
50.0
 43
0.0
 44
0.0
 50
0.0
 71
     0
  0
ENDTAB
  0
TABLE
  2
UCS
 70
     0
  0
ENDTAB
  0
TABLE
  2
APPID
 70
    17
  0
APPID
  2
ACAD
 70
     0
  0
APPID
  2
ACADANNOTATIVE
 70
     0
  0
APPID
  2
ACAD_MLEADERVER
 70
     0
  0
APPID
  2
AUTOCAD_POSTSCRIPT_FIGURE
 70
     0
  0
APPID
  2
ACAD_EXEMPT_FROM_CAD_STANDARDS
 70
     0
  0
APPID
  2
ACAD_PSEXT
 70
     0
  0
APPID
  2
ACAUTHENVIRON
 70
     0
  0
APPID
  2
GENIUS_GENOENT_13
 70
     0
  0
APPID
  2
GENIUS_GENCFG_13
 70
     0
  0
APPID
  2
GENIUS_GENCFG0_13
 70
     0
  0
APPID
  2
GENIUS_GENCFG1_13
 70
     0
  0
APPID
  2
GENIUS_GENCFG2_13
 70
     0
  0
APPID
  2
GENIUS_GENCFG3_13
 70
     0
  0
APPID
  2
GENIUS_GENCFG4_13
 70
     0
  0
APPID
  2
GENIUS_GEVCFG0_13
 70
     0
  0
APPID
  2
CONTENTBLOCKICON
 70
     0
  0
APPID
  2
CONTENTBLOCKDESCRIPTION
 70
     0
  0
ENDTAB
  0
TABLE
  2
DIMSTYLE
 70
     2
  0
DIMSTYLE
  2
STANDARD
 70
     0
  3

  4

  5

  6

  7

 40
1.0
 41
0.18
 42
0.0625
 43
0.38
 44
0.18
 45
0.0
 46
0.0
 47
0.0
 48
0.0
140
0.18
141
0.09
142
0.0
143
25.399999999999999
144
1.0
145
0.0
146
1.0
147
0.09
 71
     0
 72
     0
 73
     1
 74
     1
 75
     0
 76
     0
 77
     0
 78
     0
170
     0
171
     2
172
     0
173
     0
174
     0
175
     0
176
     7
177
     7
178
     7
  0
DIMSTYLE
  2
ANNOTATIVE
 70
     0
  3

  4

  5

  6

  7

 40
1.0
 41
0.18
 42
0.0625
 43
0.38
 44
0.18
 45
0.0
 46
0.0
 47
0.0
 48
0.0
140
0.18
141
0.09
142
0.0
143
25.399999999999999
144
1.0
145
0.0
146
1.0
147
0.09
 71
     0
 72
     0
 73
     1
 74
     1
 75
     0
 76
     0
 77
     0
 78
     0
170
     0
171
     2
172
     0
173
     0
174
     0
175
     0
176
     0
177
     0
178
     0
  0
ENDTAB
  0
ENDSEC
  0
SECTION
  2
BLOCKS
  0
BLOCK
  8
0
  2
$MODEL_SPACE
 70
     0
 10
0.0
 20
0.0
 30
0.0
  3
$MODEL_SPACE
  1

  0
ENDBLK
  5
76
  8
0
  0
BLOCK
 67
     1
  8
0
  2
$PAPER_SPACE
 70
     0
 10
0.0
 20
0.0
 30
0.0
  3
$PAPER_SPACE
  1

  0
ENDBLK
  5
72
 67
     1
  8
0
  0
BLOCK
  8
0
  2
DOT1
 70
     0
 10
0.0
 20
0.0
 30
0.0
  3
DOT1
  1

  0
CIRCLE
  5
99
  8
SIZE
  6
CONTINUOUS
 62
     7
 10
0.0
 20
0.0
 30
0.0
 40
3.0
  0
ENDBLK
  5
9A
  8
0
  0
BLOCK
  8
0
  2
_ORIGIN
 70
     0
 10
0.0
 20
0.0
 30
0.0
  3
_ORIGIN
  1

  0
CIRCLE
  5
9D
  8
0
  6
CONTINUOUS
 62
     7
 10
0.0
 20
0.0
 30
0.0
 40
0.5
  0
LINE
  5
9E
  8
0
  6
CONTINUOUS
 62
     7
 10
0.0
 20
0.0
 30
0.0
 11
-1.0
 21
0.0
 31
0.0
  0
ENDBLK
  5
9F
  8
0
  0
ENDSEC
  0
SECTION
  2
ENTITIES
  0
CIRCLE
  5
A3
  8
ARRANGE
  6
CONTINUOUS
 62
     1
 10
0.0
 20
0.0
 30
0.0
 40
40.0
  0
POINT
  5
A4
  8
ARRANGE
  6
CONTINUOUS
 62
     1
 10
0.0
 20
0.0
 30
0.0
 39
50.0
  0
LINE
  5
A5
  8
BASIS
  6
DASHDOT
 62
     6
 39
50.0
 10
-48.767209000000001
 20
0.0
 30
0.0
 11
90.282520000000005
 21
0.0
 31
0.0
  0
LINE
  5
A6
  8
NOTE
  6
CONTINUOUS
 62
     4
 39
50.0
 10
0.0
 20
6.0
 30
0.0
 11
-145.74510599999999
 21
293.44029799999998
 31
0.0
  0
LINE
  5
A7
  8
NOTE
  6
CONTINUOUS
 62
     4
 39
50.0
 10
-145.74510599999999
 20
293.44029799999998
 30
0.0
 11
-434.77572399999991
 21
293.44029799999998
 31
0.0
  0
TEXT
  5
A8
  8
NOTE
  6
CONTINUOUS
 62
     4
 10
-414.71788399999991
 20
311.24141700000001
 30
0.0
 40
40.0
  1
2-âË4ü~10
 41
0.9
  0
LINE
  5
A9
  8
BASIS
  6
DASHDOT
 62
     6
 10
6.0
 20
-70.0
 30
0.0
 11
-5.0
 21
-70.0
 31
0.0
  0
LINE
  5
AA
  8
BASIS
  6
DASHDOT
 62
     6
 10
5.0
 20
70.0
 30
0.0
 11
-6.0
 21
70.0
 31
0.0
  0
LINE
  5
AB
  8
BASIS
  6
DASHDOT
 62
     6
 10
6.0
 20
6.0
 30
0.0
 11
-5.0
 21
6.0
 31
0.0
  0
LINE
  5
AC
  8
NOTE
  6
CONTINUOUS
 62
     4
 39
50.0
 10
0.0
 20
6.0
 30
0.0
 11
-2.4706039999999998
 21
26.908111000000002
 31
0.0
  0
LINE
  5
AD
  8
NOTE
  6
CONTINUOUS
 62
     4
 39
50.0
 10
0.0
 20
6.0
 30
0.0
 11
-15.881612000000001
 21
20.797422000000001
 31
0.0
  0
LINE
  5
AE
  8
NOTE
  6
CONTINUOUS
 62
     4
 39
50.0
 10
-145.74510599999999
 20
-392.183852
 30
0.0
 11
-329.82189399999999
 21
-392.183852
 31
0.0
  0
TEXT
  5
AF
  8
NOTE
  6
CONTINUOUS
 62
     4
 10
-306.97324700000001
 20
-374.38273299999997
 30
0.0
 40
40.0
  1
âË5ü~7
 41
0.9
  0
LINE
  5
B0
  8
NOTE
  6
CONTINUOUS
 62
     4
 39
50.0
 10
0.0
 20
-70.0
 30
0.0
 11
-145.74510599999999
 21
-392.183852
 31
0.0
  0
LINE
  5
B1
  8
NOTE
  6
CONTINUOUS
 62
     4
 39
50.0
 10
0.0
 20
-70.0
 30
0.0
 11
-4.4703179999999989
 21
-97.52190800000001
 31
0.0
  0
LINE
  5
B2
  8
NOTE
  6
CONTINUOUS
 62
     4
 39
50.0
 10
0.0
 20
-70.0
 30
0.0
 11
-18.437905000000001
 21
-89.907157999999995
 31
0.0
  0
LINE
  5
B3
  8
DETAIL
  6
CONTINUOUS
 62
     5
 10
84.499659999999992
 20
23.317895
 30
0.0
 11
84.499659999999992
 21
-20.300384999999999
 31
0.0
  0
LINE
  5
B4
  8
DETAIL
  6
CONTINUOUS
 62
     5
 10
58.499659999999999
 20
-31.800554999999999
 30
0.0
 11
58.499659999999999
 21
9.8994450000000001
 31
0.0
  0
LINE
  5
B5
  8
DETAIL
  6
CONTINUOUS
 62
     5
 10
57.89965999999999
 20
23.615310000000001
 30
0.0
 11
57.89965999999999
 21
-31.300274999999999
 31
0.0
  0
LINE
  5
B6
  8
DETAIL
  6
CONTINUOUS
 62
     5
 10
57.09966
 20
-31.273057999999999
 30
0.0
 11
57.09966
 21
13.345958
 31
0.0
  0
LINE
  5
B7
  8
DETAIL
  6
CONTINUOUS
 62
     5
 10
56.299659999999989
 20
-31.284933000000009
 30
0.0
 11
56.299659999999989
 21
13.099947
 31
0.0
  0
LINE
  5
B8
  8
DETAIL
  6
CONTINUOUS
 62
     5
 10
39.499600000000001
 20
-45.523527999999999
 30
0.0
 11
39.499727
 21
9.8752849999999999
 31
0.0
  0
LINE
  5
B9
  8
DETAIL
  6
CONTINUOUS
 62
     5
 10
0.0
 20
79.49091700000001
 30
0.0
 11
0.0
 21
-79.492024999999998
 31
0.0
  0
LINE
  5
BA
  8
DETAIL
  6
CONTINUOUS
 62
     5
 10
-29.775355000000001
 20
-0.000618
 30
0.0
 11
-29.486065
 21
-32.286850000000001
 31
0.0
  0
LINE
  5
BB
  8
DETAIL
  6
CONTINUOUS
 62
     5
 10
-29.825223000000001
 20
-0.000618
 30
0.0
 11
-29.535933
 21
-32.286850000000001
 31
0.0
  0
LINE
  5
BC
  8
DETAIL
  6
CONTINUOUS
 62
     5
 10
-29.868839999999999
 20
-0.000618
 30
0.0
 11
-29.579550000000001
 21
-32.286850000000001
 31
0.0
  0
LINE
  5
BD
  8
DETAIL
  6
CONTINUOUS
 62
     5
 10
-29.906205
 20
-0.000618
 30
0.0
 11
-29.616914999999999
 21
-32.286850000000001
 31
0.0
  0
LINE
  5
BE
  8
DETAIL
  6
CONTINUOUS
 62
     5
 10
-29.937322000000002
 20
-0.000618
 30
0.0
 11
-29.648033000000002
 21
-32.286850000000001
 31
0.0
  0
LINE
  5
BF
  8
DETAIL
  6
CONTINUOUS
 62
     5
 10
-29.962188000000001
 20
-0.000618
 30
0.0
 11
-29.672897999999989
 21
-32.286850000000001
 31
0.0
  0
LINE
  5
C0
  8
DETAIL
  6
CONTINUOUS
 62
     5
 10
-29.980803000000002
 20
-0.000618
 30
0.0
 11
-29.691513
 21
-32.286850000000001
 31
0.0
  0
LINE
  5
C1
  8
DETAIL
  6
CONTINUOUS
 62
     5
 10
-29.993169999999999
 20
-0.000618
 30
0.0
 11
-29.703880000000002
 21
-32.286850000000001
 31
0.0
  0
LINE
  5
C2
  8
DETAIL
  6
CONTINUOUS
 62
     5
 10
-29.999285
 20
-0.000618
 30
0.0
 11
-29.709994999999999
 21
-32.286850000000001
 31
0.0
  0
LINE
  5
C3
  8
DETAIL
  6
CONTINUOUS
 62
     5
 10
55.804021999999989
 20
-47.358268000000002
 30
0.0
 11
0.0
 21
-47.845261999999998
 31
0.0
  0
LINE
  5
C4
  8
DETAIL
  6
CONTINUOUS
 62
     5
 10
-29.486065
 20
-32.286850000000001
 30
0.0
 11
-28.618288
 21
-64.562709999999996
 31
0.0
  0
LINE
  5
C5
  8
DETAIL
  6
CONTINUOUS
 62
     5
 10
-29.535933
 20
-32.286850000000001
 30
0.0
 11
-28.668153000000011
 21
-64.562709999999996
 31
0.0
  0
LINE
  5
C6
  8
DETAIL
  6
CONTINUOUS
 62
     5
 10
-29.579550000000001
 20
-32.286850000000001
 30
0.0
 11
-28.711770000000001
 21
-64.562709999999996
 31
0.0
  0
LINE
  5
C7
  8
DETAIL
  6
CONTINUOUS
 62
     5
 10
-29.616914999999999
 20
-32.286850000000001
 30
0.0
 11
-28.749137999999999
 21
-64.562709999999996
 31
0.0
  0
LINE
  5
C8
  8
DETAIL
  6
CONTINUOUS
 62
     5
 10
-29.648033000000002
 20
-32.286850000000001
 30
0.0
 11
-28.780252999999998
 21
-64.562709999999996
 31
0.0
  0
LINE
  5
C9
  8
DETAIL
  6
CONTINUOUS
 62
     5
 10
-29.672897999999989
 20
-32.286850000000001
 30
0.0
 11
-28.805119999999999
 21
-64.562709999999996
 31
0.0
  0
LINE
  5
CA
  8
DETAIL
  6
CONTINUOUS
 62
     5
 10
-29.691513
 20
-32.286850000000001
 30
0.0
 11
-28.823734999999999
 21
-64.562709999999996
 31
0.0
  0
LINE
  5
CB
  8
DETAIL
  6
CONTINUOUS
 62
     5
 10
-29.703880000000002
 20
-32.286850000000001
 30
0.0
 11
-28.836099999999998
 21
-64.562709999999996
 31
0.0
  0
LINE
  5
CC
  8
DETAIL
  6
CONTINUOUS
 62
     5
 10
-29.709994999999999
 20
-32.286850000000001
 30
0.0
 11
-28.842217999999999
 21
-64.562709999999996
 31
0.0
  0
LINE
  5
CD
  8
DETAIL
  6
CONTINUOUS
 62
     5
 10
-0.508728
 20
-79.991947999999994
 30
0.0
 11
-24.009585000000001
 21
-79.581739999999996
 31
0.0
  0
ARC
  5
CE
  8
DETAIL
  6
CONTINUOUS
 62
     5
 10
-23.931049999999999
 20
-75.082425000000001
 30
0.0
 40
4.5
 50
182.394215
 51
269.0
  0
LINE
  5
CF
  8
DETAIL
  6
CONTINUOUS
 62
     5
 10
-28.711404999999999
 20
-68.132227999999998
 30
0.0
 11
-28.842932999999999
 21
-64.562712000000005
 31
0.0
  0
LINE
  5
D0
  8
DETAIL
  6
CONTINUOUS
 62
     5
 10
-28.427123000000002
 20
-75.270409999999998
 30
0.0
 11
-28.572800000000001
 21
-71.701464999999999
 31
0.0
  0
LINE
  5
D1
  8
DETAIL
  6
CONTINUOUS
 62
     5
 10
-28.572800000000001
 20
-71.701464999999999
 30
0.0
 11
-28.711404999999999
 21
-68.132227999999998
 31
0.0
  0
ARC
  5
D2
  8
DETAIL
  6
CONTINUOUS
 62
     5
 10
-28.593093
 20
-64.553753
 30
0.0
 40
0.25
 50
178.26869099999999
 51
182.05346299999999
  0
LINE
  5
D3
  8
DETAIL
  6
CONTINUOUS
 62
     5
 10
-28.842932999999999
 20
-64.562712000000005
 30
0.0
 11
-28.836099999999998
 21
-64.562709999999996
 31
0.0
  0
LINE
  5
D4
  8
DETAIL
  6
CONTINUOUS
 62
     5
 10
-28.66601
 20
-64.562709999999996
 30
0.0
 11
-28.659718000000002
 21
-64.500782000000001
 31
0.0
  0
LINE
  5
D5
  8
DETAIL
  6
CONTINUOUS
 62
     5
 10
-28.709913
 20
-64.562709999999996
 30
0.0
 11
-28.703723
 21
-64.500782000000001
 31
0.0
  0
LINE
  5
D6
  8
DETAIL
  6
CONTINUOUS
 62
     5
 10
-28.747565000000002
 20
-64.562709999999996
 30
0.0
 11
-28.741478000000011
 21
-64.500782000000001
 31
0.0
  0
LINE
  5
D7
  8
DETAIL
  6
CONTINUOUS
 62
     5
 10
-28.778967999999999
 20
-64.562709999999996
 30
0.0
 11
-28.772983
 21
-64.500782000000001
 31
0.0
  0
LINE
  5
D8
  8
DETAIL
  6
CONTINUOUS
 62
     5
 10
-28.804120000000001
 20
-64.562709999999996
 30
0.0
 11
-28.798238000000001
 21
-64.500782000000001
 31
0.0
  0
LINE
  5
D9
  8
DETAIL
  6
CONTINUOUS
 62
     5
 10
-28.82302
 20
-64.562709999999996
 30
0.0
 11
-28.817243000000001
 21
-64.500782000000001
 31
0.0
  0
LINE
  5
DA
  8
DETAIL
  6
CONTINUOUS
 62
     5
 10
-28.835673
 20
-64.562709999999996
 30
0.0
 11
-28.829998
 21
-64.500782000000001
 31
0.0
  0
LINE
  5
DB
  8
DETAIL
  6
CONTINUOUS
 62
     5
 10
-28.842072999999999
 20
-64.562709999999996
 30
0.0
 11
-28.837145
 21
-64.507919999999984
 31
0.0
  0
LINE
  5
DC
  8
DETAIL
  6
CONTINUOUS
 62
     5
 10
-28.835773
 20
-64.558927999999995
 30
0.0
 11
-28.836099999999998
 21
-64.562709999999996
 31
0.0
  0
LINE
  5
DD
  8
DETAIL
  6
CONTINUOUS
 62
     5
 10
-28.622395000000001
 20
-64.409930000000003
 30
0.0
 11
-28.639579999999999
 21
-64.444599999999994
 31
0.0
  0
LINE
  5
DE
  8
DETAIL
  6
CONTINUOUS
 62
     5
 10
-28.671968
 20
-64.420900000000003
 30
0.0
 11
-28.683675000000001
 21
-64.444587999999996
 31
0.0
  0
LINE
  5
DF
  8
DETAIL
  6
CONTINUOUS
 62
     5
 10
-28.715288000000001
 20
-64.431927000000002
 30
0.0
 11
-28.721518
 21
-64.444568000000004
 31
0.0
  0
LINE
  5
E0
  8
DETAIL
  6
CONTINUOUS
 62
     5
 10
-28.659718000000002
 20
-64.500782000000001
 30
0.0
 11
-28.639579999999999
 21
-64.444599999999994
 31
0.0
  0
LINE
  5
E1
  8
DETAIL
  6
CONTINUOUS
 62
     5
 10
-28.703723
 20
-64.500782000000001
 30
0.0
 11
-28.683682999999998
 21
-64.444603000000001
 31
0.0
  0
LINE
  5
E2
  8
DETAIL
  6
CONTINUOUS
 62
     5
 10
-28.741478000000011
 20
-64.500782000000001
 30
0.0
 11
-28.721532
 21
-64.444603000000001
 31
0.0
  0
LINE
  5
E3
  8
DETAIL
  6
CONTINUOUS
 62
     5
 10
-28.772983
 20
-64.500782000000001
 30
0.0
 11
-28.753135
 21
-64.444603000000001
 31
0.0
  0
LINE
  5
E4
  8
DETAIL
  6
CONTINUOUS
 62
     5
 10
-28.798238000000001
 20
-64.500782000000001
 30
0.0
 11
-28.783078
 21
-64.457660000000004
 31
0.0
  0
LINE
  5
E5
  8
DETAIL
  6
CONTINUOUS
 62
     5
 10
-28.817243000000001
 20
-64.500782000000001
 30
0.0
 11
-28.80753
 21
-64.473022999999998
 31
0.0
  0
LINE
  5
E6
  8
DETAIL
  6
CONTINUOUS
 62
     5
 10
-28.829998
 20
-64.500782000000001
 30
0.0
 11
-28.82573
 21
-64.488523000000001
 31
0.0
  0
ARC
  5
E7
  8
DETAIL
  6
CONTINUOUS
 62
     5
 10
-12.579402999999999
 20
-80.281330000000025
 30
0.0
 40
0.5
 50
1.0
 51
89.0
  0
ARC
  5
E8
  8
DETAIL
  6
CONTINUOUS
 62
     5
 10
-9.4215630000000008
 20
-80.336449999999985
 30
0.0
 40
0.5
 50
89.0
 51
179.0
  0
ARC
  5
E9
  8
DETAIL
  6
CONTINUOUS
 62
     5
 10
-11.508653000000001
 20
-84.325824999999995
 30
0.0
 40
0.5
 50
181.0004879999999
 51
270.0
  0
ARC
  5
EA
  8
DETAIL
  6
CONTINUOUS
 62
     5
 10
-10.491350000000001
 20
-84.325824999999995
 30
0.0
 40
0.5
 50
270.0
 51
358.99962799999997
  0
LINE
  5
EB
  8
DETAIL
  6
CONTINUOUS
 62
     5
 10
-11.508653000000001
 20
-84.825828000000016
 30
0.0
 11
-10.491350000000001
 21
-84.825828000000016
 31
0.0
  0
LINE
  5
EC
  8
DETAIL
  6
CONTINUOUS
 62
     5
 10
-9.9214850000000006
 20
-80.327725000000001
 30
0.0
 11
-9.9914249999999996
 21
-84.334554999999995
 31
0.0
  0
LINE
  5
ED
  8
DETAIL
  6
CONTINUOUS
 62
     5
 10
-12.079478
 20
-80.272604999999999
 30
0.0
 11
-12.008575
 21
-84.334554999999995
 31
0.0
  0
ARC
  5
EE
  8
DETAIL
  6
CONTINUOUS
 62
     5
 10
-0.5
 20
-79.492024999999998
 30
0.0
 40
0.5
 50
269.0
 51
0.0
  0
LINE
  5
EF
  8
DETAIL
  6
CONTINUOUS
 62
     5
 10
-0.6
 20
-79.990355000000008
 30
0.0
 11
-0.6
 21
-80.000555000000006
 31
0.0
  0
LINE
  5
F0
  8
DETAIL
  6
CONTINUOUS
 62
     5
 10
58.999659999999999
 20
-22.900555000000001
 30
0.0
 11
81.899659999999997
 21
-22.900555000000001
 31
0.0
  0
LINE
  5
F1
  8
DETAIL
  6
CONTINUOUS
 62
     5
 10
58.499659999999999
 20
-23.800554999999999
 30
0.0
 11
59.429784999999988
 21
-23.800554999999999
 31
0.0
  0
LINE
  5
F2
  8
DETAIL
  6
CONTINUOUS
 62
     5
 10
58.499659999999999
 20
-31.800554999999999
 30
0.0
 11
59.429784999999988
 21
-31.800554999999999
 31
0.0
  0
ARC
  5
F3
  8
DETAIL
  6
CONTINUOUS
 62
     5
 10
47.299660000000003
 20
-28.643001999999999
 30
0.0
 40
3.0
 50
180.0
 51
242.96473599999999
  0
LINE
  5
F4
  8
DETAIL
  6
CONTINUOUS
 62
     5
 10
39.729484999999997
 20
-44.123175000000003
 30
0.0
 11
39.505200000000002
 21
-44.048825000000001
 31
0.0
  0
LINE
  5
F5
  8
DETAIL
  6
CONTINUOUS
 62
     5
 10
39.505200000000002
 20
-44.048825000000001
 30
0.0
 11
39.499600000000001
 21
-44.046593000000001
 31
0.0
  0
LINE
  5
F6
  8
DETAIL
  6
CONTINUOUS
 62
     5
 10
39.499600000000001
 20
-45.523519999999991
 30
0.0
 11
39.499582000000011
 21
-45.519269999999999
 31
0.0
  0
LINE
  5
F7
  8
DETAIL
  6
CONTINUOUS
 62
     5
 10
56.299659999999989
 20
-46.8583
 30
0.0
 11
56.299659999999989
 21
-32.343814999999999
 31
0.0
  0
LINE
  5
F8
  8
DETAIL
  6
CONTINUOUS
 62
     5
 10
47.299660000000003
 20
-33.541967999999997
 30
0.0
 11
47.299660000000003
 21
-42.948148000000003
 31
0.0
  0
LINE
  5
F9
  8
DETAIL
  6
CONTINUOUS
 62
     5
 10
49.583909999999989
 20
-44.612199999999987
 30
0.0
 11
46.499270000000003
 21
-44.573129999999999
 31
0.0
  0
LINE
  5
FA
  8
DETAIL
  6
CONTINUOUS
 62
     5
 10
46.499270000000003
 20
-44.573129999999999
 30
0.0
 11
43.535032000000001
 21
-44.529376999999997
 31
0.0
  0
LINE
  5
FB
  8
DETAIL
  6
CONTINUOUS
 62
     5
 10
41.439821999999992
 20
-44.422575000000002
 30
0.0
 11
41.009883000000002
 21
-44.375073
 31
0.0
  0
LINE
  5
FC
  8
DETAIL
  6
CONTINUOUS
 62
     5
 10
41.919349999999987
 20
-44.462674999999997
 30
0.0
 11
41.439821999999992
 21
-44.422575000000002
 31
0.0
  0
LINE
  5
FD
  8
DETAIL
  6
CONTINUOUS
 62
     5
 10
42.450225000000003
 20
-44.494706999999998
 30
0.0
 11
41.919349999999987
 21
-44.462674999999997
 31
0.0
  0
LINE
  5
FE
  8
DETAIL
  6
CONTINUOUS
 62
     5
 10
43.033415000000012
 20
-44.517887999999999
 30
0.0
 11
42.450225000000003
 21
-44.494706999999998
 31
0.0
  0
LINE
  5
FF
  8
DETAIL
  6
CONTINUOUS
 62
     5
 10
43.535037000000003
 20
-44.529376999999997
 30
0.0
 11
43.033415000000012
 21
-44.517887999999999
 31
0.0
  0
LINE
  5
100
  8
DETAIL
  6
CONTINUOUS
 62
     5
 10
40.626821999999997
 20
-44.320762999999999
 30
0.0
 11
40.287596999999998
 21
-44.260179999999998
 31
0.0
  0
LINE
  5
101
  8
DETAIL
  6
CONTINUOUS
 62
     5
 10
41.009883000000002
 20
-44.375073
 30
0.0
 11
40.626821999999997
 21
-44.320762999999999
 31
0.0
  0
LINE
  5
102
  8
DETAIL
  6
CONTINUOUS
 62
     5
 10
39.989191999999989
 20
-44.19398799999999
 30
0.0
 11
39.729484999999997
 21
-44.123175000000003
 31
0.0
  0
LINE
  5
103
  8
DETAIL
  6
CONTINUOUS
 62
     5
 10
40.287596999999998
 20
-44.260179999999998
 30
0.0
 11
39.989191999999989
 21
-44.19398799999999
 31
0.0
  0
LINE
  5
104
  8
DETAIL
  6
CONTINUOUS
 62
     5
 10
47.282524999999993
 20
-43.211123000000001
 30
0.0
 11
47.197404999999989
 21
-43.581189999999999
 31
0.0
  0
LINE
  5
105
  8
DETAIL
  6
CONTINUOUS
 62
     5
 10
47.299664999999997
 20
-42.949857999999999
 30
0.0
 11
47.282524999999993
 21
-43.211123000000001
 31
0.0
  0
LINE
  5
106
  8
DETAIL
  6
CONTINUOUS
 62
     5
 10
47.043869999999991
 20
-43.9285
 30
0.0
 11
46.827455
 21
-44.240532000000002
 31
0.0
  0
LINE
  5
107
  8
DETAIL
  6
CONTINUOUS
 62
     5
 10
47.197404999999989
 20
-43.581189999999999
 30
0.0
 11
47.043869999999991
 21
-43.9285
 31
0.0
  0
LINE
  5
108
  8
DETAIL
  6
CONTINUOUS
 62
     5
 10
46.555965
 20
-44.50603499999999
 30
0.0
 11
46.455441999999991
 21
-44.572485
 31
0.0
  0
LINE
  5
109
  8
DETAIL
  6
CONTINUOUS
 62
     5
 10
46.827455
 20
-44.240532000000002
 30
0.0
 11
46.555965
 21
-44.50603499999999
 31
0.0
  0
LINE
  5
10A
  8
DETAIL
  6
CONTINUOUS
 62
     5
 10
54.710000000000001
 20
-44.629640000000002
 30
0.0
 11
53.869681999999997
 21
-44.642800000000001
 31
0.0
  0
LINE
  5
10B
  8
DETAIL
  6
CONTINUOUS
 62
     5
 10
52.969115000000002
 20
-44.6462
 30
0.0
 11
49.583909999999989
 21
-44.612199999999987
 31
0.0
  0
LINE
  5
10C
  8
DETAIL
  6
CONTINUOUS
 62
     5
 10
53.624282000000001
 20
-44.645038
 30
0.0
 11
52.536367000000013
 21
-44.646202000000002
 31
0.0
  0
LINE
  5
10D
  8
DETAIL
  6
CONTINUOUS
 62
     5
 10
53.869681999999997
 20
-44.642800000000001
 30
0.0
 11
53.511386999999992
 21
-44.645625000000003
 31
0.0
  0
ARC
  5
10E
  8
DETAIL
  6
CONTINUOUS
 62
     5
 10
55.799659999999989
 20
-46.858286999999997
 30
0.0
 40
0.5
 50
270.5
 51
0.0
  0
LINE
  5
10F
  8
DETAIL
  6
CONTINUOUS
 62
     5
 10
55.793109999999999
 20
-44.600023
 30
0.0
 11
54.710000000000001
 21
-44.629640000000002
 31
0.0
  0
ARC
  5
110
  8
DETAIL
  6
CONTINUOUS
 62
     5
 10
44.799660000000003
 20
-33.541980000000002
 30
0.0
 40
2.5
 50
0.0
 51
62.964308000000003
  0
ARC
  5
111
  8
DETAIL
  6
CONTINUOUS
 62
     5
 10
56.549659999999989
 20
-31.777048000000001
 30
0.0
 40
0.75
 50
270.0
 51
90.0
  0
LINE
  5
112
  8
DETAIL
  6
CONTINUOUS
 62
     5
 10
56.299659999999989
 20
-31.027047
 30
0.0
 11
56.549659999999989
 21
-31.027047
 31
0.0
  0
LINE
  5
113
  8
DETAIL
  6
CONTINUOUS
 62
     5
 10
57.127156999999997
 20
-31.300554999999999
 30
0.0
 11
58.499659999999999
 21
-31.300554999999999
 31
0.0
  0
LINE
  5
114
  8
DETAIL
  6
CONTINUOUS
 62
     5
 10
56.299659999999989
 20
-32.527048000000001
 30
0.0
 11
56.549659999999989
 21
-32.527048000000001
 31
0.0
  0
LINE
  5
115
  8
DETAIL
  6
CONTINUOUS
 62
     5
 10
56.239130000000003
 20
-31.950520000000001
 30
0.0
 11
56.256749999999997
 21
-32.061790000000009
 31
0.0
  0
LINE
  5
116
  8
DETAIL
  6
CONTINUOUS
 62
     5
 10
56.276561999999998
 20
-32.165759999999999
 30
0.0
 11
56.292850000000001
 21
-32.260443000000002
 31
0.0
  0
LINE
  5
117
  8
DETAIL
  6
CONTINUOUS
 62
     5
 10
56.256749999999997
 20
-32.061790000000009
 30
0.0
 11
56.276561999999998
 21
-32.165759999999999
 31
0.0
  0
LINE
  5
118
  8
DETAIL
  6
CONTINUOUS
 62
     5
 10
56.230739999999997
 20
-31.777048000000001
 30
0.0
 11
56.231282
 21
-31.86383
 31
0.0
  0
LINE
  5
119
  8
DETAIL
  6
CONTINUOUS
 62
     5
 10
56.292850000000001
 20
-32.260443000000002
 30
0.0
 11
56.299659999999989
 21
-32.343814999999999
 31
0.0
  0
LINE
  5
11A
  8
DETAIL
  6
CONTINUOUS
 62
     5
 10
56.231282
 20
-31.86383
 30
0.0
 11
56.239130000000003
 21
-31.950520000000001
 31
0.0
  0
LINE
  5
11B
  8
DETAIL
  6
CONTINUOUS
 62
     5
 10
56.290326999999998
 20
-31.389443
 30
0.0
 11
56.244194999999998
 21
-31.640542
 31
0.0
  0
LINE
  5
11C
  8
DETAIL
  6
CONTINUOUS
 62
     5
 10
56.244194999999998
 20
-31.640542
 30
0.0
 11
56.230739999999997
 21
-31.777048000000001
 31
0.0
  0
LINE
  5
11D
  8
DETAIL
  6
CONTINUOUS
 62
     5
 10
56.299659999999989
 20
-31.284933000000009
 30
0.0
 11
56.290326999999998
 21
-31.389443
 31
0.0
  0
ARC
  5
11E
  8
DETAIL
  6
CONTINUOUS
 62
     5
 10
44.799660000000003
 20
-17.130324999999999
 30
0.0
 40
7.5
 50
224.89261300000001
 51
250.52875800000001
  0
ARC
  5
11F
  8
DETAIL
  6
CONTINUOUS
 62
     5
 10
41.299659999999989
 20
-27.029820000000001
 30
0.0
 40
3.0
 50
0.250154
 51
70.528831999999994
  0
LINE
  5
120
  8
DETAIL
  6
CONTINUOUS
 62
     5
 10
44.299659999999989
 20
-28.643001999999999
 30
0.0
 11
44.299659999999989
 21
-27.016687999999998
 31
0.0
  0
ARC
  5
121
  8
DETAIL
  6
CONTINUOUS
 62
     5
 10
58.999659999999999
 20
-23.400555000000001
 30
0.0
 40
0.5
 50
90.0
 51
162.0
  0
LINE
  5
122
  8
DETAIL
  6
CONTINUOUS
 62
     5
 10
57.09966
 20
-16.03032
 30
0.0
 11
56.299659999999989
 21
-16.03032
 31
0.0
  0
LINE
  5
123
  8
DETAIL
  6
CONTINUOUS
 62
     5
 10
57.09966
 20
-7.4545070000000004
 30
0.0
 11
56.299659999999989
 21
-7.4545070000000004
 31
0.0
  0
ARC
  5
124
  8
DETAIL
  6
CONTINUOUS
 62
     5
 10
55.09966
 20
-27.800554999999999
 30
0.0
 40
6.4565849999999987
 50
339.340193
 51
353.32943699999998
  0
ARC
  5
125
  8
DETAIL
  6
CONTINUOUS
 62
     5
 10
59.429784999999988
 20
-30.300554999999999
 30
0.0
 40
1.5
 50
270.0
 51
330.0
  0
LINE
  5
126
  8
DETAIL
  6
CONTINUOUS
 62
     5
 10
61.141031999999988
 20
-30.078558000000001
 30
0.0
 11
61.179111999999989
 21
-30.100542000000001
 31
0.0
  0
LINE
  5
127
  8
DETAIL
  6
CONTINUOUS
 62
     5
 10
60.728825000000001
 20
-31.050554999999999
 30
0.0
 11
61.174881999999997
 21
-30.111757999999998
 31
0.0
  0
ARC
  5
128
  8
DETAIL
  6
CONTINUOUS
 62
     5
 10
59.429784999999988
 20
-25.300554999999999
 30
0.0
 40
1.5
 50
30.0
 51
90.0
  0
ARC
  5
129
  8
DETAIL
  6
CONTINUOUS
 62
     5
 10
55.09966
 20
-27.800554999999999
 30
0.0
 40
6.4565849999999987
 50
6.6705629999999996
 51
20.659807000000001
  0
LINE
  5
12A
  8
DETAIL
  6
CONTINUOUS
 62
     5
 10
61.512537000000002
 20
-27.050554999999999
 30
0.0
 11
61.141031999999988
 21
-27.050554999999999
 31
0.0
  0
LINE
  5
12B
  8
DETAIL
  6
CONTINUOUS
 62
     5
 10
61.512537000000002
 20
-28.550554999999999
 30
0.0
 11
61.141031999999988
 21
-28.550554999999999
 31
0.0
  0
LINE
  5
12C
  8
DETAIL
  6
CONTINUOUS
 62
     5
 10
60.728825000000001
 20
-24.550554999999999
 30
0.0
 11
61.174881999999997
 21
-25.489350000000002
 31
0.0
  0
LINE
  5
12D
  8
DETAIL
  6
CONTINUOUS
 62
     5
 10
61.141031999999988
 20
-28.550554999999999
 30
0.0
 11
61.169691999999998
 21
-28.174372999999999
 31
0.0
  0
LINE
  5
12E
  8
DETAIL
  6
CONTINUOUS
 62
     5
 10
61.169691999999998
 20
-28.174372999999999
 30
0.0
 11
61.179132000000003
 21
-27.800554999999999
 31
0.0
  0
LINE
  5
12F
  8
DETAIL
  6
CONTINUOUS
 62
     5
 10
61.179132000000003
 20
-27.800554999999999
 30
0.0
 11
61.169584999999991
 21
-27.424624999999999
 31
0.0
  0
LINE
  5
130
  8
DETAIL
  6
CONTINUOUS
 62
     5
 10
61.169584999999991
 20
-27.424624999999999
 30
0.0
 11
61.141031999999988
 21
-27.050554999999999
 31
0.0
  0
LINE
  5
131
  8
DETAIL
  6
CONTINUOUS
 62
     5
 10
61.179111999999989
 20
-25.500565000000002
 30
0.0
 11
61.141031999999988
 21
-25.522549999999999
 31
0.0
  0
ARC
  5
132
  8
DETAIL
  6
CONTINUOUS
 62
     5
 10
81.899659999999997
 20
-20.300554999999999
 30
0.0
 40
2.6000000000000001
 50
270.0
 51
0.0
  0
LINE
  5
133
  8
DETAIL
  6
CONTINUOUS
 62
     5
 10
43.369472000000002
 20
51.448371999999999
 30
0.0
 11
0.0
 21
51.826852000000002
 31
0.0
  0
LINE
  5
134
  8
DETAIL
  6
CONTINUOUS
 62
     5
 10
50.916975000000001
 20
48.870707000000003
 30
0.0
 11
0.0
 21
49.371896999999997
 31
0.0
  0
LINE
  5
135
  8
DETAIL
  6
CONTINUOUS
 62
     5
 10
39.300221999999998
 20
47.501187000000002
 30
0.0
 11
0.0
 21
47.844155000000001
 31
0.0
  0
LINE
  5
136
  8
DETAIL
  6
CONTINUOUS
 62
     5
 10
50.485827
 20
19.411515000000001
 30
0.0
 11
0.0
 21
20.014150000000001
 31
0.0
  0
LINE
  5
137
  8
DETAIL
  6
CONTINUOUS
 62
     5
 10
50.485565000000001
 20
25.213705000000001
 30
0.0
 11
0.0
 21
25.790254999999998
 31
0.0
  0
LINE
  5
138
  8
DETAIL
  6
CONTINUOUS
 62
     5
 10
52.758611999999999
 20
23.368839999999999
 30
0.0
 11
0.0
 21
23.172432000000001
 31
0.0
  0
LINE
  5
139
  8
DETAIL
  6
CONTINUOUS
 62
     5
 10
52.905074999999997
 20
17.507687000000001
 30
0.0
 11
0.0
 21
17.283086999999998
 31
0.0
  0
LINE
  5
13A
  8
DETAIL
  6
CONTINUOUS
 62
     5
 10
-28.618288
 20
64.561602000000008
 30
0.0
 11
-29.486068
 21
32.285580000000003
 31
0.0
  0
LINE
  5
13B
  8
DETAIL
  6
CONTINUOUS
 62
     5
 10
-28.668153000000011
 20
64.561602000000008
 30
0.0
 11
-29.535934999999998
 21
32.285580000000003
 31
0.0
  0
LINE
  5
13C
  8
DETAIL
  6
CONTINUOUS
 62
     5
 10
-28.711770000000001
 20
64.561602000000008
 30
0.0
 11
-29.579553000000001
 21
32.285580000000003
 31
0.0
  0
LINE
  5
13D
  8
DETAIL
  6
CONTINUOUS
 62
     5
 10
-28.749137999999999
 20
64.561602000000008
 30
0.0
 11
-29.616917999999998
 21
32.285580000000003
 31
0.0
  0
LINE
  5
13E
  8
DETAIL
  6
CONTINUOUS
 62
     5
 10
-28.780252999999998
 20
64.561602000000008
 30
0.0
 11
-29.648035
 21
32.285580000000003
 31
0.0
  0
LINE
  5
13F
  8
DETAIL
  6
CONTINUOUS
 62
     5
 10
-28.805119999999999
 20
64.561602000000008
 30
0.0
 11
-29.672899999999998
 21
32.285580000000003
 31
0.0
  0
LINE
  5
140
  8
DETAIL
  6
CONTINUOUS
 62
     5
 10
-28.823734999999999
 20
64.561602000000008
 30
0.0
 11
-29.691514999999999
 21
32.285580000000003
 31
0.0
  0
LINE
  5
141
  8
DETAIL
  6
CONTINUOUS
 62
     5
 10
-28.836099999999998
 20
64.561602000000008
 30
0.0
 11
-29.703883000000001
 21
32.285580000000003
 31
0.0
  0
LINE
  5
142
  8
DETAIL
  6
CONTINUOUS
 62
     5
 10
-28.842217999999999
 20
64.561602000000008
 30
0.0
 11
-29.709997999999999
 21
32.285580000000003
 31
0.0
  0
LINE
  5
143
  8
DETAIL
  6
CONTINUOUS
 62
     5
 10
-29.486068
 20
32.285580000000003
 30
0.0
 11
-29.775355000000001
 21
-0.000618
 31
0.0
  0
LINE
  5
144
  8
DETAIL
  6
CONTINUOUS
 62
     5
 10
-29.535934999999998
 20
32.285580000000003
 30
0.0
 11
-29.825223000000001
 21
-0.000618
 31
0.0
  0
LINE
  5
145
  8
DETAIL
  6
CONTINUOUS
 62
     5
 10
-29.579553000000001
 20
32.285580000000003
 30
0.0
 11
-29.868839999999999
 21
-0.000618
 31
0.0
  0
LINE
  5
146
  8
DETAIL
  6
CONTINUOUS
 62
     5
 10
-29.616917999999998
 20
32.285580000000003
 30
0.0
 11
-29.906205
 21
-0.000618
 31
0.0
  0
LINE
  5
147
  8
DETAIL
  6
CONTINUOUS
 62
     5
 10
-29.648035
 20
32.285580000000003
 30
0.0
 11
-29.937322000000002
 21
-0.000618
 31
0.0
  0
LINE
  5
148
  8
DETAIL
  6
CONTINUOUS
 62
     5
 10
-29.672899999999998
 20
32.285580000000003
 30
0.0
 11
-29.962188000000001
 21
-0.000618
 31
0.0
  0
LINE
  5
149
  8
DETAIL
  6
CONTINUOUS
 62
     5
 10
-29.691514999999999
 20
32.285580000000003
 30
0.0
 11
-29.980803000000002
 21
-0.000618
 31
0.0
  0
LINE
  5
14A
  8
DETAIL
  6
CONTINUOUS
 62
     5
 10
-29.703883000000001
 20
32.285580000000003
 30
0.0
 11
-29.993169999999999
 21
-0.000618
 31
0.0
  0
LINE
  5
14B
  8
DETAIL
  6
CONTINUOUS
 62
     5
 10
-29.709997999999999
 20
32.285580000000003
 30
0.0
 11
-29.999285
 21
-0.000618
 31
0.0
  0
LINE
  5
14C
  8
DETAIL
  6
CONTINUOUS
 62
     5
 10
-24.009585000000001
 20
79.580632999999992
 30
0.0
 11
-0.508728
 21
79.990840000000006
 31
0.0
  0
LINE
  5
14D
  8
DETAIL
  6
CONTINUOUS
 62
     5
 10
-28.711404999999999
 20
68.131119999999996
 30
0.0
 11
-28.572800000000001
 21
71.700355000000002
 31
0.0
  0
LINE
  5
14E
  8
DETAIL
  6
CONTINUOUS
 62
     5
 10
-28.837145
 20
64.506812999999994
 30
0.0
 11
-28.841328000000011
 21
64.553309999999996
 31
0.0
  0
LINE
  5
14F
  8
DETAIL
  6
CONTINUOUS
 62
     5
 10
-28.829998
 20
64.499674999999996
 30
0.0
 11
-28.835673
 21
64.561602000000008
 31
0.0
  0
LINE
  5
150
  8
DETAIL
  6
CONTINUOUS
 62
     5
 10
-28.817243000000001
 20
64.499674999999996
 30
0.0
 11
-28.82302
 21
64.561602000000008
 31
0.0
  0
LINE
  5
151
  8
DETAIL
  6
CONTINUOUS
 62
     5
 10
-28.798238000000001
 20
64.499674999999996
 30
0.0
 11
-28.804120000000001
 21
64.561602000000008
 31
0.0
  0
LINE
  5
152
  8
DETAIL
  6
CONTINUOUS
 62
     5
 10
-28.772983
 20
64.499674999999996
 30
0.0
 11
-28.778967999999999
 21
64.561602000000008
 31
0.0
  0
LINE
  5
153
  8
DETAIL
  6
CONTINUOUS
 62
     5
 10
-28.741478000000011
 20
64.499674999999996
 30
0.0
 11
-28.747565000000002
 21
64.561602000000008
 31
0.0
  0
LINE
  5
154
  8
DETAIL
  6
CONTINUOUS
 62
     5
 10
-28.703723
 20
64.499674999999996
 30
0.0
 11
-28.709913
 21
64.561602000000008
 31
0.0
  0
LINE
  5
155
  8
DETAIL
  6
CONTINUOUS
 62
     5
 10
-28.659718000000002
 20
64.499674999999996
 30
0.0
 11
-28.66601
 21
64.561602000000008
 31
0.0
  0
LINE
  5
156
  8
DETAIL
  6
CONTINUOUS
 62
     5
 10
-28.721518
 20
64.443460000000002
 30
0.0
 11
-28.715288000000001
 21
64.430819999999997
 31
0.0
  0
LINE
  5
157
  8
DETAIL
  6
CONTINUOUS
 62
     5
 10
-28.683675000000001
 20
64.443480000000008
 30
0.0
 11
-28.671968
 21
64.419792000000001
 31
0.0
  0
LINE
  5
158
  8
DETAIL
  6
CONTINUOUS
 62
     5
 10
-28.639579999999999
 20
64.443492000000006
 30
0.0
 11
-28.622395000000001
 21
64.408819999999992
 31
0.0
  0
LINE
  5
159
  8
DETAIL
  6
CONTINUOUS
 62
     5
 10
-28.82573
 20
64.487414999999999
 30
0.0
 11
-28.829998
 21
64.499674999999996
 31
0.0
  0
LINE
  5
15A
  8
DETAIL
  6
CONTINUOUS
 62
     5
 10
-28.80753
 20
64.471913000000001
 30
0.0
 11
-28.817243000000001
 21
64.499674999999996
 31
0.0
  0
LINE
  5
15B
  8
DETAIL
  6
CONTINUOUS
 62
     5
 10
-28.783078
 20
64.456552000000002
 30
0.0
 11
-28.798238000000001
 21
64.499674999999996
 31
0.0
  0
LINE
  5
15C
  8
DETAIL
  6
CONTINUOUS
 62
     5
 10
-28.753135
 20
64.443494999999999
 30
0.0
 11
-28.772983
 21
64.499674999999996
 31
0.0
  0
LINE
  5
15D
  8
DETAIL
  6
CONTINUOUS
 62
     5
 10
-28.721532
 20
64.443492000000006
 30
0.0
 11
-28.741478000000011
 21
64.499674999999996
 31
0.0
  0
LINE
  5
15E
  8
DETAIL
  6
CONTINUOUS
 62
     5
 10
-28.683682999999998
 20
64.443492000000006
 30
0.0
 11
-28.703723
 21
64.499674999999996
 31
0.0
  0
LINE
  5
15F
  8
DETAIL
  6
CONTINUOUS
 62
     5
 10
-28.639579999999999
 20
64.443492000000006
 30
0.0
 11
-28.659718000000002
 21
64.499674999999996
 31
0.0
  0
LINE
  5
160
  8
DETAIL
  6
CONTINUOUS
 62
     5
 10
-28.836099999999998
 20
64.561602000000008
 30
0.0
 11
-28.842752999999998
 21
64.561602000000008
 31
0.0
  0
LINE
  5
161
  8
DETAIL
  6
CONTINUOUS
 62
     5
 10
-28.836099999999998
 20
64.561602000000008
 30
0.0
 11
-28.835773
 21
64.557819999999992
 31
0.0
  0
LINE
  5
162
  8
DETAIL
  6
CONTINUOUS
 62
     5
 10
-28.842932999999999
 20
64.561602000000008
 30
0.0
 11
-28.711404999999999
 21
68.131119999999996
 31
0.0
  0
ARC
  5
163
  8
DETAIL
  6
CONTINUOUS
 62
     5
 10
-23.931049999999999
 20
75.081316999999984
 30
0.0
 40
4.5
 50
91.0
 51
177.605785
  0
LINE
  5
164
  8
DETAIL
  6
CONTINUOUS
 62
     5
 10
-28.572800000000001
 20
71.700355000000002
 30
0.0
 11
-28.427123000000002
 21
75.269302999999994
 31
0.0
  0
LINE
  5
165
  8
DETAIL
  6
CONTINUOUS
 62
     5
 10
-3.5087280000000001
 20
94.990840000000006
 30
0.0
 11
-3.5087280000000001
 21
79.938474999999997
 31
0.0
  0
LINE
  5
166
  8
DETAIL
  6
CONTINUOUS
 62
     5
 10
-0.508728
 20
94.990840000000006
 30
0.0
 11
-0.508728
 21
79.990840000000006
 31
0.0
  0
ARC
  5
167
  8
DETAIL
  6
CONTINUOUS
 62
     5
 10
-0.5
 20
79.49091700000001
 30
0.0
 40
0.5
 50
0.0
 51
91.0
  0
ARC
  5
168
  8
DETAIL
  6
CONTINUOUS
 62
     5
 10
-2.7587280000000001
 20
96.289878000000002
 30
0.0
 40
1.5
 50
240.0
 51
300.0
  0
ARC
  5
169
  8
DETAIL
  6
CONTINUOUS
 62
     5
 10
-1.2587280000000001
 20
93.691803000000007
 30
0.0
 40
1.5
 50
60.0
 51
120.0
  0
LINE
  5
16A
  8
DETAIL
  6
CONTINUOUS
 62
     5
 10
-0.008728
 20
152.48859999999999
 30
0.0
 11
-0.008728
 21
143.48859999999999
 31
0.0
  0
LINE
  5
16B
  8
DETAIL
  6
CONTINUOUS
 62
     5
 10
-27.11534
 20
151.1386
 30
0.0
 11
-27.11534
 21
144.83860000000001
 31
0.0
  0
ARC
  5
16C
  8
DETAIL
  6
CONTINUOUS
 62
     5
 10
-22.008728000000001
 20
147.98859999999999
 30
0.0
 40
6.0
 50
148.33175700000001
 51
211.66824299999999
  0
LINE
  5
16D
  8
DETAIL
  6
CONTINUOUS
 62
     5
 10
4.9912720000000004
 20
152.60969800000001
 30
0.0
 11
4.9912720000000004
 21
143.367503
 31
0.0
  0
LINE
  5
16E
  8
DETAIL
  6
CONTINUOUS
 62
     5
 10
-11.008728
 20
155.48859999999999
 30
0.0
 11
-11.008728
 21
140.48859999999999
 31
0.0
  0
LINE
  5
16F
  8
DETAIL
  6
CONTINUOUS
 62
     5
 10
-27.11534
 20
144.83860000000001
 30
0.0
 11
-11.008728
 21
144.83860000000001
 31
0.0
  0
ARC
  5
170
  8
DETAIL
  6
CONTINUOUS
 62
     5
 10
-4.5641030000000002
 20
120.98860000000001
 30
0.0
 40
0.5
 50
186.70983699999999
 51
270.0
  0
ARC
  5
171
  8
DETAIL
  6
CONTINUOUS
 62
     5
 10
0.5466470000000001
 20
120.98860000000001
 30
0.0
 40
0.5
 50
270.0
 51
353.29016300000001
  0
LINE
  5
172
  8
DETAIL
  6
CONTINUOUS
 62
     5
 10
-3.5087280000000001
 20
120.48860000000001
 30
0.0
 11
-3.5087280000000001
 21
99.990840000000006
 31
0.0
  0
LINE
  5
173
  8
DETAIL
  6
CONTINUOUS
 62
     5
 10
-0.508728
 20
120.48860000000001
 30
0.0
 11
-0.508728
 21
99.990840000000006
 31
0.0
  0
ARC
  5
174
  8
DETAIL
  6
CONTINUOUS
 62
     5
 10
-2.7587280000000001
 20
101.289878
 30
0.0
 40
1.5
 50
240.0
 51
300.0
  0
ARC
  5
175
  8
DETAIL
  6
CONTINUOUS
 62
     5
 10
-1.2587280000000001
 20
98.691803000000007
 30
0.0
 40
1.5
 50
60.0
 51
120.0
  0
LINE
  5
176
  8
DETAIL
  6
CONTINUOUS
 62
     5
 10
-4.5641030000000002
 20
120.48860000000001
 30
0.0
 11
0.5466470000000001
 21
120.48860000000001
 31
0.0
  0
LINE
  5
177
  8
DETAIL
  6
CONTINUOUS
 62
     5
 10
-2.0087280000000001
 20
132.98859999999999
 30
0.0
 11
2.4618599999999988
 21
132.98859999999999
 31
0.0
  0
LINE
  5
178
  8
DETAIL
  6
CONTINUOUS
 62
     5
 10
-2.0087280000000001
 20
131.48859999999999
 30
0.0
 11
2.28539
 21
131.48859999999999
 31
0.0
  0
LINE
  5
179
  8
DETAIL
  6
CONTINUOUS
 62
     5
 10
-2.0087280000000001
 20
126.98860000000001
 30
0.0
 11
1.755979999999999
 21
126.98860000000001
 31
0.0
  0
LINE
  5
17A
  8
DETAIL
  6
CONTINUOUS
 62
     5
 10
-2.0087280000000001
 20
125.48860000000001
 30
0.0
 11
1.5795069999999991
 21
125.48860000000001
 31
0.0
  0
LINE
  5
17B
  8
DETAIL
  6
CONTINUOUS
 62
     5
 10
-7.0087279999999987
 20
137.48859999999999
 30
0.0
 11
2.9912719999999999
 21
137.48859999999999
 31
0.0
  0
LINE
  5
17C
  8
DETAIL
  6
CONTINUOUS
 62
     5
 10
3.116029999999999
 20
141.371398
 30
0.0
 11
-11.008728
 21
140.48859999999999
 31
0.0
  0
LINE
  5
17D
  8
DETAIL
  6
CONTINUOUS
 62
     5
 10
-7.0087279999999987
 20
137.48859999999999
 30
0.0
 11
-5.0606780000000002
 21
120.93017999999999
 31
0.0
  0
ARC
  5
17E
  8
DETAIL
  6
CONTINUOUS
 62
     5
 10
-2.0087280000000001
 20
126.23860000000001
 30
0.0
 40
0.75
 50
90.0
 51
270.0
  0
LINE
  5
17F
  8
DETAIL
  6
CONTINUOUS
 62
     5
 10
-1.0087280000000001
 20
126.98860000000001
 30
0.0
 11
-1.0087280000000001
 21
125.48860000000001
 31
0.0
  0
LINE
  5
180
  8
DETAIL
  6
CONTINUOUS
 62
     5
 10
-5.4204929999999996
 20
123.98860000000001
 30
0.0
 11
-2.0087280000000001
 21
123.98860000000001
 31
0.0
  0
LINE
  5
181
  8
DETAIL
  6
CONTINUOUS
 62
     5
 10
-5.244019999999999
 20
122.48860000000001
 30
0.0
 11
-2.0087280000000001
 21
122.48860000000001
 31
0.0
  0
ARC
  5
182
  8
DETAIL
  6
CONTINUOUS
 62
     5
 10
-2.0087280000000001
 20
123.23860000000001
 30
0.0
 40
0.75
 50
270.0
 51
90.0
  0
LINE
  5
183
  8
DETAIL
  6
CONTINUOUS
 62
     5
 10
-3.0087280000000001
 20
123.98860000000001
 30
0.0
 11
-3.0087280000000001
 21
122.48860000000001
 31
0.0
  0
LINE
  5
184
  8
DETAIL
  6
CONTINUOUS
 62
     5
 10
-6.1263750000000003
 20
129.98859999999999
 30
0.0
 11
-2.0087280000000001
 21
129.98859999999999
 31
0.0
  0
LINE
  5
185
  8
DETAIL
  6
CONTINUOUS
 62
     5
 10
-5.9499029999999991
 20
128.48859999999999
 30
0.0
 11
-2.0087280000000001
 21
128.48859999999999
 31
0.0
  0
ARC
  5
186
  8
DETAIL
  6
CONTINUOUS
 62
     5
 10
-2.0087280000000001
 20
129.23859999999999
 30
0.0
 40
0.75
 50
270.0
 51
90.0
  0
ARC
  5
187
  8
DETAIL
  6
CONTINUOUS
 62
     5
 10
-2.0087280000000001
 20
132.23859999999999
 30
0.0
 40
0.75
 50
90.0
 51
270.0
  0
LINE
  5
188
  8
DETAIL
  6
CONTINUOUS
 62
     5
 10
-3.0087280000000001
 20
129.98859999999999
 30
0.0
 11
-3.0087280000000001
 21
128.48859999999999
 31
0.0
  0
LINE
  5
189
  8
DETAIL
  6
CONTINUOUS
 62
     5
 10
-1.0087280000000001
 20
132.98859999999999
 30
0.0
 11
-1.0087280000000001
 21
131.48859999999999
 31
0.0
  0
LINE
  5
18A
  8
DETAIL
  6
CONTINUOUS
 62
     5
 10
-11.008728
 20
143.48859999999999
 30
0.0
 11
-0.008728
 21
143.48859999999999
 31
0.0
  0
LINE
  5
18B
  8
DETAIL
  6
CONTINUOUS
 62
     5
 10
-7.0087279999999987
 20
139.67415
 30
0.0
 11
-7.0087279999999987
 21
137.48859999999999
 31
0.0
  0
LINE
  5
18C
  8
DETAIL
  6
CONTINUOUS
 62
     5
 10
-6.8322580000000004
 20
135.98859999999999
 30
0.0
 11
-2.0087280000000001
 21
135.98859999999999
 31
0.0
  0
LINE
  5
18D
  8
DETAIL
  6
CONTINUOUS
 62
     5
 10
-6.6557849999999998
 20
134.48859999999999
 30
0.0
 11
-2.0087280000000001
 21
134.48859999999999
 31
0.0
  0
ARC
  5
18E
  8
DETAIL
  6
CONTINUOUS
 62
     5
 10
-2.0087280000000001
 20
135.23859999999999
 30
0.0
 40
0.75
 50
270.0
 51
90.0
  0
LINE
  5
18F
  8
DETAIL
  6
CONTINUOUS
 62
     5
 10
-3.0087280000000001
 20
135.98859999999999
 30
0.0
 11
-3.0087280000000001
 21
134.48859999999999
 31
0.0
  0
ARC
  5
190
  8
DETAIL
  6
CONTINUOUS
 62
     5
 10
-8.0087279999999996
 20
139.67415
 30
0.0
 40
1.0
 50
0.0
 51
93.576334000000003
  0
LINE
  5
191
  8
DETAIL
  6
CONTINUOUS
 62
     5
 10
2.9912719999999999
 20
137.48859999999999
 30
0.0
 11
1.043221999999999
 21
120.93017999999999
 31
0.0
  0
LINE
  5
192
  8
DETAIL
  6
CONTINUOUS
 62
     5
 10
2.9912719999999999
 20
140.539075
 30
0.0
 11
2.9912719999999999
 21
137.48859999999999
 31
0.0
  0
ARC
  5
193
  8
DETAIL
  6
CONTINUOUS
 62
     5
 10
3.9912719999999999
 20
140.539075
 30
0.0
 40
1.0
 50
109.471221
 51
180.0
  0
ARC
  5
194
  8
DETAIL
  6
CONTINUOUS
 62
     5
 10
2.9912719999999999
 20
143.367503
 30
0.0
 40
2.0
 50
273.57633399999997
 51
0.0
  0
LINE
  5
195
  8
DETAIL
  6
CONTINUOUS
 62
     5
 10
-27.11534
 20
151.1386
 30
0.0
 11
-11.008728
 21
151.1386
 31
0.0
  0
CIRCLE
  5
196
  8
DETAIL
  6
CONTINUOUS
 62
     5
 10
-22.708728000000001
 20
147.98859999999999
 30
0.0
 40
1.95
  0
CIRCLE
  5
197
  8
DETAIL
  6
CONTINUOUS
 62
     5
 10
-22.708728000000001
 20
147.98859999999999
 30
0.0
 40
1.55
  0
LINE
  5
198
  8
DETAIL
  6
CONTINUOUS
 62
     5
 10
-11.008728
 20
155.48859999999999
 30
0.0
 11
3.116029999999999
 21
154.60580300000001
 31
0.0
  0
LINE
  5
199
  8
DETAIL
  6
CONTINUOUS
 62
     5
 10
-11.008728
 20
152.48859999999999
 30
0.0
 11
-0.008728
 21
152.48859999999999
 31
0.0
  0
ARC
  5
19A
  8
DETAIL
  6
CONTINUOUS
 62
     5
 10
2.9912719999999999
 20
152.60969800000001
 30
0.0
 40
2.0
 50
0.0
 51
86.423665999999997
  0
ARC
  5
19B
  8
DETAIL
  6
CONTINUOUS
 62
     5
 10
53.299659999999989
 20
39.059202999999997
 30
0.0
 40
8.0
 50
0.0
 51
67.975686999999994
  0
LINE
  5
19C
  8
DETAIL
  6
CONTINUOUS
 62
     5
 10
56.299659999999989
 20
26.415521999999999
 30
0.0
 11
56.299659999999989
 21
46.491486999999999
 31
0.0
  0
LINE
  5
19D
  8
DETAIL
  6
CONTINUOUS
 62
     5
 10
39.499600000000001
 20
30.789208000000009
 30
0.0
 11
39.499600000000001
 21
46.966676999999997
 31
0.0
  0
LINE
  5
19E
  8
DETAIL
  6
CONTINUOUS
 62
     5
 10
58.614567999999998
 20
22.299444999999999
 30
0.0
 11
61.59966
 21
22.299444999999999
 31
0.0
  0
LINE
  5
19F
  8
DETAIL
  6
CONTINUOUS
 62
     5
 10
58.999659999999999
 20
22.119147999999999
 30
0.0
 11
66.399659999999997
 21
22.119147999999999
 31
0.0
  0
LINE
  5
1A0
  8
DETAIL
  6
CONTINUOUS
 62
     5
 10
58.499659999999999
 20
17.899445
 30
0.0
 11
59.429784999999988
 21
17.899445
 31
0.0
  0
LINE
  5
1A1
  8
DETAIL
  6
CONTINUOUS
 62
     5
 10
58.499659999999999
 20
9.8994450000000001
 30
0.0
 11
59.429784999999988
 21
9.8994450000000001
 31
0.0
  0
LINE
  5
1A2
  8
DETAIL
  6
CONTINUOUS
 62
     5
 10
65.79328000000001
 20
26.537455000000001
 30
0.0
 11
55.970675
 21
26.411275
 31
0.0
  0
LINE
  5
1A3
  8
DETAIL
  6
CONTINUOUS
 62
     5
 10
56.299659999999989
 20
23.592198
 30
0.0
 11
66.399659999999997
 21
23.737939999999998
 31
0.0
  0
LINE
  5
1A4
  8
DETAIL
  6
CONTINUOUS
 62
     5
 10
55.482206999999988
 20
25.845224999999999
 30
0.0
 11
66.399659999999997
 21
26.035789999999999
 31
0.0
  0
LINE
  5
1A5
  8
DETAIL
  6
CONTINUOUS
 62
     5
 10
58.499659999999999
 20
9.9752799999999997
 30
0.0
 11
58.499659999999999
 21
23.181664999999999
 31
0.0
  0
LINE
  5
1A6
  8
DETAIL
  6
CONTINUOUS
 62
     5
 10
57.09966
 20
23.603753000000001
 30
0.0
 11
57.09966
 21
17.173017000000002
 31
0.0
  0
LINE
  5
1A7
  8
DETAIL
  6
CONTINUOUS
 62
     5
 10
56.299659999999989
 20
13.58222
 30
0.0
 11
56.299659999999989
 21
24.511842000000001
 31
0.0
  0
LINE
  5
1A8
  8
DETAIL
  6
CONTINUOUS
 62
     5
 10
39.522199999999998
 20
10.247854999999999
 30
0.0
 11
39.601391999999997
 21
10.680928
 31
0.0
  0
LINE
  5
1A9
  8
DETAIL
  6
CONTINUOUS
 62
     5
 10
39.499727
 20
9.8752849999999999
 30
0.0
 11
39.522199999999998
 21
10.247854999999999
 31
0.0
  0
LINE
  5
1AA
  8
DETAIL
  6
CONTINUOUS
 62
     5
 10
39.499727
 20
9.8752849999999999
 30
0.0
 11
39.499887000000001
 21
9.8957019999999982
 31
0.0
  0
LINE
  5
1AB
  8
DETAIL
  6
CONTINUOUS
 62
     5
 10
43.608462000000003
 20
13.975742
 30
0.0
 11
49.550221999999998
 21
14.949757
 31
0.0
  0
LINE
  5
1AC
  8
DETAIL
  6
CONTINUOUS
 62
     5
 10
43.001306999999997
 20
13.838123
 30
0.0
 11
43.60846699999999
 21
13.975714999999999
 31
0.0
  0
LINE
  5
1AD
  8
DETAIL
  6
CONTINUOUS
 62
     5
 10
42.296427000000001
 20
13.576902
 30
0.0
 11
43.001306999999997
 21
13.838123
 31
0.0
  0
LINE
  5
1AE
  8
DETAIL
  6
CONTINUOUS
 62
     5
 10
41.625171999999992
 20
13.208995
 30
0.0
 11
42.296427000000001
 21
13.576902
 31
0.0
  0
LINE
  5
1AF
  8
DETAIL
  6
CONTINUOUS
 62
     5
 10
40.997824999999992
 20
12.731680000000001
 30
0.0
 11
41.625171999999992
 21
13.208995
 31
0.0
  0
LINE
  5
1B0
  8
DETAIL
  6
CONTINUOUS
 62
     5
 10
40.425471999999999
 20
12.143033000000001
 30
0.0
 11
40.997824999999992
 21
12.731680000000001
 31
0.0
  0
LINE
  5
1B1
  8
DETAIL
  6
CONTINUOUS
 62
     5
 10
39.601391999999997
 20
10.680928
 30
0.0
 11
39.718282000000002
 21
11.04434
 31
0.0
  0
LINE
  5
1B2
  8
DETAIL
  6
CONTINUOUS
 62
     5
 10
39.920611999999998
 20
11.448637
 30
0.0
 11
39.919449999999998
 21
11.446793
 31
0.0
  0
LINE
  5
1B3
  8
DETAIL
  6
CONTINUOUS
 62
     5
 10
39.848818000000001
 20
11.325735
 30
0.0
 11
39.919452
 21
11.4468
 31
0.0
  0
LINE
  5
1B4
  8
DETAIL
  6
CONTINUOUS
 62
     5
 10
39.718282000000002
 20
11.04434
 30
0.0
 11
39.848818000000001
 21
11.325735
 31
0.0
  0
LINE
  5
1B5
  8
DETAIL
  6
CONTINUOUS
 62
     5
 10
39.920602000000002
 20
11.448622
 30
0.0
 11
40.425471999999999
 21
12.143033000000001
 31
0.0
  0
LINE
  5
1B6
  8
DETAIL
  6
CONTINUOUS
 62
     5
 10
57.09966
 20
16.165035
 30
0.0
 11
57.09966
 21
14.35394
 31
0.0
  0
ARC
  5
1B7
  8
DETAIL
  6
CONTINUOUS
 62
     5
 10
56.549659999999989
 20
13.849947
 30
0.0
 40
0.75
 50
270.0
 51
90.0
  0
LINE
  5
1B8
  8
DETAIL
  6
CONTINUOUS
 62
     5
 10
56.299659999999989
 20
14.599947
 30
0.0
 11
56.549659999999989
 21
14.599947
 31
0.0
  0
LINE
  5
1B9
  8
DETAIL
  6
CONTINUOUS
 62
     5
 10
56.265852000000002
 20
13.099947
 30
0.0
 11
56.549659999999989
 21
13.099947
 31
0.0
  0
LINE
  5
1BA
  8
DETAIL
  6
CONTINUOUS
 62
     5
 10
56.247239999999998
 20
13.107275
 30
0.0
 11
56.265869999999993
 21
13.099947
 31
0.0
  0
LINE
  5
1BB
  8
DETAIL
  6
CONTINUOUS
 62
     5
 10
56.234292000000003
 20
13.128069999999999
 30
0.0
 11
56.247239999999998
 21
13.107275
 31
0.0
  0
LINE
  5
1BC
  8
DETAIL
  6
CONTINUOUS
 62
     5
 10
56.230179999999997
 20
13.165255
 30
0.0
 11
56.234292000000003
 21
13.128069999999999
 31
0.0
  0
LINE
  5
1BD
  8
DETAIL
  6
CONTINUOUS
 62
     5
 10
56.286999999999999
 20
13.435855
 30
0.0
 11
56.275252000000002
 21
13.373983000000001
 31
0.0
  0
LINE
  5
1BE
  8
DETAIL
  6
CONTINUOUS
 62
     5
 10
56.239130000000003
 20
13.22362
 30
0.0
 11
56.230179999999997
 21
13.165255
 31
0.0
  0
LINE
  5
1BF
  8
DETAIL
  6
CONTINUOUS
 62
     5
 10
56.295935
 20
13.50475
 30
0.0
 11
56.286999999999999
 21
13.435855
 31
0.0
  0
LINE
  5
1C0
  8
DETAIL
  6
CONTINUOUS
 62
     5
 10
56.299659999999989
 20
13.58222
 30
0.0
 11
56.295935
 21
13.50475
 31
0.0
  0
LINE
  5
1C1
  8
DETAIL
  6
CONTINUOUS
 62
     5
 10
56.262414999999997
 20
13.318235
 30
0.0
 11
56.249901999999999
 21
13.268055
 31
0.0
  0
LINE
  5
1C2
  8
DETAIL
  6
CONTINUOUS
 62
     5
 10
56.249901999999999
 20
13.268055
 30
0.0
 11
56.239130000000003
 21
13.22362
 31
0.0
  0
LINE
  5
1C3
  8
DETAIL
  6
CONTINUOUS
 62
     5
 10
56.275252000000002
 20
13.373983000000001
 30
0.0
 11
56.262414999999997
 21
13.318235
 31
0.0
  0
LINE
  5
1C4
  8
DETAIL
  6
CONTINUOUS
 62
     5
 10
53.566540000000003
 20
15.598039999999999
 30
0.0
 11
54.784681999999997
 21
15.781542
 31
0.0
  0
LINE
  5
1C5
  8
DETAIL
  6
CONTINUOUS
 62
     5
 10
50.587916999999997
 20
19.399732
 30
0.0
 11
50.562502000000002
 21
19.404669999999999
 31
0.0
  0
LINE
  5
1C6
  8
DETAIL
  6
CONTINUOUS
 62
     5
 10
50.562502000000002
 20
19.404669999999999
 30
0.0
 11
50.485799999999998
 21
19.411515000000001
 31
0.0
  0
LINE
  5
1C7
  8
DETAIL
  6
CONTINUOUS
 62
     5
 10
53.074180000000013
 20
17.513272000000001
 30
0.0
 11
52.905074999999997
 21
17.507687000000001
 31
0.0
  0
LINE
  5
1C8
  8
DETAIL
  6
CONTINUOUS
 62
     5
 10
53.228730000000013
 20
17.527358
 30
0.0
 11
53.074180000000013
 21
17.513272000000001
 31
0.0
  0
LINE
  5
1C9
  8
DETAIL
  6
CONTINUOUS
 62
     5
 10
53.369109999999999
 20
17.548545000000001
 30
0.0
 11
53.228730000000013
 21
17.527358
 31
0.0
  0
LINE
  5
1CA
  8
DETAIL
  6
CONTINUOUS
 62
     5
 10
52.472906999999992
 20
15.424815000000001
 30
0.0
 11
53.566540000000003
 21
15.598039999999999
 31
0.0
  0
LINE
  5
1CB
  8
DETAIL
  6
CONTINUOUS
 62
     5
 10
49.550221999999998
 20
14.949757
 30
0.0
 11
52.472906999999992
 21
15.424815000000001
 31
0.0
  0
LINE
  5
1CC
  8
DETAIL
  6
CONTINUOUS
 62
     5
 10
53.496312000000003
 20
17.575977999999999
 30
0.0
 11
53.369109999999999
 21
17.548545000000001
 31
0.0
  0
LINE
  5
1CD
  8
DETAIL
  6
CONTINUOUS
 62
     5
 10
53.682790000000011
 20
18.680427999999999
 30
0.0
 11
53.786917000000003
 21
18.626757000000001
 31
0.0
  0
LINE
  5
1CE
  8
DETAIL
  6
CONTINUOUS
 62
     5
 10
53.565975000000002
 20
18.726887999999999
 30
0.0
 11
53.682790000000011
 21
18.680427999999999
 31
0.0
  0
LINE
  5
1CF
  8
DETAIL
  6
CONTINUOUS
 62
     5
 10
53.436944999999987
 20
18.766764999999999
 30
0.0
 11
53.565975000000002
 21
18.726887999999999
 31
0.0
  0
LINE
  5
1D0
  8
DETAIL
  6
CONTINUOUS
 62
     5
 10
53.335650000000001
 20
18.791675000000001
 30
0.0
 11
53.436944999999987
 21
18.766764999999999
 31
0.0
  0
LINE
  5
1D1
  8
DETAIL
  6
CONTINUOUS
 62
     5
 10
53.335642000000007
 20
18.791647999999999
 30
0.0
 11
50.587876999999992
 21
19.399740000000001
 31
0.0
  0
LINE
  5
1D2
  8
DETAIL
  6
CONTINUOUS
 62
     5
 10
53.786917000000003
 20
18.626757000000001
 30
0.0
 11
53.873576999999997
 21
18.567164999999999
 31
0.0
  0
LINE
  5
1D3
  8
DETAIL
  6
CONTINUOUS
 62
     5
 10
53.873576999999997
 20
18.567164999999999
 30
0.0
 11
53.940605000000012
 21
18.501518000000001
 31
0.0
  0
LINE
  5
1D4
  8
DETAIL
  6
CONTINUOUS
 62
     5
 10
53.940605000000012
 20
18.501518000000001
 30
0.0
 11
53.984409999999997
 21
18.429732999999999
 31
0.0
  0
LINE
  5
1D5
  8
DETAIL
  6
CONTINUOUS
 62
     5
 10
53.984409999999997
 20
18.429732999999999
 30
0.0
 11
53.999659999999999
 21
18.355084999999999
 31
0.0
  0
LINE
  5
1D6
  8
DETAIL
  6
CONTINUOUS
 62
     5
 10
53.999659999999999
 20
17.944659999999999
 30
0.0
 11
53.999659999999999
 21
18.355084999999999
 31
0.0
  0
LINE
  5
1D7
  8
DETAIL
  6
CONTINUOUS
 62
     5
 10
53.999659999999999
 20
17.944659999999999
 30
0.0
 11
53.986612000000001
 21
17.876069999999999
 31
0.0
  0
LINE
  5
1D8
  8
DETAIL
  6
CONTINUOUS
 62
     5
 10
53.986612000000001
 20
17.876069999999999
 30
0.0
 11
53.948211999999991
 21
17.810155000000002
 31
0.0
  0
LINE
  5
1D9
  8
DETAIL
  6
CONTINUOUS
 62
     5
 10
53.611596999999989
 20
17.609382
 30
0.0
 11
53.496312000000003
 21
17.575977999999999
 31
0.0
  0
LINE
  5
1DA
  8
DETAIL
  6
CONTINUOUS
 62
     5
 10
53.716259999999998
 20
17.649246999999999
 30
0.0
 11
53.611596999999989
 21
17.609382
 31
0.0
  0
LINE
  5
1DB
  8
DETAIL
  6
CONTINUOUS
 62
     5
 10
53.810096999999992
 20
17.696517
 30
0.0
 11
53.716259999999998
 21
17.649246999999999
 31
0.0
  0
LINE
  5
1DC
  8
DETAIL
  6
CONTINUOUS
 62
     5
 10
53.888255000000008
 20
17.750170000000001
 30
0.0
 11
53.810096999999992
 21
17.696517
 31
0.0
  0
LINE
  5
1DD
  8
DETAIL
  6
CONTINUOUS
 62
     5
 10
53.948211999999991
 20
17.810155000000002
 30
0.0
 11
53.888255000000008
 21
17.750170000000001
 31
0.0
  0
ARC
  5
1DE
  8
DETAIL
  6
CONTINUOUS
 62
     5
 10
56.549659999999989
 20
16.669025000000001
 30
0.0
 40
0.75
 50
270.0
 51
90.0
  0
LINE
  5
1DF
  8
DETAIL
  6
CONTINUOUS
 62
     5
 10
56.299659999999989
 20
17.419025000000001
 30
0.0
 11
56.549659999999989
 21
17.419025000000001
 31
0.0
  0
LINE
  5
1E0
  8
DETAIL
  6
CONTINUOUS
 62
     5
 10
56.718767000000007
 20
17.399445
 30
0.0
 11
58.499659999999999
 21
17.399445
 31
0.0
  0
LINE
  5
1E1
  8
DETAIL
  6
CONTINUOUS
 62
     5
 10
56.299659999999989
 20
15.919025
 30
0.0
 11
56.549659999999989
 21
15.919025
 31
0.0
  0
LINE
  5
1E2
  8
DETAIL
  6
CONTINUOUS
 62
     5
 10
54.784681999999997
 20
15.781542
 30
0.0
 11
55.868594999999992
 21
15.936442
 31
0.0
  0
LINE
  5
1E3
  8
DETAIL
  6
CONTINUOUS
 62
     5
 10
55.868605000000002
 20
15.936445000000001
 30
0.0
 11
55.900131999999992
 21
15.941867999999999
 31
0.0
  0
LINE
  5
1E4
  8
DETAIL
  6
CONTINUOUS
 62
     5
 10
56.280597
 20
16.294927000000001
 30
0.0
 11
56.299659999999989
 21
16.43167
 31
0.0
  0
LINE
  5
1E5
  8
DETAIL
  6
CONTINUOUS
 62
     5
 10
56.22296
 20
16.16555799999999
 30
0.0
 11
56.280597
 21
16.294927000000001
 31
0.0
  0
LINE
  5
1E6
  8
DETAIL
  6
CONTINUOUS
 62
     5
 10
55.900131999999992
 20
15.941867999999999
 30
0.0
 11
56.022781999999992
 21
15.984215000000001
 31
0.0
  0
LINE
  5
1E7
  8
DETAIL
  6
CONTINUOUS
 62
     5
 10
56.022781999999992
 20
15.984215000000001
 30
0.0
 11
56.133559999999989
 21
16.0595
 31
0.0
  0
LINE
  5
1E8
  8
DETAIL
  6
CONTINUOUS
 62
     5
 10
56.133559999999989
 20
16.0595
 30
0.0
 11
56.22296
 21
16.16555799999999
 31
0.0
  0
LINE
  5
1E9
  8
DETAIL
  6
CONTINUOUS
 62
     5
 10
45.848050000000001
 20
42.219636999999992
 30
0.0
 11
39.499600000000001
 21
42.295709999999993
 31
0.0
  0
LINE
  5
1EA
  8
DETAIL
  6
CONTINUOUS
 62
     5
 10
39.499600000000001
 20
44.31065499999999
 30
0.0
 11
45.848050000000001
 21
44.268275000000003
 31
0.0
  0
LINE
  5
1EB
  8
DETAIL
  6
CONTINUOUS
 62
     5
 10
39.759291999999988
 20
29.560777000000002
 30
0.0
 11
39.567416999999999
 21
30.155619999999999
 31
0.0
  0
LINE
  5
1EC
  8
DETAIL
  6
CONTINUOUS
 62
     5
 10
39.754572000000003
 20
30.538202999999999
 30
0.0
 11
39.565820000000002
 21
31.11863
 31
0.0
  0
LINE
  5
1ED
  8
DETAIL
  6
CONTINUOUS
 62
     5
 10
39.521359999999987
 20
38.907004999999998
 30
0.0
 11
39.951207000000011
 21
39.297061999999997
 31
0.0
  0
LINE
  5
1EE
  8
DETAIL
  6
CONTINUOUS
 62
     5
 10
39.567416999999999
 20
30.155619999999999
 30
0.0
 11
39.499887000000001
 21
30.744515
 31
0.0
  0
LINE
  5
1EF
  8
DETAIL
  6
CONTINUOUS
 62
     5
 10
39.565820000000002
 20
31.11863
 30
0.0
 11
39.499845000000001
 21
31.692425
 31
0.0
  0
LINE
  5
1F0
  8
DETAIL
  6
CONTINUOUS
 62
     5
 10
39.499845000000001
 20
31.690605000000001
 30
0.0
 11
39.499600000000001
 21
31.724435
 31
0.0
  0
LINE
  5
1F1
  8
DETAIL
  6
CONTINUOUS
 62
     5
 10
39.499887000000001
 20
30.742609999999999
 30
0.0
 11
39.499575
 21
30.786327
 31
0.0
  0
LINE
  5
1F2
  8
DETAIL
  6
CONTINUOUS
 62
     5
 10
39.499600000000001
 20
38.879795000000001
 30
0.0
 11
39.521359999999987
 21
38.907004999999998
 31
0.0
  0
LINE
  5
1F3
  8
DETAIL
  6
CONTINUOUS
 62
     5
 10
47.299660000000003
 20
26.674389999999999
 30
0.0
 11
47.299660000000003
 21
42.702011999999989
 31
0.0
  0
LINE
  5
1F4
  8
DETAIL
  6
CONTINUOUS
 62
     5
 10
51.830370000000002
 20
25.629684999999998
 30
0.0
 11
47.663604999999997
 21
26.266974999999999
 31
0.0
  0
LINE
  5
1F5
  8
DETAIL
  6
CONTINUOUS
 62
     5
 10
42.979415000000003
 20
27.013375
 30
0.0
 11
42.257232000000002
 21
27.257007000000002
 31
0.0
  0
LINE
  5
1F6
  8
DETAIL
  6
CONTINUOUS
 62
     5
 10
47.663604999999997
 20
26.266974999999999
 30
0.0
 11
43.61930499999999
 21
26.880579999999998
 31
0.0
  0
LINE
  5
1F7
  8
DETAIL
  6
CONTINUOUS
 62
     5
 10
43.61930499999999
 20
26.880585
 30
0.0
 11
42.979415000000003
 21
27.013375
 31
0.0
  0
LINE
  5
1F8
  8
DETAIL
  6
CONTINUOUS
 62
     5
 10
47.277816999999999
 20
26.355148
 30
0.0
 11
46.282206999999993
 21
26.34077700000001
 31
0.0
  0
LINE
  5
1F9
  8
DETAIL
  6
CONTINUOUS
 62
     5
 10
47.299664999999997
 20
26.676175000000001
 30
0.0
 11
47.275820000000003
 21
26.325810000000001
 31
0.0
  0
LINE
  5
1FA
  8
DETAIL
  6
CONTINUOUS
 62
     5
 10
47.299660000000003
 20
27.7303
 30
0.0
 11
44.324055000000001
 21
27.82766500000001
 31
0.0
  0
LINE
  5
1FB
  8
DETAIL
  6
CONTINUOUS
 62
     5
 10
43.676076999999992
 20
27.883175000000001
 30
0.0
 11
42.926699999999997
 21
28.036185
 31
0.0
  0
LINE
  5
1FC
  8
DETAIL
  6
CONTINUOUS
 62
     5
 10
44.324055000000001
 20
27.827667999999999
 30
0.0
 11
43.676076999999992
 21
27.883175000000001
 31
0.0
  0
LINE
  5
1FD
  8
DETAIL
  6
CONTINUOUS
 62
     5
 10
42.216861999999992
 20
28.278614999999999
 30
0.0
 11
41.561191999999998
 21
28.603748
 31
0.0
  0
LINE
  5
1FE
  8
DETAIL
  6
CONTINUOUS
 62
     5
 10
42.257232000000002
 20
27.257007000000002
 30
0.0
 11
41.591296999999997
 21
27.586501999999999
 31
0.0
  0
LINE
  5
1FF
  8
DETAIL
  6
CONTINUOUS
 62
     5
 10
42.926699999999997
 20
28.036185
 30
0.0
 11
42.216861999999992
 21
28.278614999999999
 31
0.0
  0
LINE
  5
200
  8
DETAIL
  6
CONTINUOUS
 62
     5
 10
41.591296999999997
 20
27.586501999999999
 30
0.0
 11
40.995579999999997
 21
27.992934999999999
 31
0.0
  0
LINE
  5
201
  8
DETAIL
  6
CONTINUOUS
 62
     5
 10
41.561191999999998
 20
28.603748
 30
0.0
 11
40.973939999999999
 21
29.003240000000002
 31
0.0
  0
LINE
  5
202
  8
DETAIL
  6
CONTINUOUS
 62
     5
 10
40.995579999999997
 20
27.992934999999999
 30
0.0
 11
40.483567000000001
 21
28.465748000000001
 31
0.0
  0
LINE
  5
203
  8
DETAIL
  6
CONTINUOUS
 62
     5
 10
40.973939999999999
 20
29.003240000000002
 30
0.0
 11
40.468847999999987
 21
29.466954999999999
 31
0.0
  0
LINE
  5
204
  8
DETAIL
  6
CONTINUOUS
 62
     5
 10
40.483567000000001
 20
28.465748000000001
 30
0.0
 11
40.067776999999992
 21
28.992815000000011
 31
0.0
  0
LINE
  5
205
  8
DETAIL
  6
CONTINUOUS
 62
     5
 10
40.468847999999987
 20
29.466954999999999
 30
0.0
 11
40.058655000000002
 21
29.983017
 31
0.0
  0
LINE
  5
206
  8
DETAIL
  6
CONTINUOUS
 62
     5
 10
40.067776999999992
 20
28.992815000000011
 30
0.0
 11
39.759291999999988
 21
29.560777000000002
 31
0.0
  0
LINE
  5
207
  8
DETAIL
  6
CONTINUOUS
 62
     5
 10
40.058655000000002
 20
29.983017
 30
0.0
 11
39.754572000000003
 21
30.538202999999999
 31
0.0
  0
LINE
  5
208
  8
DETAIL
  6
CONTINUOUS
 62
     5
 10
55.876133000000003
 20
25.005958
 30
0.0
 11
51.830370000000002
 21
25.629684999999998
 31
0.0
  0
LINE
  5
209
  8
DETAIL
  6
CONTINUOUS
 62
     5
 10
53.463186999999998
 20
24.56672
 30
0.0
 11
53.496312000000003
 21
24.559104999999999
 31
0.0
  0
LINE
  5
20A
  8
DETAIL
  6
CONTINUOUS
 62
     5
 10
53.463186999999998
 20
24.566717000000001
 30
0.0
 11
50.587705
 21
25.201965000000001
 31
0.0
  0
LINE
  5
20B
  8
DETAIL
  6
CONTINUOUS
 62
     5
 10
50.587741999999999
 20
25.201958000000001
 30
0.0
 11
50.574995000000001
 21
25.204599999999999
 31
0.0
  0
LINE
  5
20C
  8
DETAIL
  6
CONTINUOUS
 62
     5
 10
50.574995000000001
 20
25.204599999999999
 30
0.0
 11
50.501427
 21
25.213272
 31
0.0
  0
LINE
  5
20D
  8
DETAIL
  6
CONTINUOUS
 62
     5
 10
50.501427
 20
25.213272
 30
0.0
 11
50.485565000000001
 21
25.213705000000001
 31
0.0
  0
LINE
  5
20E
  8
DETAIL
  6
CONTINUOUS
 62
     5
 10
52.955649999999991
 20
23.375630000000001
 30
0.0
 11
52.758611999999999
 21
23.368839999999999
 31
0.0
  0
LINE
  5
20F
  8
DETAIL
  6
CONTINUOUS
 62
     5
 10
53.133611999999999
 20
23.392434999999999
 30
0.0
 11
52.955649999999991
 21
23.375630000000001
 31
0.0
  0
LINE
  5
210
  8
DETAIL
  6
CONTINUOUS
 62
     5
 10
53.293416999999998
 20
23.416975000000001
 30
0.0
 11
53.133611999999999
 21
23.392434999999999
 31
0.0
  0
LINE
  5
211
  8
DETAIL
  6
CONTINUOUS
 62
     5
 10
53.436832000000003
 20
23.447883000000001
 30
0.0
 11
53.293416999999998
 21
23.416975000000001
 31
0.0
  0
LINE
  5
212
  8
DETAIL
  6
CONTINUOUS
 62
     5
 10
53.716259999999998
 20
24.489924999999999
 30
0.0
 11
53.810096999999992
 21
24.445595000000001
 31
0.0
  0
LINE
  5
213
  8
DETAIL
  6
CONTINUOUS
 62
     5
 10
53.611596999999989
 20
24.527464999999999
 30
0.0
 11
53.716259999999998
 21
24.489924999999999
 31
0.0
  0
LINE
  5
214
  8
DETAIL
  6
CONTINUOUS
 62
     5
 10
53.496312000000003
 20
24.559104999999999
 30
0.0
 11
53.611596999999989
 21
24.527464999999999
 31
0.0
  0
LINE
  5
215
  8
DETAIL
  6
CONTINUOUS
 62
     5
 10
53.810096999999992
 20
24.445595000000001
 30
0.0
 11
53.888255000000008
 21
24.395430000000001
 31
0.0
  0
LINE
  5
216
  8
DETAIL
  6
CONTINUOUS
 62
     5
 10
53.888255000000008
 20
24.395430000000001
 30
0.0
 11
53.948211999999991
 21
24.339482
 31
0.0
  0
LINE
  5
217
  8
DETAIL
  6
CONTINUOUS
 62
     5
 10
53.948211999999991
 20
24.339482
 30
0.0
 11
53.986612000000001
 21
24.278120000000001
 31
0.0
  0
LINE
  5
218
  8
DETAIL
  6
CONTINUOUS
 62
     5
 10
53.986612000000001
 20
24.278120000000001
 30
0.0
 11
53.999659999999999
 21
24.214372000000001
 31
0.0
  0
LINE
  5
219
  8
DETAIL
  6
CONTINUOUS
 62
     5
 10
53.999659999999999
 20
23.831412
 30
0.0
 11
53.999659999999999
 21
24.214372000000001
 31
0.0
  0
LINE
  5
21A
  8
DETAIL
  6
CONTINUOUS
 62
     5
 10
53.999659999999999
 20
23.831412
 30
0.0
 11
53.984406999999997
 21
23.761479999999999
 31
0.0
  0
LINE
  5
21B
  8
DETAIL
  6
CONTINUOUS
 62
     5
 10
53.984406999999997
 20
23.761479999999999
 30
0.0
 11
53.94059
 21
23.694331999999999
 31
0.0
  0
LINE
  5
21C
  8
DETAIL
  6
CONTINUOUS
 62
     5
 10
53.873546999999988
 20
23.633040000000001
 30
0.0
 11
53.786864999999999
 21
23.577513
 31
0.0
  0
LINE
  5
21D
  8
DETAIL
  6
CONTINUOUS
 62
     5
 10
53.94059
 20
23.694331999999999
 30
0.0
 11
53.873546999999988
 21
23.633040000000001
 31
0.0
  0
LINE
  5
21E
  8
DETAIL
  6
CONTINUOUS
 62
     5
 10
53.565880000000007
 20
23.484622000000002
 30
0.0
 11
53.436832000000003
 21
23.447883000000001
 31
0.0
  0
LINE
  5
21F
  8
DETAIL
  6
CONTINUOUS
 62
     5
 10
53.682715000000002
 20
23.527640000000002
 30
0.0
 11
53.565880000000007
 21
23.484622000000002
 31
0.0
  0
LINE
  5
220
  8
DETAIL
  6
CONTINUOUS
 62
     5
 10
53.786864999999999
 20
23.577513
 30
0.0
 11
53.682715000000002
 21
23.527640000000002
 31
0.0
  0
ARC
  5
221
  8
DETAIL
  6
CONTINUOUS
 62
     5
 10
55.499659999999999
 20
24.845376999999999
 30
0.0
 40
1.0
 50
91.0
 51
151.92994200000001
  0
ARC
  5
222
  8
DETAIL
  6
CONTINUOUS
 62
     5
 10
53.734912000000001
 20
25.786477000000001
 30
0.0
 40
1.0
 50
324.65134699999999
 51
331.93006500000001
  0
LINE
  5
223
  8
DETAIL
  6
CONTINUOUS
 62
     5
 10
55.943693000000003
 20
24.990648
 30
0.0
 11
55.876067000000013
 21
25.005967999999999
 31
0.0
  0
LINE
  5
224
  8
DETAIL
  6
CONTINUOUS
 62
     5
 10
58.845472000000001
 20
22.142685
 30
0.0
 11
58.999659999999999
 21
22.119147999999999
 31
0.0
  0
LINE
  5
225
  8
DETAIL
  6
CONTINUOUS
 62
     5
 10
57.89965999999999
 20
23.181664999999999
 30
0.0
 11
58.499659999999999
 21
23.181664999999999
 31
0.0
  0
LINE
  5
226
  8
DETAIL
  6
CONTINUOUS
 62
     5
 10
55.970675
 20
26.411275
 30
0.0
 11
55.918196999999999
 21
26.407361999999999
 31
0.0
  0
LINE
  5
227
  8
DETAIL
  6
CONTINUOUS
 62
     5
 10
55.918196999999999
 20
26.407361999999999
 30
0.0
 11
55.790931999999991
 21
26.372775000000001
 31
0.0
  0
LINE
  5
228
  8
DETAIL
  6
CONTINUOUS
 62
     5
 10
58.705579999999998
 20
22.211517000000001
 30
0.0
 11
58.845472000000001
 21
22.142685
 31
0.0
  0
LINE
  5
229
  8
DETAIL
  6
CONTINUOUS
 62
     5
 10
56.064079999999997
 20
24.936202000000002
 30
0.0
 11
55.943693000000003
 21
24.990648
 31
0.0
  0
LINE
  5
22A
  8
DETAIL
  6
CONTINUOUS
 62
     5
 10
56.164202000000003
 20
24.854051999999999
 30
0.0
 11
56.064079999999997
 21
24.936202000000002
 31
0.0
  0
LINE
  5
22B
  8
DETAIL
  6
CONTINUOUS
 62
     5
 10
58.595222
 20
22.318137
 30
0.0
 11
58.705579999999998
 21
22.211517000000001
 31
0.0
  0
LINE
  5
22C
  8
DETAIL
  6
CONTINUOUS
 62
     5
 10
58.524048000000001
 20
22.453116999999999
 30
0.0
 11
58.595222
 21
22.318137
 31
0.0
  0
LINE
  5
22D
  8
DETAIL
  6
CONTINUOUS
 62
     5
 10
56.238709999999998
 20
24.751075
 30
0.0
 11
56.164202000000003
 21
24.854051999999999
 31
0.0
  0
LINE
  5
22E
  8
DETAIL
  6
CONTINUOUS
 62
     5
 10
56.284305000000003
 20
24.634799999999998
 30
0.0
 11
56.238709999999998
 21
24.751075
 31
0.0
  0
LINE
  5
22F
  8
DETAIL
  6
CONTINUOUS
 62
     5
 10
58.499659999999999
 20
22.60211
 30
0.0
 11
58.524048000000001
 21
22.453116999999999
 31
0.0
  0
LINE
  5
230
  8
DETAIL
  6
CONTINUOUS
 62
     5
 10
56.299659999999989
 20
24.511845000000001
 30
0.0
 11
56.284305000000003
 21
24.634799999999998
 31
0.0
  0
LINE
  5
231
  8
DETAIL
  6
CONTINUOUS
 62
     5
 10
39.951207000000011
 20
39.297061999999997
 30
0.0
 11
40.448545000000003
 21
39.622418000000003
 31
0.0
  0
LINE
  5
232
  8
DETAIL
  6
CONTINUOUS
 62
     5
 10
43.575398
 20
40.428769999999993
 30
0.0
 11
47.304606999999997
 21
40.682935000000001
 31
0.0
  0
LINE
  5
233
  8
DETAIL
  6
CONTINUOUS
 62
     5
 10
42.94637199999999
 20
40.366892
 30
0.0
 11
43.575404999999989
 21
40.428753
 31
0.0
  0
LINE
  5
234
  8
DETAIL
  6
CONTINUOUS
 62
     5
 10
42.252996999999993
 20
40.252759999999988
 30
0.0
 11
42.94637199999999
 21
40.366892
 31
0.0
  0
LINE
  5
235
  8
DETAIL
  6
CONTINUOUS
 62
     5
 10
41.606196999999987
 20
40.093775000000001
 30
0.0
 11
42.252996999999993
 21
40.252759999999988
 31
0.0
  0
LINE
  5
236
  8
DETAIL
  6
CONTINUOUS
 62
     5
 10
41.003409999999988
 20
39.885828000000011
 30
0.0
 11
41.606196999999987
 21
40.093775000000001
 31
0.0
  0
LINE
  5
237
  8
DETAIL
  6
CONTINUOUS
 62
     5
 10
40.448545000000003
 20
39.622418000000003
 30
0.0
 11
41.003409999999988
 21
39.885828000000011
 31
0.0
  0
LINE
  5
238
  8
DETAIL
  6
CONTINUOUS
 62
     5
 10
45.848365000000001
 20
44.268273000000001
 30
0.0
 11
46.081977000000002
 21
44.248907000000003
 31
0.0
  0
LINE
  5
239
  8
DETAIL
  6
CONTINUOUS
 62
     5
 10
45.848382000000001
 20
42.219631999999997
 30
0.0
 11
46.081977000000002
 21
42.200332000000003
 31
0.0
  0
LINE
  5
23A
  8
DETAIL
  6
CONTINUOUS
 62
     5
 10
46.890071999999989
 20
41.891750000000002
 30
0.0
 11
46.899790000000003
 21
41.893483000000003
 31
0.0
  0
LINE
  5
23B
  8
DETAIL
  6
CONTINUOUS
 62
     5
 10
46.28535999999999
 20
44.201454999999989
 30
0.0
 11
46.459786999999992
 21
44.134039999999992
 31
0.0
  0
LINE
  5
23C
  8
DETAIL
  6
CONTINUOUS
 62
     5
 10
46.28535999999999
 20
42.156486999999998
 30
0.0
 11
46.459789999999998
 21
42.098504999999989
 31
0.0
  0
LINE
  5
23D
  8
DETAIL
  6
CONTINUOUS
 62
     5
 10
46.866405
 20
41.897517000000001
 30
0.0
 11
46.890071999999989
 21
41.891750000000002
 31
0.0
  0
LINE
  5
23E
  8
DETAIL
  6
CONTINUOUS
 62
     5
 10
46.081977000000002
 20
44.248907000000003
 30
0.0
 11
46.28535999999999
 21
44.201454999999989
 31
0.0
  0
LINE
  5
23F
  8
DETAIL
  6
CONTINUOUS
 62
     5
 10
46.081977000000002
 20
42.200332000000003
 30
0.0
 11
46.28535999999999
 21
42.156486999999998
 31
0.0
  0
LINE
  5
240
  8
DETAIL
  6
CONTINUOUS
 62
     5
 10
46.722191999999993
 20
41.974885
 30
0.0
 11
46.808624999999992
 21
41.926487000000002
 31
0.0
  0
LINE
  5
241
  8
DETAIL
  6
CONTINUOUS
 62
     5
 10
46.459786999999992
 20
44.134039999999992
 30
0.0
 11
46.606225000000002
 21
44.052562000000002
 31
0.0
  0
LINE
  5
242
  8
DETAIL
  6
CONTINUOUS
 62
     5
 10
46.606225000000002
 20
42.034866999999998
 30
0.0
 11
46.722191999999993
 21
41.974885
 31
0.0
  0
LINE
  5
243
  8
DETAIL
  6
CONTINUOUS
 62
     5
 10
46.808624999999992
 20
41.926487000000002
 30
0.0
 11
46.866405
 21
41.897517000000001
 31
0.0
  0
LINE
  5
244
  8
DETAIL
  6
CONTINUOUS
 62
     5
 10
46.459789999999998
 20
42.098504999999989
 30
0.0
 11
46.606225000000002
 21
42.034866999999998
 31
0.0
  0
LINE
  5
245
  8
DETAIL
  6
CONTINUOUS
 62
     5
 10
47.059114999999998
 20
41.635297999999999
 30
0.0
 11
47.060986999999997
 21
41.633656999999992
 31
0.0
  0
LINE
  5
246
  8
DETAIL
  6
CONTINUOUS
 62
     5
 10
46.606225000000002
 20
44.052562000000002
 30
0.0
 11
46.722190000000012
 21
43.964706999999997
 31
0.0
  0
LINE
  5
247
  8
DETAIL
  6
CONTINUOUS
 62
     5
 10
46.808624999999992
 20
43.87754799999999
 30
0.0
 11
46.866405
 21
43.800175000000003
 31
0.0
  0
LINE
  5
248
  8
DETAIL
  6
CONTINUOUS
 62
     5
 10
47.060986999999997
 20
41.633656999999992
 30
0.0
 11
47.094029999999997
 21
41.598927000000003
 31
0.0
  0
LINE
  5
249
  8
DETAIL
  6
CONTINUOUS
 62
     5
 10
46.722190000000012
 20
43.964706999999997
 30
0.0
 11
46.808624999999992
 21
43.87754799999999
 31
0.0
  0
LINE
  5
24A
  8
DETAIL
  6
CONTINUOUS
 62
     5
 10
46.866405
 20
43.800175000000003
 30
0.0
 11
46.899790000000003
 21
43.738165000000002
 31
0.0
  0
LINE
  5
24B
  8
DETAIL
  6
CONTINUOUS
 62
     5
 10
47.094029999999997
 20
41.598927000000003
 30
0.0
 11
47.158814999999997
 21
41.508294999999997
 31
0.0
  0
LINE
  5
24C
  8
DETAIL
  6
CONTINUOUS
 62
     5
 10
47.158814999999997
 20
41.508294999999997
 30
0.0
 11
47.232891999999993
 21
41.354697999999999
 31
0.0
  0
LINE
  5
24D
  8
DETAIL
  6
CONTINUOUS
 62
     5
 10
47.232891999999993
 20
41.354697999999999
 30
0.0
 11
47.287492
 21
41.143127
 31
0.0
  0
LINE
  5
24E
  8
DETAIL
  6
CONTINUOUS
 62
     5
 10
46.899790000000003
 20
43.738165000000002
 30
0.0
 11
46.909410000000001
 21
43.701205000000002
 31
0.0
  0
LINE
  5
24F
  8
DETAIL
  6
CONTINUOUS
 62
     5
 10
47.287492
 20
41.143127
 30
0.0
 11
47.299666999999999
 21
40.979900000000001
 31
0.0
  0
LINE
  5
250
  8
DETAIL
  6
CONTINUOUS
 62
     5
 10
46.909410000000001
 20
43.701205000000002
 30
0.0
 11
46.909127000000012
 21
43.694258000000012
 31
0.0
  0
LINE
  5
251
  8
DETAIL
  6
CONTINUOUS
 62
     5
 10
46.909127000000012
 20
41.931786999999993
 30
0.0
 11
46.909127000000012
 21
43.694258000000012
 31
0.0
  0
LINE
  5
252
  8
DETAIL
  6
CONTINUOUS
 62
     5
 10
46.909127000000012
 20
41.931786999999993
 30
0.0
 11
46.909410000000001
 21
41.919195000000002
 31
0.0
  0
LINE
  5
253
  8
DETAIL
  6
CONTINUOUS
 62
     5
 10
46.899790000000003
 20
41.893483000000003
 30
0.0
 11
46.909410000000001
 21
41.919195000000002
 31
0.0
  0
ARC
  5
254
  8
DETAIL
  6
CONTINUOUS
 62
     5
 10
81.899659999999997
 20
20.299444999999999
 30
0.0
 40
2.6000000000000001
 50
0.0
 51
90.0
  0
ARC
  5
255
  8
DETAIL
  6
CONTINUOUS
 62
     5
 10
55.09966
 20
13.899445
 30
0.0
 40
6.4565849999999987
 50
6.6705629999999996
 51
20.659807000000001
  0
ARC
  5
256
  8
DETAIL
  6
CONTINUOUS
 62
     5
 10
59.429784999999988
 20
11.399445
 30
0.0
 40
1.5
 50
270.0
 51
330.0
  0
ARC
  5
257
  8
DETAIL
  6
CONTINUOUS
 62
     5
 10
55.09966
 20
13.899445
 30
0.0
 40
6.4565849999999987
 50
339.340193
 51
353.32943699999998
  0
LINE
  5
258
  8
DETAIL
  6
CONTINUOUS
 62
     5
 10
61.512537000000002
 20
14.649445
 30
0.0
 11
61.141031999999988
 21
14.649445
 31
0.0
  0
LINE
  5
259
  8
DETAIL
  6
CONTINUOUS
 62
     5
 10
61.512537000000002
 20
13.149445
 30
0.0
 11
61.141031999999988
 21
13.149445
 31
0.0
  0
LINE
  5
25A
  8
DETAIL
  6
CONTINUOUS
 62
     5
 10
61.141031999999988
 20
11.621442
 30
0.0
 11
61.179111999999989
 21
11.599456999999999
 31
0.0
  0
LINE
  5
25B
  8
DETAIL
  6
CONTINUOUS
 62
     5
 10
61.169691999999998
 20
13.525627999999999
 30
0.0
 11
61.179132000000003
 21
13.899445
 31
0.0
  0
LINE
  5
25C
  8
DETAIL
  6
CONTINUOUS
 62
     5
 10
61.179132000000003
 20
13.899445
 30
0.0
 11
61.169584999999991
 21
14.275375
 31
0.0
  0
LINE
  5
25D
  8
DETAIL
  6
CONTINUOUS
 62
     5
 10
61.169584999999991
 20
14.275375
 30
0.0
 11
61.141031999999988
 21
14.649445
 31
0.0
  0
LINE
  5
25E
  8
DETAIL
  6
CONTINUOUS
 62
     5
 10
61.141031999999988
 20
13.149445
 30
0.0
 11
61.169691999999998
 21
13.525627999999999
 31
0.0
  0
LINE
  5
25F
  8
DETAIL
  6
CONTINUOUS
 62
     5
 10
60.728825000000001
 20
10.649445
 30
0.0
 11
61.174881999999997
 21
11.588241999999999
 31
0.0
  0
ARC
  5
260
  8
DETAIL
  6
CONTINUOUS
 62
     5
 10
59.429784999999988
 20
16.399445
 30
0.0
 40
1.5
 50
30.0
 51
90.0
  0
LINE
  5
261
  8
DETAIL
  6
CONTINUOUS
 62
     5
 10
60.728825000000001
 20
17.149445
 30
0.0
 11
61.174881999999997
 21
16.210650000000001
 31
0.0
  0
LINE
  5
262
  8
DETAIL
  6
CONTINUOUS
 62
     5
 10
61.179111999999989
 20
16.199435000000001
 30
0.0
 11
61.141031999999988
 21
16.17745
 31
0.0
  0
LINE
  5
263
  8
DETAIL
  6
CONTINUOUS
 62
     5
 10
69.399659999999997
 20
25.917961999999999
 30
0.0
 11
81.899659999999997
 21
25.917961999999999
 31
0.0
  0
LINE
  5
264
  8
DETAIL
  6
CONTINUOUS
 62
     5
 10
69.399659999999997
 20
22.899445
 30
0.0
 11
81.899659999999997
 21
22.899445
 31
0.0
  0
LINE
  5
265
  8
DETAIL
  6
CONTINUOUS
 62
     5
 10
61.299659999999989
 20
28.393245
 30
0.0
 11
61.299659999999989
 21
39.059202999999997
 31
0.0
  0
LINE
  5
266
  8
DETAIL
  6
CONTINUOUS
 62
     5
 10
66.899659999999997
 20
26.517962000000001
 30
0.0
 11
69.399659999999997
 21
26.517962000000001
 31
0.0
  0
LINE
  5
267
  8
DETAIL
  6
CONTINUOUS
 62
     5
 10
66.899659999999997
 20
23.499445000000001
 30
0.0
 11
69.399659999999997
 21
23.499445000000001
 31
0.0
  0
LINE
  5
268
  8
DETAIL
  6
CONTINUOUS
 62
     5
 10
66.899659999999997
 20
23.270745000000002
 30
0.0
 11
69.399659999999997
 21
23.270745000000002
 31
0.0
  0
LINE
  5
269
  8
DETAIL
  6
CONTINUOUS
 62
     5
 10
66.399659999999997
 20
22.676584999999999
 30
0.0
 11
69.399659999999997
 21
22.676584999999999
 31
0.0
  0
ARC
  5
26A
  8
DETAIL
  6
CONTINUOUS
 62
     5
 10
63.188749999999999
 20
28.393245
 30
0.0
 40
1.8890899999999999
 50
180.0
 51
270.735975
  0
ARC
  5
26B
  8
DETAIL
  6
CONTINUOUS
 62
     5
 10
61.59966
 20
18.499445000000001
 30
0.0
 40
3.7999999999999989
 50
72.815832999999998
 51
90.0
  0
ARC
  5
26C
  8
DETAIL
  6
CONTINUOUS
 62
     5
 10
66.899659999999997
 20
26.017963000000002
 30
0.0
 40
0.5
 50
90.0
 51
179.999943
  0
ARC
  5
26D
  8
DETAIL
  6
CONTINUOUS
 62
     5
 10
66.899659999999997
 20
22.999445000000001
 30
0.0
 40
0.5
 50
90.0
 51
180.0
  0
LINE
  5
26E
  8
DETAIL
  6
CONTINUOUS
 62
     5
 10
65.893056999999999
 20
26.528694999999999
 30
0.0
 11
65.793293000000006
 21
26.537455000000001
 31
0.0
  0
LINE
  5
26F
  8
DETAIL
  6
CONTINUOUS
 62
     5
 10
66.899659999999997
 20
23.270745000000002
 30
0.0
 11
66.745409999999993
 21
23.246594999999999
 31
0.0
  0
LINE
  5
270
  8
DETAIL
  6
CONTINUOUS
 62
     5
 10
66.027474999999995
 20
26.482579999999999
 30
0.0
 11
65.893056999999999
 21
26.528694999999999
 31
0.0
  0
LINE
  5
271
  8
DETAIL
  6
CONTINUOUS
 62
     5
 10
66.141824999999997
 20
26.402080000000002
 30
0.0
 11
66.027474999999995
 21
26.482579999999999
 31
0.0
  0
LINE
  5
272
  8
DETAIL
  6
CONTINUOUS
 62
     5
 10
66.228129999999993
 20
26.295202
 30
0.0
 11
66.141824999999997
 21
26.402080000000002
 31
0.0
  0
LINE
  5
273
  8
DETAIL
  6
CONTINUOUS
 62
     5
 10
66.28156700000001
 20
26.170780000000001
 30
0.0
 11
66.228129999999993
 21
26.295202
 31
0.0
  0
LINE
  5
274
  8
DETAIL
  6
CONTINUOUS
 62
     5
 10
66.299660000000003
 20
26.037496999999998
 30
0.0
 11
66.28156700000001
 21
26.170780000000001
 31
0.0
  0
LINE
  5
275
  8
DETAIL
  6
CONTINUOUS
 62
     5
 10
66.399659999999997
 20
22.676584999999999
 30
0.0
 11
66.399659999999997
 21
26.017714999999999
 31
0.0
  0
LINE
  5
276
  8
DETAIL
  6
CONTINUOUS
 62
     5
 10
66.399659999999997
 20
22.119147999999999
 30
0.0
 11
66.399659999999997
 21
22.775607000000001
 31
0.0
  0
LINE
  5
277
  8
DETAIL
  6
CONTINUOUS
 62
     5
 10
66.424026999999995
 20
22.928298000000002
 30
0.0
 11
66.399659999999997
 21
22.775611999999999
 31
0.0
  0
LINE
  5
278
  8
DETAIL
  6
CONTINUOUS
 62
     5
 10
66.495287000000005
 20
23.06683
 30
0.0
 11
66.424026999999995
 21
22.928298000000002
 31
0.0
  0
LINE
  5
279
  8
DETAIL
  6
CONTINUOUS
 62
     5
 10
66.745409999999993
 20
23.246594999999999
 30
0.0
 11
66.605669999999989
 21
23.176112
 31
0.0
  0
LINE
  5
27A
  8
DETAIL
  6
CONTINUOUS
 62
     5
 10
66.605669999999989
 20
23.176112
 30
0.0
 11
66.495287000000005
 21
23.06683
 31
0.0
  0
LINE
  5
27B
  8
DETAIL
  6
CONTINUOUS
 62
     5
 10
69.399659999999997
 20
26.517779999999998
 30
0.0
 11
69.399659999999997
 21
22.676584999999999
 31
0.0
  0
ARC
  5
27C
  8
DETAIL
  6
CONTINUOUS
 62
     5
 10
81.899659999999997
 20
23.317962000000001
 30
0.0
 40
2.6000000000000001
 50
0.0
 51
90.0
  0
LINE
  5
27D
  8
DETAIL
  6
CONTINUOUS
 62
     5
 10
39.610576999999999
 20
47.492684999999987
 30
0.0
 11
39.379032000000002
 21
47.500002999999992
 31
0.0
  0
LINE
  5
27E
  8
DETAIL
  6
CONTINUOUS
 62
     5
 10
39.379032000000002
 20
47.500002999999992
 30
0.0
 11
39.295242000000002
 21
47.501227999999998
 31
0.0
  0
LINE
  5
27F
  8
DETAIL
  6
CONTINUOUS
 62
     5
 10
39.499600000000001
 20
46.966676999999997
 30
0.0
 11
39.499582000000011
 21
46.962284999999987
 31
0.0
  0
LINE
  5
280
  8
DETAIL
  6
CONTINUOUS
 62
     5
 10
46.515107
 20
50.774037
 30
0.0
 11
50.849722
 21
48.871369999999999
 31
0.0
  0
LINE
  5
281
  8
DETAIL
  6
CONTINUOUS
 62
     5
 10
51.753186999999997
 20
47.108232999999998
 30
0.0
 11
47.58567
 21
47.219807999999993
 31
0.0
  0
ARC
  5
282
  8
DETAIL
  6
CONTINUOUS
 62
     5
 10
43.299659999999989
 20
43.448677000000004
 30
0.0
 40
8.0
 50
66.301046999999997
 51
89.500000000000014
  0
LINE
  5
283
  8
DETAIL
  6
CONTINUOUS
 62
     5
 10
47.58567
 20
47.219807999999993
 30
0.0
 11
42.955730000000003
 21
47.33314
 31
0.0
  0
LINE
  5
284
  8
DETAIL
  6
CONTINUOUS
 62
     5
 10
42.286416999999993
 20
47.357295000000001
 30
0.0
 11
41.677325000000003
 21
47.384321999999997
 31
0.0
  0
LINE
  5
285
  8
DETAIL
  6
CONTINUOUS
 62
     5
 10
42.955730000000003
 20
47.33314
 30
0.0
 11
42.286416999999993
 21
47.357295000000001
 31
0.0
  0
LINE
  5
286
  8
DETAIL
  6
CONTINUOUS
 62
     5
 10
41.677325000000003
 20
47.384321999999997
 30
0.0
 11
39.896619999999999
 21
47.479514999999999
 31
0.0
  0
LINE
  5
287
  8
DETAIL
  6
CONTINUOUS
 62
     5
 10
39.896619999999999
 20
47.479514999999999
 30
0.0
 11
39.610576999999999
 21
47.492684999999987
 31
0.0
  0
LINE
  5
288
  8
DETAIL
  6
CONTINUOUS
 62
     5
 10
55.815042000000012
 20
46.988572999999988
 30
0.0
 11
51.753186999999997
 21
47.108232999999998
 31
0.0
  0
LINE
  5
289
  8
DETAIL
  6
CONTINUOUS
 62
     5
 10
55.023494999999997
 20
47.011890000000001
 30
0.0
 11
51.122686999999999
 21
48.82419500000001
 31
0.0
  0
LINE
  5
28A
  8
DETAIL
  6
CONTINUOUS
 62
     5
 10
51.045450000000002
 20
48.852604999999997
 30
0.0
 11
50.965020000000003
 21
48.867916999999991
 31
0.0
  0
LINE
  5
28B
  8
DETAIL
  6
CONTINUOUS
 62
     5
 10
50.965020000000003
 20
48.867916999999991
 30
0.0
 11
50.916282000000002
 21
48.870715000000011
 31
0.0
  0
LINE
  5
28C
  8
DETAIL
  6
CONTINUOUS
 62
     5
 10
51.122686999999999
 20
48.82419500000001
 30
0.0
 11
51.045450000000002
 21
48.852604999999997
 31
0.0
  0
LINE
  5
28D
  8
DETAIL
  6
CONTINUOUS
 62
     5
 10
55.931825000000011
 20
46.97102499999999
 30
0.0
 11
55.815064999999997
 21
46.988570000000003
 31
0.0
  0
LINE
  5
28E
  8
DETAIL
  6
CONTINUOUS
 62
     5
 10
56.053682000000002
 20
46.919471999999999
 30
0.0
 11
55.931825000000011
 21
46.97102499999999
 31
0.0
  0
LINE
  5
28F
  8
DETAIL
  6
CONTINUOUS
 62
     5
 10
56.156880000000008
 20
46.838656999999998
 30
0.0
 11
56.053682000000002
 21
46.919471999999999
 31
0.0
  0
LINE
  5
290
  8
DETAIL
  6
CONTINUOUS
 62
     5
 10
56.234875000000002
 20
46.734952999999997
 30
0.0
 11
56.156880000000008
 21
46.838656999999998
 31
0.0
  0
LINE
  5
291
  8
DETAIL
  6
CONTINUOUS
 62
     5
 10
56.283267000000002
 20
46.61578699999999
 30
0.0
 11
56.234875000000002
 21
46.734952999999997
 31
0.0
  0
LINE
  5
292
  8
DETAIL
  6
CONTINUOUS
 62
     5
 10
56.299659999999989
 20
46.488807000000001
 30
0.0
 11
56.283267000000002
 21
46.61578699999999
 31
0.0
  0
LINE
  5
293
  8
OUTLINE
  6
CONTINUOUS
 62
     3
 10
84.499659999999992
 20
20.299444999999999
 30
0.0
 11
84.499659999999992
 21
-20.300384999999999
 31
0.0
  0
LINE
  5
294
  8
OUTLINE
  6
CONTINUOUS
 62
     3
 10
0.0
 20
79.49091700000001
 30
0.0
 11
0.0
 21
-79.492024999999998
 31
0.0
  0
LINE
  5
295
  8
OUTLINE
  6
CONTINUOUS
 62
     3
 10
-29.775355000000001
 20
-0.000618
 30
0.0
 11
-29.486065
 21
-32.286850000000001
 31
0.0
  0
LINE
  5
296
  8
OUTLINE
  6
CONTINUOUS
 62
     3
 10
-29.825223000000001
 20
-0.000618
 30
0.0
 11
-29.535933
 21
-32.286850000000001
 31
0.0
  0
LINE
  5
297
  8
OUTLINE
  6
CONTINUOUS
 62
     3
 10
-29.868839999999999
 20
-0.000618
 30
0.0
 11
-29.579550000000001
 21
-32.286850000000001
 31
0.0
  0
LINE
  5
298
  8
OUTLINE
  6
CONTINUOUS
 62
     3
 10
-29.906205
 20
-0.000618
 30
0.0
 11
-29.616914999999999
 21
-32.286850000000001
 31
0.0
  0
LINE
  5
299
  8
OUTLINE
  6
CONTINUOUS
 62
     3
 10
-29.937322000000002
 20
-0.000618
 30
0.0
 11
-29.648033000000002
 21
-32.286850000000001
 31
0.0
  0
LINE
  5
29A
  8
OUTLINE
  6
CONTINUOUS
 62
     3
 10
-29.962188000000001
 20
-0.000618
 30
0.0
 11
-29.672897999999989
 21
-32.286850000000001
 31
0.0
  0
LINE
  5
29B
  8
OUTLINE
  6
CONTINUOUS
 62
     3
 10
-29.980803000000002
 20
-0.000618
 30
0.0
 11
-29.691513
 21
-32.286850000000001
 31
0.0
  0
LINE
  5
29C
  8
OUTLINE
  6
CONTINUOUS
 62
     3
 10
-29.993169999999999
 20
-0.000618
 30
0.0
 11
-29.703880000000002
 21
-32.286850000000001
 31
0.0
  0
LINE
  5
29D
  8
OUTLINE
  6
CONTINUOUS
 62
     3
 10
-29.999285
 20
-0.000618
 30
0.0
 11
-29.709994999999999
 21
-32.286850000000001
 31
0.0
  0
LINE
  5
29E
  8
OUTLINE
  6
CONTINUOUS
 62
     3
 10
55.804021999999989
 20
-47.358268000000002
 30
0.0
 11
0.0
 21
-47.845261999999998
 31
0.0
  0
LINE
  5
29F
  8
OUTLINE
  6
CONTINUOUS
 62
     3
 10
-29.486065
 20
-32.286850000000001
 30
0.0
 11
-28.618288
 21
-64.562709999999996
 31
0.0
  0
LINE
  5
2A0
  8
OUTLINE
  6
CONTINUOUS
 62
     3
 10
-29.535933
 20
-32.286850000000001
 30
0.0
 11
-28.668153000000011
 21
-64.562709999999996
 31
0.0
  0
LINE
  5
2A1
  8
OUTLINE
  6
CONTINUOUS
 62
     3
 10
-29.579550000000001
 20
-32.286850000000001
 30
0.0
 11
-28.711770000000001
 21
-64.562709999999996
 31
0.0
  0
LINE
  5
2A2
  8
OUTLINE
  6
CONTINUOUS
 62
     3
 10
-29.616914999999999
 20
-32.286850000000001
 30
0.0
 11
-28.749137999999999
 21
-64.562709999999996
 31
0.0
  0
LINE
  5
2A3
  8
OUTLINE
  6
CONTINUOUS
 62
     3
 10
-29.648033000000002
 20
-32.286850000000001
 30
0.0
 11
-28.780252999999998
 21
-64.562709999999996
 31
0.0
  0
LINE
  5
2A4
  8
OUTLINE
  6
CONTINUOUS
 62
     3
 10
-29.672897999999989
 20
-32.286850000000001
 30
0.0
 11
-28.805119999999999
 21
-64.562709999999996
 31
0.0
  0
LINE
  5
2A5
  8
OUTLINE
  6
CONTINUOUS
 62
     3
 10
-29.691513
 20
-32.286850000000001
 30
0.0
 11
-28.823734999999999
 21
-64.562709999999996
 31
0.0
  0
LINE
  5
2A6
  8
OUTLINE
  6
CONTINUOUS
 62
     3
 10
-29.703880000000002
 20
-32.286850000000001
 30
0.0
 11
-28.836099999999998
 21
-64.562709999999996
 31
0.0
  0
LINE
  5
2A7
  8
OUTLINE
  6
CONTINUOUS
 62
     3
 10
-29.709994999999999
 20
-32.286850000000001
 30
0.0
 11
-28.842217999999999
 21
-64.562709999999996
 31
0.0
  0
LINE
  5
2A8
  8
OUTLINE
  6
CONTINUOUS
 62
     3
 10
-0.508728
 20
-79.991947999999994
 30
0.0
 11
-24.009585000000001
 21
-79.581739999999996
 31
0.0
  0
ARC
  5
2A9
  8
OUTLINE
  6
CONTINUOUS
 62
     3
 10
-23.931049999999999
 20
-75.082425000000001
 30
0.0
 40
4.5
 50
182.394215
 51
269.0
  0
LINE
  5
2AA
  8
OUTLINE
  6
CONTINUOUS
 62
     3
 10
-28.711404999999999
 20
-68.132227999999998
 30
0.0
 11
-28.842932999999999
 21
-64.562712000000005
 31
0.0
  0
LINE
  5
2AB
  8
OUTLINE
  6
CONTINUOUS
 62
     3
 10
-28.427123000000002
 20
-75.270409999999998
 30
0.0
 11
-28.572800000000001
 21
-71.701464999999999
 31
0.0
  0
LINE
  5
2AC
  8
OUTLINE
  6
CONTINUOUS
 62
     3
 10
-28.572800000000001
 20
-71.701464999999999
 30
0.0
 11
-28.711404999999999
 21
-68.132227999999998
 31
0.0
  0
ARC
  5
2AD
  8
OUTLINE
  6
CONTINUOUS
 62
     3
 10
-28.593093
 20
-64.553753
 30
0.0
 40
0.25
 50
178.26869099999999
 51
182.05346299999999
  0
LINE
  5
2AE
  8
OUTLINE
  6
CONTINUOUS
 62
     3
 10
-28.842932999999999
 20
-64.562712000000005
 30
0.0
 11
-28.836099999999998
 21
-64.562709999999996
 31
0.0
  0
LINE
  5
2AF
  8
OUTLINE
  6
CONTINUOUS
 62
     3
 10
-28.66601
 20
-64.562709999999996
 30
0.0
 11
-28.659718000000002
 21
-64.500782000000001
 31
0.0
  0
LINE
  5
2B0
  8
OUTLINE
  6
CONTINUOUS
 62
     3
 10
-28.709913
 20
-64.562709999999996
 30
0.0
 11
-28.703723
 21
-64.500782000000001
 31
0.0
  0
LINE
  5
2B1
  8
OUTLINE
  6
CONTINUOUS
 62
     3
 10
-28.747565000000002
 20
-64.562709999999996
 30
0.0
 11
-28.741478000000011
 21
-64.500782000000001
 31
0.0
  0
LINE
  5
2B2
  8
OUTLINE
  6
CONTINUOUS
 62
     3
 10
-28.778967999999999
 20
-64.562709999999996
 30
0.0
 11
-28.772983
 21
-64.500782000000001
 31
0.0
  0
LINE
  5
2B3
  8
OUTLINE
  6
CONTINUOUS
 62
     3
 10
-28.804120000000001
 20
-64.562709999999996
 30
0.0
 11
-28.798238000000001
 21
-64.500782000000001
 31
0.0
  0
LINE
  5
2B4
  8
OUTLINE
  6
CONTINUOUS
 62
     3
 10
-28.82302
 20
-64.562709999999996
 30
0.0
 11
-28.817243000000001
 21
-64.500782000000001
 31
0.0
  0
LINE
  5
2B5
  8
OUTLINE
  6
CONTINUOUS
 62
     3
 10
-28.835673
 20
-64.562709999999996
 30
0.0
 11
-28.829998
 21
-64.500782000000001
 31
0.0
  0
LINE
  5
2B6
  8
OUTLINE
  6
CONTINUOUS
 62
     3
 10
-28.842072999999999
 20
-64.562709999999996
 30
0.0
 11
-28.837145
 21
-64.507919999999984
 31
0.0
  0
LINE
  5
2B7
  8
OUTLINE
  6
CONTINUOUS
 62
     3
 10
-28.835773
 20
-64.558927999999995
 30
0.0
 11
-28.836099999999998
 21
-64.562709999999996
 31
0.0
  0
LINE
  5
2B8
  8
OUTLINE
  6
CONTINUOUS
 62
     3
 10
-28.622395000000001
 20
-64.409930000000003
 30
0.0
 11
-28.639579999999999
 21
-64.444599999999994
 31
0.0
  0
LINE
  5
2B9
  8
OUTLINE
  6
CONTINUOUS
 62
     3
 10
-28.671968
 20
-64.420900000000003
 30
0.0
 11
-28.683675000000001
 21
-64.444587999999996
 31
0.0
  0
LINE
  5
2BA
  8
OUTLINE
  6
CONTINUOUS
 62
     3
 10
-28.715288000000001
 20
-64.431927000000002
 30
0.0
 11
-28.721518
 21
-64.444568000000004
 31
0.0
  0
LINE
  5
2BB
  8
OUTLINE
  6
CONTINUOUS
 62
     3
 10
-28.659718000000002
 20
-64.500782000000001
 30
0.0
 11
-28.639579999999999
 21
-64.444599999999994
 31
0.0
  0
LINE
  5
2BC
  8
OUTLINE
  6
CONTINUOUS
 62
     3
 10
-28.703723
 20
-64.500782000000001
 30
0.0
 11
-28.683682999999998
 21
-64.444603000000001
 31
0.0
  0
LINE
  5
2BD
  8
OUTLINE
  6
CONTINUOUS
 62
     3
 10
-28.741478000000011
 20
-64.500782000000001
 30
0.0
 11
-28.721532
 21
-64.444603000000001
 31
0.0
  0
LINE
  5
2BE
  8
OUTLINE
  6
CONTINUOUS
 62
     3
 10
-28.772983
 20
-64.500782000000001
 30
0.0
 11
-28.753135
 21
-64.444603000000001
 31
0.0
  0
LINE
  5
2BF
  8
OUTLINE
  6
CONTINUOUS
 62
     3
 10
-28.798238000000001
 20
-64.500782000000001
 30
0.0
 11
-28.783078
 21
-64.457660000000004
 31
0.0
  0
LINE
  5
2C0
  8
OUTLINE
  6
CONTINUOUS
 62
     3
 10
-28.817243000000001
 20
-64.500782000000001
 30
0.0
 11
-28.80753
 21
-64.473022999999998
 31
0.0
  0
LINE
  5
2C1
  8
OUTLINE
  6
CONTINUOUS
 62
     3
 10
-28.829998
 20
-64.500782000000001
 30
0.0
 11
-28.82573
 21
-64.488523000000001
 31
0.0
  0
ARC
  5
2C2
  8
OUTLINE
  6
CONTINUOUS
 62
     3
 10
-12.579402999999999
 20
-80.281330000000025
 30
0.0
 40
0.5
 50
1.0
 51
89.0
  0
ARC
  5
2C3
  8
OUTLINE
  6
CONTINUOUS
 62
     3
 10
-9.4215630000000008
 20
-80.336449999999985
 30
0.0
 40
0.5
 50
89.0
 51
179.0
  0
ARC
  5
2C4
  8
OUTLINE
  6
CONTINUOUS
 62
     3
 10
-11.508653000000001
 20
-84.325824999999995
 30
0.0
 40
0.5
 50
181.0004879999999
 51
270.0
  0
ARC
  5
2C5
  8
OUTLINE
  6
CONTINUOUS
 62
     3
 10
-10.491350000000001
 20
-84.325824999999995
 30
0.0
 40
0.5
 50
270.0
 51
358.99962799999997
  0
LINE
  5
2C6
  8
OUTLINE
  6
CONTINUOUS
 62
     3
 10
-11.508653000000001
 20
-84.825828000000016
 30
0.0
 11
-10.491350000000001
 21
-84.825828000000016
 31
0.0
  0
LINE
  5
2C7
  8
OUTLINE
  6
CONTINUOUS
 62
     3
 10
-9.9214850000000006
 20
-80.327725000000001
 30
0.0
 11
-9.9914249999999996
 21
-84.334554999999995
 31
0.0
  0
LINE
  5
2C8
  8
OUTLINE
  6
CONTINUOUS
 62
     3
 10
-12.079478
 20
-80.272604999999999
 30
0.0
 11
-12.008575
 21
-84.334554999999995
 31
0.0
  0
ARC
  5
2C9
  8
OUTLINE
  6
CONTINUOUS
 62
     3
 10
-0.5
 20
-79.492024999999998
 30
0.0
 40
0.5
 50
269.0
 51
0.0
  0
LINE
  5
2CA
  8
OUTLINE
  6
CONTINUOUS
 62
     3
 10
-0.6
 20
-79.990355000000008
 30
0.0
 11
-0.6
 21
-80.000555000000006
 31
0.0
  0
LINE
  5
2CB
  8
OUTLINE
  6
CONTINUOUS
 62
     3
 10
56.299659999999989
 20
-22.900555000000001
 30
0.0
 11
81.899659999999997
 21
-22.900555000000001
 31
0.0
  0
LINE
  5
2CC
  8
OUTLINE
  6
CONTINUOUS
 62
     3
 10
56.299659999999989
 20
-46.8583
 30
0.0
 11
56.299659999999989
 21
-22.900555000000001
 31
0.0
  0
ARC
  5
2CD
  8
OUTLINE
  6
CONTINUOUS
 62
     3
 10
55.799659999999989
 20
-46.858286999999997
 30
0.0
 40
0.5
 50
270.5
 51
0.0
  0
ARC
  5
2CE
  8
OUTLINE
  6
CONTINUOUS
 62
     3
 10
81.899659999999997
 20
-20.300554999999999
 30
0.0
 40
2.6000000000000001
 50
270.0
 51
0.0
  0
LINE
  5
2CF
  8
OUTLINE
  6
CONTINUOUS
 62
     3
 10
39.300221999999998
 20
47.501187000000002
 30
0.0
 11
0.0
 21
47.844155000000001
 31
0.0
  0
LINE
  5
2D0
  8
OUTLINE
  6
CONTINUOUS
 62
     3
 10
-28.618288
 20
64.561602000000008
 30
0.0
 11
-29.486068
 21
32.285580000000003
 31
0.0
  0
LINE
  5
2D1
  8
OUTLINE
  6
CONTINUOUS
 62
     3
 10
-28.668153000000011
 20
64.561602000000008
 30
0.0
 11
-29.535934999999998
 21
32.285580000000003
 31
0.0
  0
LINE
  5
2D2
  8
OUTLINE
  6
CONTINUOUS
 62
     3
 10
-28.711770000000001
 20
64.561602000000008
 30
0.0
 11
-29.579553000000001
 21
32.285580000000003
 31
0.0
  0
LINE
  5
2D3
  8
OUTLINE
  6
CONTINUOUS
 62
     3
 10
-28.749137999999999
 20
64.561602000000008
 30
0.0
 11
-29.616917999999998
 21
32.285580000000003
 31
0.0
  0
LINE
  5
2D4
  8
OUTLINE
  6
CONTINUOUS
 62
     3
 10
-28.780252999999998
 20
64.561602000000008
 30
0.0
 11
-29.648035
 21
32.285580000000003
 31
0.0
  0
LINE
  5
2D5
  8
OUTLINE
  6
CONTINUOUS
 62
     3
 10
-28.805119999999999
 20
64.561602000000008
 30
0.0
 11
-29.672899999999998
 21
32.285580000000003
 31
0.0
  0
LINE
  5
2D6
  8
OUTLINE
  6
CONTINUOUS
 62
     3
 10
-28.823734999999999
 20
64.561602000000008
 30
0.0
 11
-29.691514999999999
 21
32.285580000000003
 31
0.0
  0
LINE
  5
2D7
  8
OUTLINE
  6
CONTINUOUS
 62
     3
 10
-28.836099999999998
 20
64.561602000000008
 30
0.0
 11
-29.703883000000001
 21
32.285580000000003
 31
0.0
  0
LINE
  5
2D8
  8
OUTLINE
  6
CONTINUOUS
 62
     3
 10
-28.842217999999999
 20
64.561602000000008
 30
0.0
 11
-29.709997999999999
 21
32.285580000000003
 31
0.0
  0
LINE
  5
2D9
  8
OUTLINE
  6
CONTINUOUS
 62
     3
 10
-29.486068
 20
32.285580000000003
 30
0.0
 11
-29.775355000000001
 21
-0.000618
 31
0.0
  0
LINE
  5
2DA
  8
OUTLINE
  6
CONTINUOUS
 62
     3
 10
-29.535934999999998
 20
32.285580000000003
 30
0.0
 11
-29.825223000000001
 21
-0.000618
 31
0.0
  0
LINE
  5
2DB
  8
OUTLINE
  6
CONTINUOUS
 62
     3
 10
-29.579553000000001
 20
32.285580000000003
 30
0.0
 11
-29.868839999999999
 21
-0.000618
 31
0.0
  0
LINE
  5
2DC
  8
OUTLINE
  6
CONTINUOUS
 62
     3
 10
-29.616917999999998
 20
32.285580000000003
 30
0.0
 11
-29.906205
 21
-0.000618
 31
0.0
  0
LINE
  5
2DD
  8
OUTLINE
  6
CONTINUOUS
 62
     3
 10
-29.648035
 20
32.285580000000003
 30
0.0
 11
-29.937322000000002
 21
-0.000618
 31
0.0
  0
LINE
  5
2DE
  8
OUTLINE
  6
CONTINUOUS
 62
     3
 10
-29.672899999999998
 20
32.285580000000003
 30
0.0
 11
-29.962188000000001
 21
-0.000618
 31
0.0
  0
LINE
  5
2DF
  8
OUTLINE
  6
CONTINUOUS
 62
     3
 10
-29.691514999999999
 20
32.285580000000003
 30
0.0
 11
-29.980803000000002
 21
-0.000618
 31
0.0
  0
LINE
  5
2E0
  8
OUTLINE
  6
CONTINUOUS
 62
     3
 10
-29.703883000000001
 20
32.285580000000003
 30
0.0
 11
-29.993169999999999
 21
-0.000618
 31
0.0
  0
LINE
  5
2E1
  8
OUTLINE
  6
CONTINUOUS
 62
     3
 10
-29.709997999999999
 20
32.285580000000003
 30
0.0
 11
-29.999285
 21
-0.000618
 31
0.0
  0
LINE
  5
2E2
  8
OUTLINE
  6
CONTINUOUS
 62
     3
 10
-24.009585000000001
 20
79.580632999999992
 30
0.0
 11
-0.508728
 21
79.990840000000006
 31
0.0
  0
LINE
  5
2E3
  8
OUTLINE
  6
CONTINUOUS
 62
     3
 10
-28.711404999999999
 20
68.131119999999996
 30
0.0
 11
-28.572800000000001
 21
71.700355000000002
 31
0.0
  0
LINE
  5
2E4
  8
OUTLINE
  6
CONTINUOUS
 62
     3
 10
-28.837145
 20
64.506812999999994
 30
0.0
 11
-28.841328000000011
 21
64.553309999999996
 31
0.0
  0
LINE
  5
2E5
  8
OUTLINE
  6
CONTINUOUS
 62
     3
 10
-28.829998
 20
64.499674999999996
 30
0.0
 11
-28.835673
 21
64.561602000000008
 31
0.0
  0
LINE
  5
2E6
  8
OUTLINE
  6
CONTINUOUS
 62
     3
 10
-28.817243000000001
 20
64.499674999999996
 30
0.0
 11
-28.82302
 21
64.561602000000008
 31
0.0
  0
LINE
  5
2E7
  8
OUTLINE
  6
CONTINUOUS
 62
     3
 10
-28.798238000000001
 20
64.499674999999996
 30
0.0
 11
-28.804120000000001
 21
64.561602000000008
 31
0.0
  0
LINE
  5
2E8
  8
OUTLINE
  6
CONTINUOUS
 62
     3
 10
-28.772983
 20
64.499674999999996
 30
0.0
 11
-28.778967999999999
 21
64.561602000000008
 31
0.0
  0
LINE
  5
2E9
  8
OUTLINE
  6
CONTINUOUS
 62
     3
 10
-28.741478000000011
 20
64.499674999999996
 30
0.0
 11
-28.747565000000002
 21
64.561602000000008
 31
0.0
  0
LINE
  5
2EA
  8
OUTLINE
  6
CONTINUOUS
 62
     3
 10
-28.703723
 20
64.499674999999996
 30
0.0
 11
-28.709913
 21
64.561602000000008
 31
0.0
  0
LINE
  5
2EB
  8
OUTLINE
  6
CONTINUOUS
 62
     3
 10
-28.659718000000002
 20
64.499674999999996
 30
0.0
 11
-28.66601
 21
64.561602000000008
 31
0.0
  0
LINE
  5
2EC
  8
OUTLINE
  6
CONTINUOUS
 62
     3
 10
-28.721518
 20
64.443460000000002
 30
0.0
 11
-28.715288000000001
 21
64.430819999999997
 31
0.0
  0
LINE
  5
2ED
  8
OUTLINE
  6
CONTINUOUS
 62
     3
 10
-28.683675000000001
 20
64.443480000000008
 30
0.0
 11
-28.671968
 21
64.419792000000001
 31
0.0
  0
LINE
  5
2EE
  8
OUTLINE
  6
CONTINUOUS
 62
     3
 10
-28.639579999999999
 20
64.443492000000006
 30
0.0
 11
-28.622395000000001
 21
64.408819999999992
 31
0.0
  0
LINE
  5
2EF
  8
OUTLINE
  6
CONTINUOUS
 62
     3
 10
-28.82573
 20
64.487414999999999
 30
0.0
 11
-28.829998
 21
64.499674999999996
 31
0.0
  0
LINE
  5
2F0
  8
OUTLINE
  6
CONTINUOUS
 62
     3
 10
-28.80753
 20
64.471913000000001
 30
0.0
 11
-28.817243000000001
 21
64.499674999999996
 31
0.0
  0
LINE
  5
2F1
  8
OUTLINE
  6
CONTINUOUS
 62
     3
 10
-28.783078
 20
64.456552000000002
 30
0.0
 11
-28.798238000000001
 21
64.499674999999996
 31
0.0
  0
LINE
  5
2F2
  8
OUTLINE
  6
CONTINUOUS
 62
     3
 10
-28.753135
 20
64.443494999999999
 30
0.0
 11
-28.772983
 21
64.499674999999996
 31
0.0
  0
LINE
  5
2F3
  8
OUTLINE
  6
CONTINUOUS
 62
     3
 10
-28.721532
 20
64.443492000000006
 30
0.0
 11
-28.741478000000011
 21
64.499674999999996
 31
0.0
  0
LINE
  5
2F4
  8
OUTLINE
  6
CONTINUOUS
 62
     3
 10
-28.683682999999998
 20
64.443492000000006
 30
0.0
 11
-28.703723
 21
64.499674999999996
 31
0.0
  0
LINE
  5
2F5
  8
OUTLINE
  6
CONTINUOUS
 62
     3
 10
-28.639579999999999
 20
64.443492000000006
 30
0.0
 11
-28.659718000000002
 21
64.499674999999996
 31
0.0
  0
LINE
  5
2F6
  8
OUTLINE
  6
CONTINUOUS
 62
     3
 10
-28.836099999999998
 20
64.561602000000008
 30
0.0
 11
-28.842752999999998
 21
64.561602000000008
 31
0.0
  0
LINE
  5
2F7
  8
OUTLINE
  6
CONTINUOUS
 62
     3
 10
-28.836099999999998
 20
64.561602000000008
 30
0.0
 11
-28.835773
 21
64.557819999999992
 31
0.0
  0
LINE
  5
2F8
  8
OUTLINE
  6
CONTINUOUS
 62
     3
 10
-28.842932999999999
 20
64.561602000000008
 30
0.0
 11
-28.711404999999999
 21
68.131119999999996
 31
0.0
  0
ARC
  5
2F9
  8
OUTLINE
  6
CONTINUOUS
 62
     3
 10
-23.931049999999999
 20
75.081316999999984
 30
0.0
 40
4.5
 50
91.0
 51
177.605785
  0
LINE
  5
2FA
  8
OUTLINE
  6
CONTINUOUS
 62
     3
 10
-28.572800000000001
 20
71.700355000000002
 30
0.0
 11
-28.427123000000002
 21
75.269302999999994
 31
0.0
  0
ARC
  5
2FB
  8
OUTLINE
  6
CONTINUOUS
 62
     3
 10
-0.5
 20
79.49091700000001
 30
0.0
 40
0.5
 50
0.0
 51
91.0
  0
LINE
  5
2FC
  8
OUTLINE
  6
CONTINUOUS
 62
     3
 10
56.299659999999989
 20
22.899445
 30
0.0
 11
56.299659999999989
 21
46.491486999999999
 31
0.0
  0
ARC
  5
2FD
  8
OUTLINE
  6
CONTINUOUS
 62
     3
 10
81.899659999999997
 20
20.299444999999999
 30
0.0
 40
2.6000000000000001
 50
0.0
 51
90.0
  0
LINE
  5
2FE
  8
OUTLINE
  6
CONTINUOUS
 62
     3
 10
56.299659999999989
 20
22.899445
 30
0.0
 11
81.899659999999997
 21
22.899445
 31
0.0
  0
LINE
  5
2FF
  8
OUTLINE
  6
CONTINUOUS
 62
     3
 10
39.610576999999999
 20
47.492684999999987
 30
0.0
 11
39.379032000000002
 21
47.500002999999992
 31
0.0
  0
LINE
  5
300
  8
OUTLINE
  6
CONTINUOUS
 62
     3
 10
39.379032000000002
 20
47.500002999999992
 30
0.0
 11
39.295242000000002
 21
47.501227999999998
 31
0.0
  0
LINE
  5
301
  8
OUTLINE
  6
CONTINUOUS
 62
     3
 10
39.499600000000001
 20
46.966676999999997
 30
0.0
 11
39.499582000000011
 21
46.962284999999987
 31
0.0
  0
LINE
  5
302
  8
OUTLINE
  6
CONTINUOUS
 62
     3
 10
51.753186999999997
 20
47.108232999999998
 30
0.0
 11
47.58567
 21
47.219807999999993
 31
0.0
  0
LINE
  5
303
  8
OUTLINE
  6
CONTINUOUS
 62
     3
 10
47.58567
 20
47.219807999999993
 30
0.0
 11
42.955730000000003
 21
47.33314
 31
0.0
  0
LINE
  5
304
  8
OUTLINE
  6
CONTINUOUS
 62
     3
 10
42.286416999999993
 20
47.357295000000001
 30
0.0
 11
41.677325000000003
 21
47.384321999999997
 31
0.0
  0
LINE
  5
305
  8
OUTLINE
  6
CONTINUOUS
 62
     3
 10
42.955730000000003
 20
47.33314
 30
0.0
 11
42.286416999999993
 21
47.357295000000001
 31
0.0
  0
LINE
  5
306
  8
OUTLINE
  6
CONTINUOUS
 62
     3
 10
41.677325000000003
 20
47.384321999999997
 30
0.0
 11
39.896619999999999
 21
47.479514999999999
 31
0.0
  0
LINE
  5
307
  8
OUTLINE
  6
CONTINUOUS
 62
     3
 10
39.896619999999999
 20
47.479514999999999
 30
0.0
 11
39.610576999999999
 21
47.492684999999987
 31
0.0
  0
LINE
  5
308
  8
OUTLINE
  6
CONTINUOUS
 62
     3
 10
55.815042000000012
 20
46.988572999999988
 30
0.0
 11
51.753186999999997
 21
47.108232999999998
 31
0.0
  0
LINE
  5
309
  8
OUTLINE
  6
CONTINUOUS
 62
     3
 10
55.931825000000011
 20
46.97102499999999
 30
0.0
 11
55.815064999999997
 21
46.988570000000003
 31
0.0
  0
LINE
  5
30A
  8
OUTLINE
  6
CONTINUOUS
 62
     3
 10
56.053682000000002
 20
46.919471999999999
 30
0.0
 11
55.931825000000011
 21
46.97102499999999
 31
0.0
  0
LINE
  5
30B
  8
OUTLINE
  6
CONTINUOUS
 62
     3
 10
56.156880000000008
 20
46.838656999999998
 30
0.0
 11
56.053682000000002
 21
46.919471999999999
 31
0.0
  0
LINE
  5
30C
  8
OUTLINE
  6
CONTINUOUS
 62
     3
 10
56.234875000000002
 20
46.734952999999997
 30
0.0
 11
56.156880000000008
 21
46.838656999999998
 31
0.0
  0
LINE
  5
30D
  8
OUTLINE
  6
CONTINUOUS
 62
     3
 10
56.283267000000002
 20
46.61578699999999
 30
0.0
 11
56.234875000000002
 21
46.734952999999997
 31
0.0
  0
LINE
  5
30E
  8
OUTLINE
  6
CONTINUOUS
 62
     3
 10
56.299659999999989
 20
46.488807000000001
 30
0.0
 11
56.283267000000002
 21
46.61578699999999
 31
0.0
  0
CIRCLE
  5
30F
  8
FIX
  6
CONTINUOUS
 62
    11
 39
50.0
 10
0.0
 20
6.0
 30
0.0
 40
2.0
  0
CIRCLE
  5
310
  8
FIX
  6
CONTINUOUS
 62
    11
 39
50.0
 10
0.0
 20
-70.0
 30
0.0
 40
2.0
  0
CIRCLE
  5
311
  8
FIX
  6
CONTINUOUS
 62
    11
 39
50.0
 10
0.0
 20
70.0
 30
0.0
 40
2.0
  0
LINE
  5
312
  8
SIZE
  6
CONTINUOUS
 62
    30
 10
0.0
 20
-77.092562000000001
 30
0.0
 11
0.0
 21
-325.07277900000003
 31
0.0
  0
LINE
  5
313
  8
SIZE
  6
CONTINUOUS
 62
    30
 10
-29.775355000000001
 20
-20.000617999999999
 30
0.0
 11
-29.775355000000001
 21
-325.07277900000003
 31
0.0
  0
LINE
  5
314
  8
SIZE
  6
CONTINUOUS
 62
    30
 10
12.0
 20
-305.07277900000003
 30
0.0
 11
24.0
 21
-305.07277900000003
 31
0.0
  0
LINE
  5
315
  8
SIZE
  6
CONTINUOUS
 62
    30
 10
-41.775354999999998
 20
-305.07277900000003
 30
0.0
 11
-230.69953899999999
 21
-305.07277900000003
 31
0.0
  0
LINE
  5
316
  8
SIZE
  6
CONTINUOUS
 62
    30
 10
0.0
 20
-305.07277900000003
 30
0.0
 11
-29.775355000000001
 21
-305.07277900000003
 31
0.0
  0
CIRCLE
  5
317
  8
SIZE
  6
CONTINUOUS
 62
    30
 10
0.0
 20
-305.07277900000003
 30
0.0
 40
6.0
  0
LINE
  5
318
  8
SIZE
  6
CONTINUOUS
 62
    30
 10
0.0
 20
-305.07277900000003
 30
0.0
 11
12.0
 21
-305.07277900000003
 31
0.0
  0
CIRCLE
  5
319
  8
SIZE
  6
CONTINUOUS
 62
    30
 10
-29.775355000000001
 20
-305.07277900000003
 30
0.0
 40
6.0
  0
LINE
  5
31A
  8
SIZE
  6
CONTINUOUS
 62
    30
 10
-29.775355000000001
 20
-305.07277900000003
 30
0.0
 11
-41.775354999999998
 21
-305.07277900000003
 31
0.0
  0
TEXT
  5
31B
  8
SIZE
  6
CONTINUOUS
 62
    30
 10
-205.6995394285714
 20
-280.07277900000003
 30
0.0
 40
64.0
  1
30
 41
0.9
 72
     1
 11
-159.07096799999999
 21
-280.07277900000003
 31
0.0
  0
POINT
  5
31C
  8
DEFPOINTS
  6
CONTINUOUS
 62
    30
 10
0.0
 20
-57.092562000000001
 30
0.0
  0
POINT
  5
31D
  8
DEFPOINTS
  6
CONTINUOUS
 62
    30
 10
-29.775355000000001
 20
-0.000618
 30
0.0
  0
POINT
  5
31E
  8
DEFPOINTS
  6
CONTINUOUS
 62
    30
 10
-29.775355000000001
 20
-305.07277900000003
 30
0.0
  0
LINE
  5
31F
  8
SIZE
  6
CONTINUOUS
 62
    30
 10
0.0
 20
-82.365690999999998
 30
0.0
 11
0.0
 21
-205.072779
 31
0.0
  0
LINE
  5
320
  8
SIZE
  6
CONTINUOUS
 62
    30
 10
56.499659999999999
 20
-59.601058000000002
 30
0.0
 11
56.499659999999999
 21
-205.072779
 31
0.0
  0
LINE
  5
321
  8
SIZE
  6
CONTINUOUS
 62
    30
 10
-12.0
 20
-185.072779
 30
0.0
 11
-24.0
 21
-185.072779
 31
0.0
  0
LINE
  5
322
  8
SIZE
  6
CONTINUOUS
 62
    30
 10
68.499659999999992
 20
-185.072779
 30
0.0
 11
306.04251699999998
 21
-185.072779
 31
0.0
  0
LINE
  5
323
  8
SIZE
  6
CONTINUOUS
 62
    30
 10
0.0
 20
-185.072779
 30
0.0
 11
56.499659999999999
 21
-185.072779
 31
0.0
  0
CIRCLE
  5
324
  8
SIZE
  6
CONTINUOUS
 62
    30
 10
0.0
 20
-185.072779
 30
0.0
 40
6.0
  0
LINE
  5
325
  8
SIZE
  6
CONTINUOUS
 62
    30
 10
0.0
 20
-185.072779
 30
0.0
 11
-12.0
 21
-185.072779
 31
0.0
  0
CIRCLE
  5
326
  8
SIZE
  6
CONTINUOUS
 62
    30
 10
56.499659999999999
 20
-185.072779
 30
0.0
 40
6.0
  0
LINE
  5
327
  8
SIZE
  6
CONTINUOUS
 62
    30
 10
56.499659999999999
 20
-185.072779
 30
0.0
 11
68.499659999999992
 21
-185.072779
 31
0.0
  0
TEXT
  5
328
  8
SIZE
  6
CONTINUOUS
 62
    30
 10
105.4996604285714
 20
-160.072779
 30
0.0
 40
64.0
  1
56.5
 41
0.9
 72
     1
 11
193.27108899999999
 21
-160.072779
 31
0.0
  0
POINT
  5
329
  8
DEFPOINTS
  6
CONTINUOUS
 62
    30
 10
0.0
 20
-62.365690999999998
 30
0.0
  0
POINT
  5
32A
  8
DEFPOINTS
  6
CONTINUOUS
 62
    30
 10
56.499659999999999
 20
-39.601058000000002
 30
0.0
  0
POINT
  5
32B
  8
DEFPOINTS
  6
CONTINUOUS
 62
    30
 10
56.499659999999999
 20
-185.072779
 30
0.0
  0
LINE
  5
32C
  8
SIZE
  6
CONTINUOUS
 62
    30
 10
0.0
 20
-94.702767000000009
 30
0.0
 11
0.0
 21
-325.07277900000003
 31
0.0
  0
LINE
  5
32D
  8
SIZE
  6
CONTINUOUS
 62
    30
 10
84.499659999999992
 20
-35.077044999999998
 30
0.0
 11
84.499659999999992
 21
-325.07277900000003
 31
0.0
  0
LINE
  5
32E
  8
SIZE
  6
CONTINUOUS
 62
    30
 10
12.0
 20
-305.07277900000003
 30
0.0
 11
72.499659999999992
 21
-305.07277900000003
 31
0.0
  0
LINE
  5
32F
  8
SIZE
  6
CONTINUOUS
 62
    30
 10
84.499659999999992
 20
-305.07277900000003
 30
0.0
 11
322.04251699999998
 21
-305.07277900000003
 31
0.0
  0
CIRCLE
  5
330
  8
SIZE
  6
CONTINUOUS
 62
    30
 10
0.0
 20
-305.07277900000003
 30
0.0
 40
6.0
  0
LINE
  5
331
  8
SIZE
  6
CONTINUOUS
 62
    30
 10
0.0
 20
-305.07277900000003
 30
0.0
 11
12.0
 21
-305.07277900000003
 31
0.0
  0
CIRCLE
  5
332
  8
SIZE
  6
CONTINUOUS
 62
    30
 10
84.499659999999992
 20
-305.07277900000003
 30
0.0
 40
6.0
  0
LINE
  5
333
  8
SIZE
  6
CONTINUOUS
 62
    30
 10
84.499659999999992
 20
-305.07277900000003
 30
0.0
 11
72.499659999999992
 21
-305.07277900000003
 31
0.0
  0
TEXT
  5
334
  8
SIZE
  6
CONTINUOUS
 62
    30
 10
121.4996604285714
 20
-280.07277900000003
 30
0.0
 40
64.0
  1
84.5
 41
0.9
 72
     1
 11
209.27108899999999
 21
-280.07277900000003
 31
0.0
  0
POINT
  5
335
  8
DEFPOINTS
  6
CONTINUOUS
 62
    30
 10
0.0
 20
-74.702767000000009
 30
0.0
  0
POINT
  5
336
  8
DEFPOINTS
  6
CONTINUOUS
 62
    30
 10
84.499659999999992
 20
-15.077045
 30
0.0
  0
POINT
  5
337
  8
DEFPOINTS
  6
CONTINUOUS
 62
    30
 10
84.499659999999992
 20
-305.07277900000003
 30
0.0
  0
LINE
  5
338
  8
SIZE
  6
CONTINUOUS
 62
    30
 10
95.003276
 20
-22.900555000000001
 30
0.0
 11
226.921606
 21
-22.900555000000001
 31
0.0
  0
LINE
  5
339
  8
SIZE
  6
CONTINUOUS
 62
    30
 10
95.649659999999997
 20
22.899445
 30
0.0
 11
226.921606
 21
22.899445
 31
0.0
  0
LINE
  5
33A
  8
SIZE
  6
CONTINUOUS
 62
    30
 10
206.921606
 20
-34.900554999999997
 30
0.0
 11
206.921606
 21
-46.90055499999999
 31
0.0
  0
LINE
  5
33B
  8
SIZE
  6
CONTINUOUS
 62
    30
 10
206.921606
 20
34.899445
 30
0.0
 11
206.921606
 21
245.01373100000001
 31
0.0
  0
LINE
  5
33C
  8
SIZE
  6
CONTINUOUS
 62
    30
 10
206.921606
 20
-22.900555000000001
 30
0.0
 11
206.921606
 21
22.899445
 31
0.0
  0
CIRCLE
  5
33D
  8
SIZE
  6
CONTINUOUS
 62
    30
 10
206.921606
 20
-22.900555000000001
 30
0.0
 40
6.0
  0
LINE
  5
33E
  8
SIZE
  6
CONTINUOUS
 62
    30
 10
206.921606
 20
-22.900555000000001
 30
0.0
 11
206.921606
 21
-34.900554999999997
 31
0.0
  0
CIRCLE
  5
33F
  8
SIZE
  6
CONTINUOUS
 62
    30
 10
206.921606
 20
22.899445
 30
0.0
 40
6.0
  0
LINE
  5
340
  8
SIZE
  6
CONTINUOUS
 62
    30
 10
206.921606
 20
22.899445
 30
0.0
 11
206.921606
 21
34.899445
 31
0.0
  0
TEXT
  5
341
  8
SIZE
  6
CONTINUOUS
 62
    30
 10
181.921606
 20
60.379445142857122
 30
0.0
 40
64.0
  1
âË46
 50
90.0
 41
0.9
 72
     1
 11
181.921606
 21
145.9565879999999
 31
0.0
  0
POINT
  5
342
  8
DEFPOINTS
  6
CONTINUOUS
 62
    30
 10
75.003276
 20
-22.900555000000001
 30
0.0
  0
POINT
  5
343
  8
DEFPOINTS
  6
CONTINUOUS
 62
    30
 10
75.649659999999997
 20
22.899445
 30
0.0
  0
POINT
  5
344
  8
DEFPOINTS
  6
CONTINUOUS
 62
    30
 10
206.921606
 20
22.899445
 30
0.0
  0
LINE
  5
345
  8
SIZE
  6
CONTINUOUS
 62
    30
 10
20.0
 20
-47.545261999999987
 30
0.0
 11
346.921606
 21
-47.545261999999987
 31
0.0
  0
LINE
  5
346
  8
SIZE
  6
CONTINUOUS
 62
    30
 10
20.0
 20
47.544154999999989
 30
0.0
 11
346.921606
 21
47.544154999999989
 31
0.0
  0
LINE
  5
347
  8
SIZE
  6
CONTINUOUS
 62
    30
 10
326.921606
 20
-35.545262000000001
 30
0.0
 11
326.921606
 21
35.544155000000003
 31
0.0
  0
LINE
  5
348
  8
SIZE
  6
CONTINUOUS
 62
    30
 10
326.921606
 20
47.544154999999989
 30
0.0
 11
326.921606
 21
260.401298
 31
0.0
  0
CIRCLE
  5
349
  8
SIZE
  6
CONTINUOUS
 62
    30
 10
326.921606
 20
-47.545261999999987
 30
0.0
 40
6.0
  0
LINE
  5
34A
  8
SIZE
  6
CONTINUOUS
 62
    30
 10
326.921606
 20
-47.545261999999987
 30
0.0
 11
326.921606
 21
-35.545262000000001
 31
0.0
  0
CIRCLE
  5
34B
  8
SIZE
  6
CONTINUOUS
 62
    30
 10
326.921606
 20
47.544154999999989
 30
0.0
 40
6.0
  0
LINE
  5
34C
  8
SIZE
  6
CONTINUOUS
 62
    30
 10
326.921606
 20
47.544154999999989
 30
0.0
 11
326.921606
 21
35.544155000000003
 31
0.0
  0
TEXT
  5
34D
  8
SIZE
  6
CONTINUOUS
 62
    30
 10
301.921606
 20
73.024154571428554
 30
0.0
 40
64.0
  1
âË95
 50
90.0
 41
0.9
 72
     1
 11
301.921606
 21
159.97272599999999
 31
0.0
  0
POINT
  5
34E
  8
DEFPOINTS
  6
CONTINUOUS
 62
    30
 10
0.0
 20
-47.545261999999987
 30
0.0
  0
POINT
  5
34F
  8
DEFPOINTS
  6
CONTINUOUS
 62
    30
 10
0.0
 20
47.544154999999989
 30
0.0
  0
POINT
  5
350
  8
DEFPOINTS
  6
CONTINUOUS
 62
    30
 10
326.921606
 20
47.544154999999989
 30
0.0
  0
LINE
  5
351
  8
SIZE
  6
CONTINUOUS
 62
    30
 10
-26.0
 20
70.0
 30
0.0
 11
-308.32960700000001
 21
70.0
 31
0.0
  0
LINE
  5
352
  8
SIZE
  6
CONTINUOUS
 62
    30
 10
-68.767208999999994
 20
0.0
 30
0.0
 11
-308.32960700000001
 21
0.0
 31
0.0
  0
LINE
  5
353
  8
SIZE
  6
CONTINUOUS
 62
    30
 10
-288.32960700000001
 20
-12.0
 30
0.0
 11
-288.32960700000001
 21
-24.0
 31
0.0
  0
LINE
  5
354
  8
SIZE
  6
CONTINUOUS
 62
    30
 10
-288.32960700000001
 20
82.0
 30
0.0
 11
-288.32960700000001
 21
237.25714300000001
 31
0.0
  0
LINE
  5
355
  8
SIZE
  6
CONTINUOUS
 62
    30
 10
-288.32960700000001
 20
0.0
 30
0.0
 11
-288.32960700000001
 21
70.0
 31
0.0
  0
CIRCLE
  5
356
  8
SIZE
  6
CONTINUOUS
 62
    30
 10
-288.32960700000001
 20
0.0
 30
0.0
 40
6.0
  0
LINE
  5
357
  8
SIZE
  6
CONTINUOUS
 62
    30
 10
-288.32960700000001
 20
0.0
 30
0.0
 11
-288.32960700000001
 21
-12.0
 31
0.0
  0
CIRCLE
  5
358
  8
SIZE
  6
CONTINUOUS
 62
    30
 10
-288.32960700000001
 20
70.0
 30
0.0
 40
6.0
  0
LINE
  5
359
  8
SIZE
  6
CONTINUOUS
 62
    30
 10
-288.32960700000001
 20
70.0
 30
0.0
 11
-288.32960700000001
 21
82.0
 31
0.0
  0
TEXT
  5
35A
  8
SIZE
  6
CONTINUOUS
 62
    30
 10
-313.32960700000001
 20
118.9999995714285
 30
0.0
 40
64.0
  1
70
 50
90.0
 41
0.9
 72
     1
 11
-313.32960700000001
 21
165.62857099999999
 31
0.0
  0
POINT
  5
35B
  8
DEFPOINTS
  6
CONTINUOUS
 62
    30
 10
-6.0
 20
70.0
 30
0.0
  0
POINT
  5
35C
  8
DEFPOINTS
  6
CONTINUOUS
 62
    30
 10
-48.767209000000001
 20
0.0
 30
0.0
  0
POINT
  5
35D
  8
DEFPOINTS
  6
CONTINUOUS
 62
    30
 10
-288.32960700000001
 20
0.0
 30
0.0
  0
LINE
  5
35E
  8
SIZE
  6
CONTINUOUS
 62
    30
 10
-68.767208999999994
 20
0.0
 30
0.0
 11
-308.32960700000001
 21
0.0
 31
0.0
  0
LINE
  5
35F
  8
SIZE
  6
CONTINUOUS
 62
    30
 10
-25.0
 20
-70.0
 30
0.0
 11
-308.32960700000001
 21
-70.0
 31
0.0
  0
LINE
  5
360
  8
SIZE
  6
CONTINUOUS
 62
    30
 10
-288.32960700000001
 20
12.0
 30
0.0
 11
-288.32960700000001
 21
24.0
 31
0.0
  0
LINE
  5
361
  8
SIZE
  6
CONTINUOUS
 62
    30
 10
-288.32960700000001
 20
-82.0
 30
0.0
 11
-288.32960700000001
 21
-237.25714300000001
 31
0.0
  0
LINE
  5
362
  8
SIZE
  6
CONTINUOUS
 62
    30
 10
-288.32960700000001
 20
0.0
 30
0.0
 11
-288.32960700000001
 21
-70.0
 31
0.0
  0
CIRCLE
  5
363
  8
SIZE
  6
CONTINUOUS
 62
    30
 10
-288.32960700000001
 20
0.0
 30
0.0
 40
6.0
  0
LINE
  5
364
  8
SIZE
  6
CONTINUOUS
 62
    30
 10
-288.32960700000001
 20
0.0
 30
0.0
 11
-288.32960700000001
 21
12.0
 31
0.0
  0
CIRCLE
  5
365
  8
SIZE
  6
CONTINUOUS
 62
    30
 10
-288.32960700000001
 20
-70.0
 30
0.0
 40
6.0
  0
LINE
  5
366
  8
SIZE
  6
CONTINUOUS
 62
    30
 10
-288.32960700000001
 20
-70.0
 30
0.0
 11
-288.32960700000001
 21
-82.0
 31
0.0
  0
TEXT
  5
367
  8
SIZE
  6
CONTINUOUS
 62
    30
 10
-313.32960700000001
 20
-212.2571424285714
 30
0.0
 40
64.0
  1
70
 50
90.0
 41
0.9
 72
     1
 11
-313.32960700000001
 21
-165.62857099999999
 31
0.0
  0
POINT
  5
368
  8
DEFPOINTS
  6
CONTINUOUS
 62
    30
 10
-48.767209000000001
 20
0.0
 30
0.0
  0
POINT
  5
369
  8
DEFPOINTS
  6
CONTINUOUS
 62
    30
 10
-5.0
 20
-70.0
 30
0.0
  0
POINT
  5
36A
  8
DEFPOINTS
  6
CONTINUOUS
 62
    30
 10
-288.32960700000001
 20
-70.0
 30
0.0
  0
LINE
  5
36B
  8
SIZE
  6
CONTINUOUS
 62
    30
 10
-68.767208999999994
 20
0.0
 30
0.0
 11
-188.32960700000001
 21
0.0
 31
0.0
  0
LINE
  5
36C
  8
SIZE
  6
CONTINUOUS
 62
    30
 10
-21.985032
 20
5.755774999999999
 30
0.0
 11
-188.32960700000001
 21
5.755774999999999
 31
0.0
  0
LINE
  5
36D
  8
SIZE
  6
CONTINUOUS
 62
    30
 10
-168.32960700000001
 20
-12.0
 30
0.0
 11
-168.32960700000001
 21
-24.0
 31
0.0
  0
LINE
  5
36E
  8
SIZE
  6
CONTINUOUS
 62
    30
 10
-168.32960700000001
 20
17.755775
 30
0.0
 11
-168.32960700000001
 21
152.38860600000001
 31
0.0
  0
LINE
  5
36F
  8
SIZE
  6
CONTINUOUS
 62
    30
 10
-168.32960700000001
 20
0.0
 30
0.0
 11
-168.32960700000001
 21
5.755774999999999
 31
0.0
  0
CIRCLE
  5
370
  8
SIZE
  6
CONTINUOUS
 62
    30
 10
-168.32960700000001
 20
0.0
 30
0.0
 40
6.0
  0
LINE
  5
371
  8
SIZE
  6
CONTINUOUS
 62
    30
 10
-168.32960700000001
 20
0.0
 30
0.0
 11
-168.32960700000001
 21
-12.0
 31
0.0
  0
CIRCLE
  5
372
  8
SIZE
  6
CONTINUOUS
 62
    30
 10
-168.32960700000001
 20
5.755774999999999
 30
0.0
 40
6.0
  0
LINE
  5
373
  8
SIZE
  6
CONTINUOUS
 62
    30
 10
-168.32960700000001
 20
5.755774999999999
 30
0.0
 11
-168.32960700000001
 21
17.755775
 31
0.0
  0
TEXT
  5
374
  8
SIZE
  6
CONTINUOUS
 62
    30
 10
-193.32960700000001
 20
91.731463571428606
 30
0.0
 40
64.0
  1
6
 50
90.0
 41
0.9
 72
     1
 11
-193.32960700000001
 21
109.560035
 31
0.0
  0
POINT
  5
375
  8
DEFPOINTS
  6
CONTINUOUS
 62
    30
 10
-48.767209000000001
 20
0.0
 30
0.0
  0
POINT
  5
376
  8
DEFPOINTS
  6
CONTINUOUS
 62
    30
 10
-1.985031999999999
 20
5.755774999999999
 30
0.0
  0
POINT
  5
377
  8
DEFPOINTS
  6
CONTINUOUS
 62
    30
 10
-168.32960700000001
 20
5.755774999999999
 30
0.0
  0
LINE
  5
378
  8
SIZE
  6
CONTINUOUS
 62
    30
 10
-20.0
 20
79.99091700000001
 30
0.0
 11
-428.32960700000001
 21
79.99091700000001
 31
0.0
  0
LINE
  5
379
  8
SIZE
  6
CONTINUOUS
 62
    30
 10
-20.0
 20
-79.992024999999984
 30
0.0
 11
-428.32960700000001
 21
-79.992024999999984
 31
0.0
  0
LINE
  5
37A
  8
SIZE
  6
CONTINUOUS
 62
    30
 10
-408.32960700000001
 20
67.99091700000001
 30
0.0
 11
-408.32960700000001
 21
-67.992024999999984
 31
0.0
  0
CIRCLE
  5
37B
  8
SIZE
  6
CONTINUOUS
 62
    30
 10
-408.32960700000001
 20
79.99091700000001
 30
0.0
 40
6.0
  0
LINE
  5
37C
  8
SIZE
  6
CONTINUOUS
 62
    30
 10
-408.32960700000001
 20
79.99091700000001
 30
0.0
 11
-408.32960700000001
 21
67.99091700000001
 31
0.0
  0
CIRCLE
  5
37D
  8
SIZE
  6
CONTINUOUS
 62
    30
 10
-408.32960700000001
 20
-79.992024999999984
 30
0.0
 40
6.0
  0
LINE
  5
37E
  8
SIZE
  6
CONTINUOUS
 62
    30
 10
-408.32960700000001
 20
-79.992024999999984
 30
0.0
 11
-408.32960700000001
 21
-67.992024999999984
 31
0.0
  0
TEXT
  5
37F
  8
SIZE
  6
CONTINUOUS
 62
    30
 10
-433.32960700000001
 20
-105.0519825714285
 30
0.0
 40
64.0
  1
üá160
 50
90.0
 41
0.9
 72
     1
 11
-433.32960700000001
 21
-0.000554
 31
0.0
  0
POINT
  5
380
  8
DEFPOINTS
  6
CONTINUOUS
 62
    30
 10
0.0
 20
79.99091700000001
 30
0.0
  0
POINT
  5
381
  8
DEFPOINTS
  6
CONTINUOUS
 62
    30
 10
0.0
 20
-79.992024999999984
 30
0.0
  0
POINT
  5
382
  8
DEFPOINTS
  6
CONTINUOUS
 62
    30
 10
-408.32960700000001
 20
-79.992024999999984
 30
0.0
  0
LINE
  5
383
  8
NOTE
  6
CONTINUOUS
 62
     4
 39
50.0
 10
0.0
 20
70.0
 30
0.0
 11
-156.77844999999999
 21
401.30406899999991
 31
0.0
  0
LINE
  5
384
  8
NOTE
  6
CONTINUOUS
 62
     4
 39
50.0
 10
-156.77844999999999
 20
401.30406899999991
 30
0.0
 11
-320.825851
 21
401.30406899999991
 31
0.0
  0
TEXT
  5
385
  8
NOTE
  6
CONTINUOUS
 62
     4
 10
-306.97324700000001
 20
414.335083
 30
0.0
 40
40.0
  1
âË5ü~7
 41
0.9
  0
LINE
  5
386
  8
NOTE
  6
CONTINUOUS
 62
     4
 39
50.0
 10
0.0
 20
70.0
 30
0.0
 11
-1.4299949999999999
 21
78.796831000000012
 31
0.0
  0
LINE
  5
387
  8
NOTE
  6
CONTINUOUS
 62
     4
 39
50.0
 10
0.0
 20
70.0
 30
0.0
 11
-5.8956099999999987
 21
76.683630000000008
 31
0.0
  0
TEXT
  5
390
  8
ETC
  6
CONTINUOUS
 62
    61
 10
287.71911487998159
 20
559.70901335666713
 30
0.0
 40
40.0
  1
V-08PQ6_4
 41
0.9
  0
TEXT
  5
391
  8
ETC
  6
CONTINUOUS
 62
    61
 10
283.5331208799816
 20
499.01273435666701
 30
0.0
 40
40.0
  1
èÀïCÉ¯
 41
0.9
  0
TEXT
  5
392
  8
ETC
  6
CONTINUOUS
 62
    61
 10
334.1406238799816
 20
417.142624356667
 30
0.0
 40
40.0
  1
V-08PQ6
 41
0.9
  0
TEXT
  5
393
  8
ETC
  6
CONTINUOUS
 62
    61
 10
334.1406238799816
 20
356.95105867507209
 30
0.0
 40
40.0
  1
V-08PPQ6
 41
0.9
  0
ENDSEC
  0
EOF
