  0
SECTION
  2
HEADER
  9
$ACADVER
  1
AC1009
  9
$DWGCODEPAGE
  3
dos932
  9
$INSBASE
 10
0.0
 20
0.0
 30
0.0
  9
$EXTMIN
 10
-490.63110199999988
 20
-392.183852
 30
0.0
  9
$EXTMAX
 10
547.30473839603098
 20
522.85586855462884
 30
50.0
  9
$LIMMIN
 10
-2970.0
 20
-2100.0
  9
$LIMMAX
 10
2970.0
 20
2100.0
  9
$ORTHOMODE
 70
     1
  9
$REGENMODE
 70
     1
  9
$FILLMODE
 70
     1
  9
$QTEXTMODE
 70
     0
  9
$MIRRTEXT
 70
     0
  9
$LTSCALE
 40
20.0
  9
$ATTMODE
 70
     1
  9
$TEXTSIZE
 40
64.0
  9
$TRACEWID
 40
0.05
  9
$TEXTSTYLE
  7
STANDARD
  9
$CLAYER
  8
NOTE
  9
$CELTYPE
  6
CONTINUOUS
  9
$CECOLOR
 62
     7
  9
$DIMSCALE
 40
1.0
  9
$DIMASZ
 40
12.0
  9
$DIMEXO
 40
20.0
  9
$DIMDLI
 40
200.0
  9
$DIMRND
 40
0.0
  9
$DIMDLE
 40
0.0
  9
$DIMEXE
 40
20.0
  9
$DIMTP
 40
0.0
  9
$DIMTM
 40
0.0
  9
$DIMTXT
 40
64.0
  9
$DIMCEN
 40
0.09
  9
$DIMTSZ
 40
0.0
  9
$DIMTOL
 70
     0
  9
$DIMLIM
 70
     0
  9
$DIMTIH
 70
     0
  9
$DIMTOH
 70
     0
  9
$DIMSE1
 70
     0
  9
$DIMSE2
 70
     0
  9
$DIMTAD
 70
     1
  9
$DIMZIN
 70
     8
  9
$DIMBLK
  1

  9
$DIMASO
 70
     1
  9
$DIMSHO
 70
     0
  9
$DIMPOST
  1

  9
$DIMAPOST
  1

  9
$DIMALT
 70
     0
  9
$DIMALTD
 70
     2
  9
$DIMALTF
 40
25.399999999999999
  9
$DIMLFAC
 40
1.0
  9
$DIMTOFL
 70
     1
  9
$DIMTVP
 40
0.0
  9
$DIMTIX
 70
     1
  9
$DIMSOXD
 70
     0
  9
$DIMSAH
 70
     0
  9
$DIMBLK1
  1

  9
$DIMBLK2
  1

  9
$DIMSTYLE
  2
STANDARD
  9
$DIMCLRD
 70
     7
  9
$DIMCLRE
 70
     7
  9
$DIMCLRT
 70
     7
  9
$DIMTFAC
 40
1.0
  9
$DIMGAP
 40
25.0
  9
$LUNITS
 70
     2
  9
$LUPREC
 70
     4
  9
$SKETCHINC
 40
0.1
  9
$FILLETRAD
 40
3.0
  9
$AUNITS
 70
     1
  9
$AUPREC
 70
     3
  9
$MENU
  1
ACAD
  9
$ELEVATION
 40
0.0
  9
$PELEVATION
 40
0.0
  9
$THICKNESS
 40
50.0
  9
$LIMCHECK
 70
     0
  9
$CHAMFERA
 40
0.0
  9
$CHAMFERB
 40
0.0
  9
$SKPOLY
 70
     0
  9
$TDCREATE
 40
2453019.623009259
  9
$TDUPDATE
 40
2459356.655050278
  9
$TDINDWG
 40
1.6801922222
  9
$TDUSRTIMER
 40
1.6801920486
  9
$USRTIMER
 70
     1
  9
$ANGBASE
 50
0.0
  9
$ANGDIR
 70
     0
  9
$PDMODE
 70
     3
  9
$PDSIZE
 40
-2.0
  9
$PLINEWID
 40
0.0
  9
$SPLFRAME
 70
     0
  9
$SPLINETYPE
 70
     6
  9
$SPLINESEGS
 70
     8
  9
$SURFTAB1
 70
     6
  9
$SURFTAB2
 70
     6
  9
$SURFTYPE
 70
     6
  9
$SURFU
 70
     6
  9
$SURFV
 70
     6
  9
$UCSNAME
  2

  9
$UCSORG
 10
0.0
 20
0.0
 30
0.0
  9
$UCSXDIR
 10
1.0
 20
0.0
 30
0.0
  9
$UCSYDIR
 10
0.0
 20
1.0
 30
0.0
  9
$PUCSNAME
  2

  9
$PUCSORG
 10
0.0
 20
0.0
 30
0.0
  9
$PUCSXDIR
 10
1.0
 20
0.0
 30
0.0
  9
$PUCSYDIR
 10
0.0
 20
1.0
 30
0.0
  9
$USERI1
 70
     0
  9
$USERI2
 70
     0
  9
$USERI3
 70
     0
  9
$USERI4
 70
     0
  9
$USERI5
 70
     0
  9
$USERR1
 40
20.0
  9
$USERR2
 40
0.0
  9
$USERR3
 40
0.0
  9
$USERR4
 40
0.0
  9
$USERR5
 40
0.0
  9
$WORLDVIEW
 70
     1
  9
$SHADEDGE
 70
     3
  9
$SHADEDIF
 70
    70
  9
$TILEMODE
 70
     1
  9
$MAXACTVP
 70
    48
  9
$PINSBASE
 10
0.0
 20
0.0
 30
0.0
  9
$PLIMCHECK
 70
     0
  9
$PEXTMIN
 10
-100000000000000000000.0
 20
-100000000000000000000.0
 30
-100000000000000000000.0
  9
$PEXTMAX
 10
100000000000000000000.0
 20
100000000000000000000.0
 30
100000000000000000000.0
  9
$PLIMMIN
 10
0.0
 20
0.0
  9
$PLIMMAX
 10
12.0
 20
9.0
  9
$UNITMODE
 70
     0
  9
$VISRETAIN
 70
     0
  9
$PLINEGEN
 70
     0
  9
$PSLTSCALE
 70
     0
  9
$TREEDEPTH
 70
  3020
  9
$ATTDIA
 70
     0
  9
$ATTREQ
 70
     1
  9
$BLIPMODE
 70
     1
  9
$COORDS
 70
     1
  9
$DRAGMODE
 70
     2
  9
$OSMODE
 70
     0
  9
$HANDLING
 70
     0
  9
$HANDSEED
  5
3B3
  0
ENDSEC
  0
SECTION
  2
TABLES
  0
TABLE
  2
LTYPE
 70
     2
  0
LTYPE
  2
CONTINUOUS
 70
     0
  3
実線
 72
    65
 73
     0
 40
0.0
  0
LTYPE
  2
DASHDOT
 70
     0
  3
____ _ ____ _ ____ _ ____ _ ____ _ ____ _ ____
 72
    65
 73
     4
 40
5.5
 49
4.0
 49
-0.6
 49
0.3
 49
-0.6
  0
ENDTAB
  0
TABLE
  2
LAYER
 70
    12
  0
LAYER
  2
0
 70
     0
 62
     7
  6
CONTINUOUS
  0
LAYER
  2
NOTE
 70
     0
 62
     4
  6
CONTINUOUS
  0
LAYER
  2
BASIS
 70
     0
 62
     6
  6
DASHDOT
  0
LAYER
  2
OUTLINE
 70
     0
 62
     3
  6
CONTINUOUS
  0
LAYER
  2
DETAIL
 70
     0
 62
     5
  6
CONTINUOUS
  0
LAYER
  2
SIZE
 70
     0
 62
    30
  6
CONTINUOUS
  0
LAYER
  2
ARRANGE
 70
     0
 62
     1
  6
CONTINUOUS
  0
LAYER
  2
DEFPOINTS
 70
     0
 62
     7
  6
CONTINUOUS
  0
LAYER
  2
ETC
 70
     0
 62
    61
  6
CONTINUOUS
  0
LAYER
  2
FIX
 70
     0
 62
    11
  6
CONTINUOUS
  0
LAYER
  2
SERVICESPACE
 70
    64
 62
     2
  6
DASHDOT
  0
LAYER
  2
SYMBOLLINE
 70
    64
 62
    15
  6
CONTINUOUS
  0
ENDTAB
  0
TABLE
  2
STYLE
 70
     1
  0
STYLE
  2
STANDARD
 70
     0
 40
64.0
 41
0.9
 50
0.0
 71
     0
 42
64.0
  3
SIMPLEX.shx
  4
BIGFONT.shx
  0
ENDTAB
  0
TABLE
  2
APPID
 70
    18
  0
APPID
  2
ACAD
 70
     0
  0
APPID
  2
ACADANNOTATIVE
 70
     0
  0
APPID
  2
ACAD_MLEADERVER
 70
     0
  0
APPID
  2
AUTOCAD_POSTSCRIPT_FIGURE
 70
     0
  0
APPID
  2
ACAD_EXEMPT_FROM_CAD_STANDARDS
 70
     0
  0
APPID
  2
ACAD_PSEXT
 70
     0
  0
APPID
  2
ACAUTHENVIRON
 70
     0
  0
APPID
  2
GENIUS_GENOENT_13
 70
     0
  0
APPID
  2
GENIUS_GENCFG_13
 70
     0
  0
APPID
  2
GENIUS_GENCFG0_13
 70
     0
  0
APPID
  2
GENIUS_GENCFG1_13
 70
     0
  0
APPID
  2
GENIUS_GENCFG2_13
 70
     0
  0
APPID
  2
GENIUS_GENCFG3_13
 70
     0
  0
APPID
  2
GENIUS_GENCFG4_13
 70
     0
  0
APPID
  2
GENIUS_GEVCFG0_13
 70
     0
  0
APPID
  2
CONTENTBLOCKICON
 70
     0
  0
APPID
  2
CONTENTBLOCKDESCRIPTION
 70
     0
  0
APPID
  2
ACAD_NAV_VCDISPLAY
 70
     0
  0
ENDTAB
  0
TABLE
  2
DIMSTYLE
 70
     1
  0
DIMSTYLE
  2
STANDARD
 70
     0
  3

  4

  5

  6

  7

 40
1.0
 41
0.18
 42
0.0625
 43
0.38
 44
0.18
 45
0.0
 46
0.0
 47
0.0
 48
0.0
140
0.18
141
0.09
142
0.0
143
25.399999999999999
144
1.0
145
0.0
146
1.0
147
0.09
 71
     0
 72
     0
 73
     1
 74
     1
 75
     0
 76
     0
 77
     0
 78
     0
170
     0
171
     2
172
     0
173
     0
174
     0
175
     0
176
     7
177
     7
178
     7
  0
ENDTAB
  0
TABLE
  2
VIEW
 70
     1
  0
VIEW
  2
ALL
 70
     0
 40
4282.6198079999986
 10
0.0
 20
41.309903999999989
 41
5940.0
 11
0.0
 21
0.0
 31
1.0
 12
0.0
 22
0.0
 32
0.0
 42
50.0
 43
0.0
 44
0.0
 50
0.0
 71
     0
  0
ENDTAB
  0
TABLE
  2
UCS
 70
     0
  0
ENDTAB
  0
TABLE
  2
VPORT
 70
     1
  0
VPORT
  2
*ACTIVE
 70
     0
 10
0.0
 20
0.0
 11
1.0
 21
1.0
 12
282.66576863340322
 22
64.756693405426859
 13
0.0
 23
0.0
 14
1.0
 24
1.0
 15
0.0
 25
0.0
 16
0.0
 26
0.0
 36
1.0
 17
0.0
 27
0.0
 37
0.0
 40
1036.6786222138919
 41
1.767337807606264
 42
50.0
 43
0.0
 44
0.0
 50
0.0
 51
0.0
 71
     0
 72
  1000
 73
     1
 74
     0
 75
     0
 76
     0
 77
     0
 78
     0
  0
ENDTAB
  0
ENDSEC
  0
SECTION
  2
BLOCKS
  0
BLOCK
  8
0
  2
_ORIGIN
 70
     0
 10
0.0
 20
0.0
 30
0.0
  3
_ORIGIN
  1
_ORIGIN
  0
CIRCLE
  8
0
  6
CONTINUOUS
 62
     7
 10
0.0
 20
0.0
 30
0.0
 40
0.5
  0
LINE
  8
0
  6
CONTINUOUS
 62
     7
 10
0.0
 20
0.0
 30
0.0
 11
-1.0
 21
0.0
 31
0.0
  0
ENDBLK
  8
0
  0
ENDSEC
  0
SECTION
  2
ENTITIES
  0
CIRCLE
  8
ARRANGE
  6
CONTINUOUS
 62
     1
 10
0.0
 20
0.0
 30
0.0
 40
40.0
  0
POINT
  8
ARRANGE
  6
CONTINUOUS
 62
     1
 10
0.0
 20
0.0
 30
0.0
  0
LINE
  8
BASIS
  6
DASHDOT
 62
     6
 10
0.0
 20
-89.434380000000004
 30
0.0
 11
0.0
 21
161.049409
 31
0.0
  0
LINE
  8
BASIS
  6
DASHDOT
 62
     6
 10
-91.339220999999995
 20
0.0
 30
0.0
 11
90.282520000000005
 21
0.0
 31
0.0
  0
LINE
  8
NOTE
  6
CONTINUOUS
 62
     4
 10
-70.0
 20
6.0
 30
0.0
 11
-215.74510599999999
 21
177.254311
 31
0.0
  0
LINE
  8
NOTE
  6
CONTINUOUS
 62
     4
 10
-215.74510599999999
 20
177.254311
 30
0.0
 11
-490.63110199999988
 21
177.254311
 31
0.0
  0
TEXT
  8
NOTE
  6
CONTINUOUS
 62
     4
 10
-477.88551100000001
 20
192.871084
 30
0.0
 40
40.0
  1
2-φ4×10
 41
0.9
  0
LINE
  8
BASIS
  6
DASHDOT
 62
     6
 10
-70.0
 20
-76.0
 30
0.0
 11
-70.0
 21
11.0
 31
0.0
  0
LINE
  8
BASIS
  6
DASHDOT
 62
     6
 10
70.0
 20
-5.0
 30
0.0
 11
70.0
 21
75.0
 31
0.0
  0
LINE
  8
DETAIL
  6
CONTINUOUS
 62
     5
 10
-79.991472999999999
 20
75.492080000000001
 30
0.0
 11
-79.991472999999999
 21
-75.492076999999981
 31
0.0
  0
LINE
  8
DETAIL
  6
CONTINUOUS
 62
     5
 10
79.991469999999978
 20
-75.492076999999981
 30
0.0
 11
79.991469999999978
 21
75.492080000000001
 31
0.0
  0
LINE
  8
DETAIL
  6
CONTINUOUS
 62
     5
 10
42.5
 20
-80.0
 30
0.0
 11
63.5
 21
-80.0
 31
0.0
  0
LINE
  8
DETAIL
  6
CONTINUOUS
 62
     5
 10
78.669069999999977
 20
-78.678326999999982
 30
0.0
 11
78.110353000000003
 21
-79.151314999999983
 31
0.0
  0
LINE
  8
DETAIL
  6
CONTINUOUS
 62
     5
 10
63.5
 20
-79.991469999999978
 30
0.0
 11
75.492078000000006
 21
-79.991469999999978
 31
0.0
  0
LINE
  8
DETAIL
  6
CONTINUOUS
 62
     5
 10
76.088543000000001
 20
-79.951767000000004
 30
0.0
 11
75.492078000000006
 21
-79.991461999999999
 31
0.0
  0
LINE
  8
DETAIL
  6
CONTINUOUS
 62
     5
 10
76.802625000000006
 20
-79.796417000000005
 30
0.0
 11
76.088543000000001
 21
-79.951767000000004
 31
0.0
  0
LINE
  8
DETAIL
  6
CONTINUOUS
 62
     5
 10
77.482555000000005
 20
-79.527317000000025
 30
0.0
 11
76.802625000000006
 21
-79.796417000000005
 31
0.0
  0
LINE
  8
DETAIL
  6
CONTINUOUS
 62
     5
 10
78.110353000000003
 20
-79.151314999999983
 30
0.0
 11
77.482555000000005
 21
-79.527317000000025
 31
0.0
  0
LINE
  8
DETAIL
  6
CONTINUOUS
 62
     5
 10
79.143730000000005
 20
-78.120919999999984
 30
0.0
 11
78.669069999999977
 21
-78.678326999999982
 31
0.0
  0
LINE
  8
DETAIL
  6
CONTINUOUS
 62
     5
 10
79.521659999999983
 20
-77.493982000000003
 30
0.0
 11
79.143730000000005
 21
-78.120919999999984
 31
0.0
  0
LINE
  8
DETAIL
  6
CONTINUOUS
 62
     5
 10
79.792819999999978
 20
-76.814379999999986
 30
0.0
 11
79.521659999999983
 21
-77.493982000000003
 31
0.0
  0
LINE
  8
DETAIL
  6
CONTINUOUS
 62
     5
 10
79.950202000000004
 20
-76.100144999999998
 30
0.0
 11
79.792819999999978
 21
-76.814379999999986
 31
0.0
  0
LINE
  8
DETAIL
  6
CONTINUOUS
 62
     5
 10
79.991460000000004
 20
-75.492076999999981
 30
0.0
 11
79.950202000000004
 21
-76.100144999999998
 31
0.0
  0
LINE
  8
DETAIL
  6
CONTINUOUS
 62
     5
 10
-75.492080000000001
 20
-79.991469999999978
 30
0.0
 11
-14.987019999999999
 21
-79.991469999999978
 31
0.0
  0
LINE
  8
DETAIL
  6
CONTINUOUS
 62
     5
 10
14.987018000000001
 20
-79.991469999999978
 30
0.0
 11
42.5
 21
-79.991469999999978
 31
0.0
  0
LINE
  8
DETAIL
  6
CONTINUOUS
 62
     5
 10
-15.08785
 20
-79.792428000000001
 30
0.0
 11
15.087847999999999
 21
-79.792430000000024
 31
0.0
  0
LINE
  8
DETAIL
  6
CONTINUOUS
 62
     5
 10
6.412169999999999
 20
-84.825271999999984
 30
0.0
 11
-6.412171999999999
 21
-84.825271999999984
 31
0.0
  0
LINE
  8
DETAIL
  6
CONTINUOUS
 62
     5
 10
13.012328
 20
-82.337684999999979
 30
0.0
 11
12.062659999999999
 21
-83.075817000000001
 31
0.0
  0
LINE
  8
DETAIL
  6
CONTINUOUS
 62
     5
 10
12.036225
 20
-83.100959999999986
 30
0.0
 11
12.98269
 21
-82.372927000000004
 31
0.0
  0
LINE
  8
DETAIL
  6
CONTINUOUS
 62
     5
 10
13.866351999999999
 20
-81.490996999999979
 30
0.0
 11
13.012328
 21
-82.337684999999979
 31
0.0
  0
LINE
  8
DETAIL
  6
CONTINUOUS
 62
     5
 10
12.98269
 20
-82.372927000000004
 30
0.0
 11
13.835595
 21
-81.537360000000007
 31
0.0
  0
LINE
  8
DETAIL
  6
CONTINUOUS
 62
     5
 10
14.765075
 20
-80.322450000000003
 30
0.0
 11
14.611392
 21
-80.549534999999977
 31
0.0
  0
LINE
  8
DETAIL
  6
CONTINUOUS
 62
     5
 10
14.581842
 20
-80.607556999999986
 30
0.0
 11
14.745165
 21
-80.37036999999998
 31
0.0
  0
LINE
  8
DETAIL
  6
CONTINUOUS
 62
     5
 10
14.611392
 20
-80.549534999999977
 30
0.0
 11
13.866351999999999
 21
-81.490996999999979
 31
0.0
  0
LINE
  8
DETAIL
  6
CONTINUOUS
 62
     5
 10
13.835595
 20
-81.537360000000007
 30
0.0
 11
14.581842
 21
-80.607556999999986
 31
0.0
  0
LINE
  8
DETAIL
  6
CONTINUOUS
 62
     5
 10
15.087847999999999
 20
-79.792428000000001
 30
0.0
 11
15.003168000000001
 21
-79.939594999999983
 31
0.0
  0
LINE
  8
DETAIL
  6
CONTINUOUS
 62
     5
 10
14.998125
 20
-79.973586999999981
 30
0.0
 11
15.087289999999999
 21
-79.824432000000002
 31
0.0
  0
LINE
  8
DETAIL
  6
CONTINUOUS
 62
     5
 10
15.003168000000001
 20
-79.939594999999983
 30
0.0
 11
14.896075
 21
-80.116959999999978
 31
0.0
  0
LINE
  8
DETAIL
  6
CONTINUOUS
 62
     5
 10
14.884548000000001
 20
-80.156436999999983
 30
0.0
 11
14.998125
 21
-79.973586999999981
 31
0.0
  0
LINE
  8
DETAIL
  6
CONTINUOUS
 62
     5
 10
14.896075
 20
-80.116959999999978
 30
0.0
 11
14.765075
 21
-80.322450000000003
 31
0.0
  0
LINE
  8
DETAIL
  6
CONTINUOUS
 62
     5
 10
14.745165
 20
-80.37036999999998
 30
0.0
 11
14.884548000000001
 21
-80.156436999999983
 31
0.0
  0
LINE
  8
DETAIL
  6
CONTINUOUS
 62
     5
 10
15.087289999999999
 20
-79.824430000000007
 30
0.0
 11
15.087847999999999
 21
-79.792430000000024
 31
0.0
  0
LINE
  8
DETAIL
  6
CONTINUOUS
 62
     5
 10
7.605101999999999
 20
-84.755054999999999
 30
0.0
 11
6.412169999999999
 21
-84.825271999999984
 31
0.0
  0
LINE
  8
DETAIL
  6
CONTINUOUS
 62
     5
 10
8.784435
 20
-84.539829999999981
 30
0.0
 11
7.604019999999998
 21
-84.753996999999998
 31
0.0
  0
LINE
  8
DETAIL
  6
CONTINUOUS
 62
     5
 10
7.605101999999999
 20
-84.755054999999999
 30
0.0
 11
8.77707
 21
-84.544049999999984
 31
0.0
  0
LINE
  8
DETAIL
  6
CONTINUOUS
 62
     5
 10
9.933487
 20
-84.18479499999998
 30
0.0
 11
8.784435
 21
-84.539829999999981
 31
0.0
  0
LINE
  8
DETAIL
  6
CONTINUOUS
 62
     5
 10
8.77707
 20
-84.544049999999984
 30
0.0
 11
9.918467
 21
-84.194206999999977
 31
0.0
  0
LINE
  8
DETAIL
  6
CONTINUOUS
 62
     5
 10
11.031718
 20
-83.694315000000003
 30
0.0
 11
9.933487
 21
-84.18479499999998
 31
0.0
  0
LINE
  8
DETAIL
  6
CONTINUOUS
 62
     5
 10
9.918467
 20
-84.194206999999977
 30
0.0
 11
11.010244999999999
 21
-83.710769999999982
 31
0.0
  0
LINE
  8
DETAIL
  6
CONTINUOUS
 62
     5
 10
12.062659999999999
 20
-83.075817000000001
 30
0.0
 11
11.031718
 21
-83.694315000000003
 31
0.0
  0
LINE
  8
DETAIL
  6
CONTINUOUS
 62
     5
 10
11.010244999999999
 20
-83.710769999999982
 30
0.0
 11
12.036225
 21
-83.100959999999986
 31
0.0
  0
LINE
  8
DETAIL
  6
CONTINUOUS
 62
     5
 10
-6.412171999999999
 20
-84.825271999999984
 30
0.0
 11
-7.604298
 21
-84.75396499999998
 31
0.0
  0
LINE
  8
DETAIL
  6
CONTINUOUS
 62
     5
 10
-12.03656
 20
-83.100734999999986
 30
0.0
 11
-11.010622
 21
-83.710575000000006
 31
0.0
  0
LINE
  8
DETAIL
  6
CONTINUOUS
 62
     5
 10
-11.032107999999999
 20
-83.694114999999982
 30
0.0
 11
-12.063007000000001
 21
-83.075580000000002
 31
0.0
  0
LINE
  8
DETAIL
  6
CONTINUOUS
 62
     5
 10
-8.77749
 20
-84.543949999999981
 30
0.0
 11
-7.605377
 21
-84.755021999999983
 31
0.0
  0
LINE
  8
DETAIL
  6
CONTINUOUS
 62
     5
 10
-7.604298
 20
-84.75396499999998
 30
0.0
 11
-8.784864999999998
 21
-84.539725000000004
 31
0.0
  0
LINE
  8
DETAIL
  6
CONTINUOUS
 62
     5
 10
-9.918905000000001
 20
-84.194044999999974
 30
0.0
 11
-8.77749
 21
-84.543949999999981
 31
0.0
  0
LINE
  8
DETAIL
  6
CONTINUOUS
 62
     5
 10
-8.784864999999998
 20
-84.539725000000004
 30
0.0
 11
-9.933937
 21
-84.184628000000004
 31
0.0
  0
LINE
  8
DETAIL
  6
CONTINUOUS
 62
     5
 10
-11.010622
 20
-83.710575000000006
 30
0.0
 11
-9.918905000000001
 21
-84.194044999999974
 31
0.0
  0
LINE
  8
DETAIL
  6
CONTINUOUS
 62
     5
 10
-9.933937
 20
-84.184628000000004
 30
0.0
 11
-11.032107999999999
 21
-83.694114999999982
 31
0.0
  0
LINE
  8
DETAIL
  6
CONTINUOUS
 62
     5
 10
-12.983003
 20
-82.372655000000023
 30
0.0
 11
-12.03656
 21
-83.100734999999986
 31
0.0
  0
LINE
  8
DETAIL
  6
CONTINUOUS
 62
     5
 10
-12.063007000000001
 20
-83.075580000000002
 30
0.0
 11
-13.012651999999999
 21
-82.337400000000002
 31
0.0
  0
LINE
  8
DETAIL
  6
CONTINUOUS
 62
     5
 10
-13.835807000000001
 20
-81.537126999999984
 30
0.0
 11
-12.983003
 21
-82.372655000000023
 31
0.0
  0
LINE
  8
DETAIL
  6
CONTINUOUS
 62
     5
 10
-13.012651999999999
 20
-82.337400000000002
 30
0.0
 11
-13.866569999999999
 21
-81.490757000000002
 31
0.0
  0
LINE
  8
DETAIL
  6
CONTINUOUS
 62
     5
 10
-14.581845
 20
-80.607556999999986
 30
0.0
 11
-13.835807000000001
 21
-81.537126999999984
 31
0.0
  0
LINE
  8
DETAIL
  6
CONTINUOUS
 62
     5
 10
-13.866569999999999
 20
-81.490757000000002
 30
0.0
 11
-14.611395
 21
-80.549534999999977
 31
0.0
  0
LINE
  8
DETAIL
  6
CONTINUOUS
 62
     5
 10
-14.745013
 20
-80.370599999999982
 30
0.0
 11
-14.581845
 21
-80.607556999999986
 31
0.0
  0
LINE
  8
DETAIL
  6
CONTINUOUS
 62
     5
 10
-14.611395
 20
-80.549534999999977
 30
0.0
 11
-14.764879999999989
 21
-80.322749999999999
 31
0.0
  0
LINE
  8
DETAIL
  6
CONTINUOUS
 62
     5
 10
-14.884404999999999
 20
-80.156665000000004
 30
0.0
 11
-14.745013
 21
-80.370599999999982
 31
0.0
  0
LINE
  8
DETAIL
  6
CONTINUOUS
 62
     5
 10
-14.764879999999989
 20
-80.322749999999999
 30
0.0
 11
-14.895885
 21
-80.117269999999976
 31
0.0
  0
LINE
  8
DETAIL
  6
CONTINUOUS
 62
     5
 10
-14.998063
 20
-79.973694999999978
 30
0.0
 11
-14.884404999999999
 21
-80.156665000000004
 31
0.0
  0
LINE
  8
DETAIL
  6
CONTINUOUS
 62
     5
 10
-14.895885
 20
-80.117269999999976
 30
0.0
 11
-15.003080000000001
 21
-79.939746999999983
 31
0.0
  0
LINE
  8
DETAIL
  6
CONTINUOUS
 62
     5
 10
-15.087289999999999
 20
-79.824432000000002
 30
0.0
 11
-14.998063
 21
-79.973694999999978
 31
0.0
  0
LINE
  8
DETAIL
  6
CONTINUOUS
 62
     5
 10
-15.003080000000001
 20
-79.939746999999983
 30
0.0
 11
-15.08785
 21
-79.792428000000001
 31
0.0
  0
LINE
  8
DETAIL
  6
CONTINUOUS
 62
     5
 10
-15.08785
 20
-79.792430000000024
 30
0.0
 11
-15.087289999999999
 21
-79.824430000000007
 31
0.0
  0
LINE
  8
DETAIL
  6
CONTINUOUS
 62
     5
 10
-17.487007999999999
 20
-79.99147499999998
 30
0.0
 11
-38.844245000000001
 21
-79.99147499999998
 31
0.0
  0
LINE
  8
DETAIL
  6
CONTINUOUS
 62
     5
 10
-78.119590000000002
 20
-79.144689999999983
 30
0.0
 11
-78.677120000000002
 21
-78.670282999999998
 31
0.0
  0
LINE
  8
DETAIL
  6
CONTINUOUS
 62
     5
 10
-76.099580000000003
 20
-79.950280000000006
 30
0.0
 11
-76.813374999999979
 21
-79.793130000000005
 31
0.0
  0
LINE
  8
DETAIL
  6
CONTINUOUS
 62
     5
 10
-75.492080000000001
 20
-79.991461999999999
 30
0.0
 11
-76.099580000000003
 21
-79.950280000000006
 31
0.0
  0
LINE
  8
DETAIL
  6
CONTINUOUS
 62
     5
 10
-76.813374999999979
 20
-79.793130000000005
 30
0.0
 11
-77.492701999999994
 21
-79.52229699999998
 31
0.0
  0
LINE
  8
DETAIL
  6
CONTINUOUS
 62
     5
 10
-77.492701999999994
 20
-79.52229699999998
 30
0.0
 11
-78.119590000000002
 21
-79.144689999999983
 31
0.0
  0
ARC
  8
DETAIL
  6
CONTINUOUS
 62
     5
 10
-70.741852000000023
 20
-69.327636999999996
 30
0.0
 40
2.5
 50
45.0
 51
225.0
  0
LINE
  8
BASIS
  6
DASHDOT
 62
     6
 10
-64.0
 20
-70.0
 30
0.0
 11
-75.0
 21
-70.0
 31
0.0
  0
ARC
  8
DETAIL
  6
CONTINUOUS
 62
     5
 10
-69.327640000000002
 20
-70.741849999999985
 30
0.0
 40
2.5
 50
225.0
 51
45.0
  0
LINE
  8
DETAIL
  6
CONTINUOUS
 62
     5
 10
-68.974085000000002
 20
-67.559869999999989
 30
0.0
 11
-67.559871999999984
 21
-68.974081999999996
 31
0.0
  0
LINE
  8
DETAIL
  6
CONTINUOUS
 62
     5
 10
-71.095405
 20
-72.509617000000006
 30
0.0
 11
-72.509619999999998
 21
-71.095405
 31
0.0
  0
LINE
  8
DETAIL
  6
CONTINUOUS
 62
     5
 10
-78.677120000000002
 20
-78.670282999999998
 30
0.0
 11
-79.150359999999978
 21
-78.111689999999982
 31
0.0
  0
LINE
  8
DETAIL
  6
CONTINUOUS
 62
     5
 10
-79.150359999999978
 20
-78.111689999999982
 30
0.0
 11
-79.526685000000001
 21
-77.483842000000024
 31
0.0
  0
LINE
  8
DETAIL
  6
CONTINUOUS
 62
     5
 10
-79.951695000000001
 20
-76.089115000000007
 30
0.0
 11
-79.991461999999999
 21
-75.492076999999981
 31
0.0
  0
LINE
  8
DETAIL
  6
CONTINUOUS
 62
     5
 10
-79.526685000000001
 20
-77.483842000000024
 30
0.0
 11
-79.796109999999999
 21
-76.803636999999981
 31
0.0
  0
LINE
  8
DETAIL
  6
CONTINUOUS
 62
     5
 10
-79.796109999999999
 20
-76.803636999999981
 30
0.0
 11
-79.951695000000001
 21
-76.089115000000007
 31
0.0
  0
LINE
  8
DETAIL
  6
CONTINUOUS
 62
     5
 10
75.492078000000006
 20
79.991472999999999
 30
0.0
 11
-75.492080000000001
 21
79.991472999999999
 31
0.0
  0
LINE
  8
BASIS
  6
DASHDOT
 62
     6
 10
75.0
 20
6.0
 30
0.0
 11
64.0
 21
6.0
 31
0.0
  0
ARC
  8
DETAIL
  6
CONTINUOUS
 62
     5
 10
70.0
 20
6.0
 30
0.0
 40
2.0
 50
0.0
 51
180.0
  0
ARC
  8
DETAIL
  6
CONTINUOUS
 62
     5
 10
70.0
 20
0.0
 30
0.0
 40
2.0
 50
180.0
 51
0.0
  0
LINE
  8
DETAIL
  6
CONTINUOUS
 62
     5
 10
72.0
 20
6.0
 30
0.0
 11
72.0
 21
0.0
 31
0.0
  0
LINE
  8
DETAIL
  6
CONTINUOUS
 62
     5
 10
68.0
 20
0.0
 30
0.0
 11
68.0
 21
6.0
 31
0.0
  0
ARC
  8
DETAIL
  6
CONTINUOUS
 62
     5
 10
69.965254999999999
 20
69.965254999999999
 30
0.0
 40
2.5
 50
315.0
 51
135.0
  0
LINE
  8
DETAIL
  6
CONTINUOUS
 62
     5
 10
66.783271999999997
 20
70.318809999999999
 30
0.0
 11
68.197488000000007
 21
71.733023000000003
 31
0.0
  0
LINE
  8
BASIS
  6
DASHDOT
 62
     6
 10
75.0
 20
70.0
 30
0.0
 11
64.0
 21
70.0
 31
0.0
  0
LINE
  8
DETAIL
  6
CONTINUOUS
 62
     5
 10
71.733019999999996
 20
68.197490000000002
 30
0.0
 11
70.31880799999999
 21
66.783275000000003
 31
0.0
  0
ARC
  8
DETAIL
  6
CONTINUOUS
 62
     5
 10
68.55104
 20
68.551043000000007
 30
0.0
 40
2.5
 50
135.0
 51
315.0
  0
LINE
  8
DETAIL
  6
CONTINUOUS
 62
     5
 10
79.52668199999998
 20
77.483845000000002
 30
0.0
 11
79.796107999999975
 21
76.803640000000001
 31
0.0
  0
LINE
  8
DETAIL
  6
CONTINUOUS
 62
     5
 10
79.951693000000006
 20
76.089117999999999
 30
0.0
 11
79.991460000000004
 21
75.492080000000001
 31
0.0
  0
LINE
  8
DETAIL
  6
CONTINUOUS
 62
     5
 10
79.796107999999975
 20
76.803640000000001
 30
0.0
 11
79.951693000000006
 21
76.089117999999999
 31
0.0
  0
LINE
  8
DETAIL
  6
CONTINUOUS
 62
     5
 10
75.492078000000006
 20
79.991465000000005
 30
0.0
 11
76.099576999999982
 21
79.950280000000006
 31
0.0
  0
LINE
  8
DETAIL
  6
CONTINUOUS
 62
     5
 10
76.099576999999982
 20
79.950280000000006
 30
0.0
 11
76.813372999999999
 21
79.793132999999983
 31
0.0
  0
LINE
  8
DETAIL
  6
CONTINUOUS
 62
     5
 10
76.813372999999999
 20
79.793132999999983
 30
0.0
 11
77.492701999999994
 21
79.522300000000001
 31
0.0
  0
LINE
  8
DETAIL
  6
CONTINUOUS
 62
     5
 10
77.492701999999994
 20
79.522300000000001
 30
0.0
 11
78.119587999999993
 21
79.144693000000004
 31
0.0
  0
LINE
  8
DETAIL
  6
CONTINUOUS
 62
     5
 10
78.119587999999993
 20
79.144693000000004
 30
0.0
 11
78.677117999999993
 21
78.670284999999978
 31
0.0
  0
LINE
  8
DETAIL
  6
CONTINUOUS
 62
     5
 10
78.677117999999993
 20
78.670284999999978
 30
0.0
 11
79.150357999999983
 21
78.111693000000002
 31
0.0
  0
LINE
  8
DETAIL
  6
CONTINUOUS
 62
     5
 10
79.150357999999983
 20
78.111693000000002
 30
0.0
 11
79.52668199999998
 21
77.483845000000002
 31
0.0
  0
ARC
  8
DETAIL
  6
CONTINUOUS
 62
     5
 10
1.5
 20
97.589853000000005
 30
0.0
 40
3.0
 50
240.0
 51
300.0
  0
LINE
  8
DETAIL
  6
CONTINUOUS
 62
     5
 10
3.0
 20
79.989852999999982
 30
0.0
 11
3.0
 21
94.991775000000004
 31
0.0
  0
LINE
  8
DETAIL
  6
CONTINUOUS
 62
     5
 10
0.0
 20
79.991472999999999
 30
0.0
 11
0.0
 21
94.991775000000004
 31
0.0
  0
LINE
  8
DETAIL
  6
CONTINUOUS
 62
     5
 10
-3.0
 20
79.993093000000002
 30
0.0
 11
-3.0
 21
94.991775000000004
 31
0.0
  0
ARC
  8
DETAIL
  6
CONTINUOUS
 62
     5
 10
-1.5
 20
92.393699999999995
 30
0.0
 40
3.0
 50
60.0
 51
120.0
  0
LINE
  8
BASIS
  6
DASHDOT
 62
     6
 10
-64.0
 20
6.0
 30
0.0
 11
-75.0
 21
6.0
 31
0.0
  0
LINE
  8
DETAIL
  6
CONTINUOUS
 62
     5
 10
-72.0
 20
0.0
 30
0.0
 11
-72.0
 21
6.0
 31
0.0
  0
LINE
  8
DETAIL
  6
CONTINUOUS
 62
     5
 10
-68.0
 20
6.0
 30
0.0
 11
-68.0
 21
0.0
 31
0.0
  0
ARC
  8
DETAIL
  6
CONTINUOUS
 62
     5
 10
-70.0
 20
0.0
 30
0.0
 40
2.0
 50
180.0
 51
0.0
  0
ARC
  8
DETAIL
  6
CONTINUOUS
 62
     5
 10
-70.0
 20
6.0
 30
0.0
 40
2.0
 50
0.0
 51
180.0
  0
LINE
  8
DETAIL
  6
CONTINUOUS
 62
     5
 10
-79.792819999999978
 20
76.814382999999978
 30
0.0
 11
-79.521663000000004
 21
77.493984999999981
 31
0.0
  0
LINE
  8
DETAIL
  6
CONTINUOUS
 62
     5
 10
-79.950205000000025
 20
76.100148000000004
 30
0.0
 11
-79.792819999999978
 21
76.814382999999978
 31
0.0
  0
LINE
  8
DETAIL
  6
CONTINUOUS
 62
     5
 10
-79.991461999999999
 20
75.492080000000001
 30
0.0
 11
-79.950205000000025
 21
76.100148000000004
 31
0.0
  0
LINE
  8
DETAIL
  6
CONTINUOUS
 62
     5
 10
-76.088544999999982
 20
79.951769999999982
 30
0.0
 11
-75.492080000000001
 21
79.991465000000005
 31
0.0
  0
LINE
  8
DETAIL
  6
CONTINUOUS
 62
     5
 10
-76.802627000000001
 20
79.796418000000003
 30
0.0
 11
-76.088544999999982
 21
79.951769999999982
 31
0.0
  0
LINE
  8
DETAIL
  6
CONTINUOUS
 62
     5
 10
-77.482555000000005
 20
79.527320000000003
 30
0.0
 11
-76.802627000000001
 21
79.796418000000003
 31
0.0
  0
LINE
  8
DETAIL
  6
CONTINUOUS
 62
     5
 10
-78.110354999999998
 20
79.151318000000003
 30
0.0
 11
-77.482555000000005
 21
79.527320000000003
 31
0.0
  0
LINE
  8
DETAIL
  6
CONTINUOUS
 62
     5
 10
-78.669071999999986
 20
78.678330000000003
 30
0.0
 11
-78.110354999999998
 21
79.151318000000003
 31
0.0
  0
LINE
  8
DETAIL
  6
CONTINUOUS
 62
     5
 10
-79.143731999999986
 20
78.120923000000005
 30
0.0
 11
-78.669071999999986
 21
78.678330000000003
 31
0.0
  0
LINE
  8
DETAIL
  6
CONTINUOUS
 62
     5
 10
-79.521663000000004
 20
77.493984999999981
 30
0.0
 11
-79.143731999999986
 21
78.120923000000005
 31
0.0
  0
LINE
  8
DETAIL
  6
CONTINUOUS
 62
     5
 10
14.0
 20
152.48953499999999
 30
0.0
 11
14.0
 21
143.48953499999999
 31
0.0
  0
LINE
  8
DETAIL
  6
CONTINUOUS
 62
     5
 10
-14.0
 20
152.48953499999999
 30
0.0
 11
-14.0
 21
143.48953499999999
 31
0.0
  0
LINE
  8
DETAIL
  6
CONTINUOUS
 62
     5
 10
-12.5
 20
152.48953499999999
 30
0.0
 11
-12.5
 21
143.48953499999999
 31
0.0
  0
LINE
  8
DETAIL
  6
CONTINUOUS
 62
     5
 10
12.5
 20
152.48953499999999
 30
0.0
 11
12.5
 21
143.48953499999999
 31
0.0
  0
LINE
  8
DETAIL
  6
CONTINUOUS
 62
     5
 10
14.0
 20
152.48953499999999
 30
0.0
 11
14.0
 21
143.48953499999999
 31
0.0
  0
LINE
  8
DETAIL
  6
CONTINUOUS
 62
     5
 10
-14.0
 20
152.48953499999999
 30
0.0
 11
-14.0
 21
143.48953499999999
 31
0.0
  0
LINE
  8
DETAIL
  6
CONTINUOUS
 62
     5
 10
-12.5
 20
152.48953499999999
 30
0.0
 11
-12.5
 21
143.48953499999999
 31
0.0
  0
LINE
  8
DETAIL
  6
CONTINUOUS
 62
     5
 10
12.5
 20
152.48953499999999
 30
0.0
 11
12.5
 21
143.48953499999999
 31
0.0
  0
ARC
  8
DETAIL
  6
CONTINUOUS
 62
     5
 10
4.280273
 20
120.989535
 30
0.0
 40
0.5
 50
270.0
 51
356.42366600000008
  0
ARC
  8
DETAIL
  6
CONTINUOUS
 62
     5
 10
-4.280275
 20
120.989535
 30
0.0
 40
0.5
 50
183.576334
 51
270.0
  0
ARC
  8
DETAIL
  6
CONTINUOUS
 62
     5
 10
1.5
 20
102.58985300000001
 30
0.0
 40
3.0
 50
240.0
 51
300.0
  0
LINE
  8
DETAIL
  6
CONTINUOUS
 62
     5
 10
-4.280275
 20
120.489535
 30
0.0
 11
4.280273
 21
120.489535
 31
0.0
  0
LINE
  8
DETAIL
  6
CONTINUOUS
 62
     5
 10
3.0
 20
99.991775000000004
 30
0.0
 11
3.0
 21
120.489535
 31
0.0
  0
LINE
  8
DETAIL
  6
CONTINUOUS
 62
     5
 10
0.0
 20
99.991775000000004
 30
0.0
 11
0.0
 21
120.489535
 31
0.0
  0
LINE
  8
DETAIL
  6
CONTINUOUS
 62
     5
 10
-3.0
 20
99.991775000000004
 30
0.0
 11
-3.0
 21
120.489535
 31
0.0
  0
ARC
  8
DETAIL
  6
CONTINUOUS
 62
     5
 10
-1.5
 20
97.393699999999995
 30
0.0
 40
3.0
 50
60.0
 51
120.0
  0
LINE
  8
DETAIL
  6
CONTINUOUS
 62
     5
 10
9.5
 20
140.48953499999999
 30
0.0
 11
-9.5
 21
140.48953499999999
 31
0.0
  0
LINE
  8
DETAIL
  6
CONTINUOUS
 62
     5
 10
5.53125
 20
132.98953499999999
 30
0.0
 11
0.0
 21
132.98953499999999
 31
0.0
  0
LINE
  8
DETAIL
  6
CONTINUOUS
 62
     5
 10
5.4375
 20
131.48953499999999
 30
0.0
 11
0.0
 21
131.48953499999999
 31
0.0
  0
LINE
  8
DETAIL
  6
CONTINUOUS
 62
     5
 10
5.15625
 20
126.989535
 30
0.0
 11
0.0
 21
126.989535
 31
0.0
  0
LINE
  8
DETAIL
  6
CONTINUOUS
 62
     5
 10
9.5
 20
140.48953499999999
 30
0.0
 11
-9.5
 21
140.48953499999999
 31
0.0
  0
LINE
  8
DETAIL
  6
CONTINUOUS
 62
     5
 10
5.0625
 20
125.489535
 30
0.0
 11
0.0
 21
125.489535
 31
0.0
  0
LINE
  8
DETAIL
  6
CONTINUOUS
 62
     5
 10
5.882794999999999
 20
138.614293
 30
0.0
 11
4.7793
 21
120.958348
 31
0.0
  0
ARC
  8
DETAIL
  6
CONTINUOUS
 62
     5
 10
9.5
 20
143.48953499999999
 30
0.0
 40
3.0
 50
270.0
 51
0.0
  0
ARC
  8
DETAIL
  6
CONTINUOUS
 62
     5
 10
9.5
 20
143.48953499999999
 30
0.0
 40
3.0
 50
270.0
 51
0.0
  0
LINE
  8
DETAIL
  6
CONTINUOUS
 62
     5
 10
14.0
 20
143.48953499999999
 30
0.0
 11
12.5
 21
143.48953499999999
 31
0.0
  0
LINE
  8
DETAIL
  6
CONTINUOUS
 62
     5
 10
14.0
 20
143.48953499999999
 30
0.0
 11
12.5
 21
143.48953499999999
 31
0.0
  0
ARC
  8
DETAIL
  6
CONTINUOUS
 62
     5
 10
7.878903
 20
138.48953499999999
 30
0.0
 40
2.0
 50
90.0
 51
176.423666
  0
LINE
  8
DETAIL
  6
CONTINUOUS
 62
     5
 10
-5.882797
 20
138.614293
 30
0.0
 11
-4.779301999999999
 21
120.958348
 31
0.0
  0
LINE
  8
DETAIL
  6
CONTINUOUS
 62
     5
 10
0.0
 20
126.989535
 30
0.0
 11
0.0
 21
125.489535
 31
0.0
  0
LINE
  8
DETAIL
  6
CONTINUOUS
 62
     5
 10
0.0
 20
122.489535
 30
0.0
 11
-4.875
 21
122.489535
 31
0.0
  0
LINE
  8
DETAIL
  6
CONTINUOUS
 62
     5
 10
0.0
 20
123.989535
 30
0.0
 11
-4.96875
 21
123.989535
 31
0.0
  0
LINE
  8
DETAIL
  6
CONTINUOUS
 62
     5
 10
0.0
 20
123.989535
 30
0.0
 11
0.0
 21
122.489535
 31
0.0
  0
LINE
  8
DETAIL
  6
CONTINUOUS
 62
     5
 10
0.0
 20
129.98953499999999
 30
0.0
 11
-5.34375
 21
129.98953499999999
 31
0.0
  0
LINE
  8
DETAIL
  6
CONTINUOUS
 62
     5
 10
0.0
 20
128.48953499999999
 30
0.0
 11
-5.25
 21
128.48953499999999
 31
0.0
  0
LINE
  8
DETAIL
  6
CONTINUOUS
 62
     5
 10
0.0
 20
132.98953499999999
 30
0.0
 11
0.0
 21
131.48953499999999
 31
0.0
  0
LINE
  8
DETAIL
  6
CONTINUOUS
 62
     5
 10
0.0
 20
129.98953499999999
 30
0.0
 11
0.0
 21
128.48953499999999
 31
0.0
  0
ARC
  8
DETAIL
  6
CONTINUOUS
 62
     5
 10
-7.878902
 20
138.48953499999999
 30
0.0
 40
2.0
 50
3.576333999999999
 51
90.0
  0
LINE
  8
DETAIL
  6
CONTINUOUS
 62
     5
 10
0.0
 20
135.98953499999999
 30
0.0
 11
-5.71875
 21
135.98953499999999
 31
0.0
  0
LINE
  8
DETAIL
  6
CONTINUOUS
 62
     5
 10
0.0
 20
134.48953499999999
 30
0.0
 11
-5.625
 21
134.48953499999999
 31
0.0
  0
LINE
  8
DETAIL
  6
CONTINUOUS
 62
     5
 10
0.0
 20
135.98953499999999
 30
0.0
 11
0.0
 21
134.48953499999999
 31
0.0
  0
ARC
  8
DETAIL
  6
CONTINUOUS
 62
     5
 10
-9.5
 20
143.48953499999999
 30
0.0
 40
3.0
 50
180.0
 51
270.0
  0
ARC
  8
DETAIL
  6
CONTINUOUS
 62
     5
 10
-9.5
 20
143.48953499999999
 30
0.0
 40
3.0
 50
180.0
 51
270.0
  0
LINE
  8
DETAIL
  6
CONTINUOUS
 62
     5
 10
-12.5
 20
143.48953499999999
 30
0.0
 11
-14.0
 21
143.48953499999999
 31
0.0
  0
LINE
  8
DETAIL
  6
CONTINUOUS
 62
     5
 10
-12.5
 20
143.48953499999999
 30
0.0
 11
-14.0
 21
143.48953499999999
 31
0.0
  0
LINE
  8
DETAIL
  6
CONTINUOUS
 62
     5
 10
9.5
 20
155.48953499999999
 30
0.0
 11
-9.5
 21
155.48953499999999
 31
0.0
  0
LINE
  8
DETAIL
  6
CONTINUOUS
 62
     5
 10
9.5
 20
155.48953499999999
 30
0.0
 11
-9.5
 21
155.48953499999999
 31
0.0
  0
ARC
  8
DETAIL
  6
CONTINUOUS
 62
     5
 10
9.5
 20
152.48953499999999
 30
0.0
 40
3.0
 50
0.0
 51
90.0
  0
ARC
  8
DETAIL
  6
CONTINUOUS
 62
     5
 10
9.5
 20
152.48953499999999
 30
0.0
 40
3.0
 50
0.0
 51
90.0
  0
LINE
  8
DETAIL
  6
CONTINUOUS
 62
     5
 10
14.0
 20
152.48953499999999
 30
0.0
 11
12.5
 21
152.48953499999999
 31
0.0
  0
LINE
  8
DETAIL
  6
CONTINUOUS
 62
     5
 10
14.0
 20
152.48953499999999
 30
0.0
 11
12.5
 21
152.48953499999999
 31
0.0
  0
ARC
  8
DETAIL
  6
CONTINUOUS
 62
     5
 10
-9.5
 20
152.48953499999999
 30
0.0
 40
3.0
 50
90.0
 51
180.0
  0
ARC
  8
DETAIL
  6
CONTINUOUS
 62
     5
 10
-9.5
 20
152.48953499999999
 30
0.0
 40
3.0
 50
90.0
 51
180.0
  0
LINE
  8
DETAIL
  6
CONTINUOUS
 62
     5
 10
-12.5
 20
152.48953499999999
 30
0.0
 11
-14.0
 21
152.48953499999999
 31
0.0
  0
LINE
  8
DETAIL
  6
CONTINUOUS
 62
     5
 10
-12.5
 20
152.48953499999999
 30
0.0
 11
-14.0
 21
152.48953499999999
 31
0.0
  0
LINE
  8
OUTLINE
  6
CONTINUOUS
 62
     3
 10
-79.991472999999999
 20
75.492080000000001
 30
0.0
 11
-79.991472999999999
 21
-75.492076999999981
 31
0.0
  0
LINE
  8
OUTLINE
  6
CONTINUOUS
 62
     3
 10
79.991469999999978
 20
-75.492076999999981
 30
0.0
 11
79.991469999999978
 21
75.492080000000001
 31
0.0
  0
LINE
  8
OUTLINE
  6
CONTINUOUS
 62
     3
 10
42.5
 20
-80.0
 30
0.0
 11
63.5
 21
-80.0
 31
0.0
  0
LINE
  8
OUTLINE
  6
CONTINUOUS
 62
     3
 10
78.669069999999977
 20
-78.678326999999982
 30
0.0
 11
78.110353000000003
 21
-79.151314999999983
 31
0.0
  0
LINE
  8
OUTLINE
  6
CONTINUOUS
 62
     3
 10
63.5
 20
-79.991469999999978
 30
0.0
 11
75.492078000000006
 21
-79.991469999999978
 31
0.0
  0
LINE
  8
OUTLINE
  6
CONTINUOUS
 62
     3
 10
76.088543000000001
 20
-79.951767000000004
 30
0.0
 11
75.492078000000006
 21
-79.991461999999999
 31
0.0
  0
LINE
  8
OUTLINE
  6
CONTINUOUS
 62
     3
 10
76.802625000000006
 20
-79.796417000000005
 30
0.0
 11
76.088543000000001
 21
-79.951767000000004
 31
0.0
  0
LINE
  8
OUTLINE
  6
CONTINUOUS
 62
     3
 10
77.482555000000005
 20
-79.527317000000025
 30
0.0
 11
76.802625000000006
 21
-79.796417000000005
 31
0.0
  0
LINE
  8
OUTLINE
  6
CONTINUOUS
 62
     3
 10
78.110353000000003
 20
-79.151314999999983
 30
0.0
 11
77.482555000000005
 21
-79.527317000000025
 31
0.0
  0
LINE
  8
OUTLINE
  6
CONTINUOUS
 62
     3
 10
79.143730000000005
 20
-78.120919999999984
 30
0.0
 11
78.669069999999977
 21
-78.678326999999982
 31
0.0
  0
LINE
  8
OUTLINE
  6
CONTINUOUS
 62
     3
 10
79.521659999999983
 20
-77.493982000000003
 30
0.0
 11
79.143730000000005
 21
-78.120919999999984
 31
0.0
  0
LINE
  8
OUTLINE
  6
CONTINUOUS
 62
     3
 10
79.792819999999978
 20
-76.814379999999986
 30
0.0
 11
79.521659999999983
 21
-77.493982000000003
 31
0.0
  0
LINE
  8
OUTLINE
  6
CONTINUOUS
 62
     3
 10
79.950202000000004
 20
-76.100144999999998
 30
0.0
 11
79.792819999999978
 21
-76.814379999999986
 31
0.0
  0
LINE
  8
OUTLINE
  6
CONTINUOUS
 62
     3
 10
79.991460000000004
 20
-75.492076999999981
 30
0.0
 11
79.950202000000004
 21
-76.100144999999998
 31
0.0
  0
LINE
  8
OUTLINE
  6
CONTINUOUS
 62
     3
 10
-75.492080000000001
 20
-79.991469999999978
 30
0.0
 11
-14.987019999999999
 21
-79.991469999999978
 31
0.0
  0
LINE
  8
OUTLINE
  6
CONTINUOUS
 62
     3
 10
14.987018000000001
 20
-79.991469999999978
 30
0.0
 11
42.5
 21
-79.991469999999978
 31
0.0
  0
LINE
  8
OUTLINE
  6
CONTINUOUS
 62
     3
 10
-15.08785
 20
-79.792428000000001
 30
0.0
 11
15.087847999999999
 21
-79.792430000000024
 31
0.0
  0
LINE
  8
OUTLINE
  6
CONTINUOUS
 62
     3
 10
6.412169999999999
 20
-84.825271999999984
 30
0.0
 11
-6.412171999999999
 21
-84.825271999999984
 31
0.0
  0
LINE
  8
OUTLINE
  6
CONTINUOUS
 62
     3
 10
13.012328
 20
-82.337684999999979
 30
0.0
 11
12.062659999999999
 21
-83.075817000000001
 31
0.0
  0
LINE
  8
OUTLINE
  6
CONTINUOUS
 62
     3
 10
12.036225
 20
-83.100959999999986
 30
0.0
 11
12.98269
 21
-82.372927000000004
 31
0.0
  0
LINE
  8
OUTLINE
  6
CONTINUOUS
 62
     3
 10
13.866351999999999
 20
-81.490996999999979
 30
0.0
 11
13.012328
 21
-82.337684999999979
 31
0.0
  0
LINE
  8
OUTLINE
  6
CONTINUOUS
 62
     3
 10
12.98269
 20
-82.372927000000004
 30
0.0
 11
13.835595
 21
-81.537360000000007
 31
0.0
  0
LINE
  8
OUTLINE
  6
CONTINUOUS
 62
     3
 10
14.765075
 20
-80.322450000000003
 30
0.0
 11
14.611392
 21
-80.549534999999977
 31
0.0
  0
LINE
  8
OUTLINE
  6
CONTINUOUS
 62
     3
 10
14.581842
 20
-80.607556999999986
 30
0.0
 11
14.745165
 21
-80.37036999999998
 31
0.0
  0
LINE
  8
OUTLINE
  6
CONTINUOUS
 62
     3
 10
14.611392
 20
-80.549534999999977
 30
0.0
 11
13.866351999999999
 21
-81.490996999999979
 31
0.0
  0
LINE
  8
OUTLINE
  6
CONTINUOUS
 62
     3
 10
13.835595
 20
-81.537360000000007
 30
0.0
 11
14.581842
 21
-80.607556999999986
 31
0.0
  0
LINE
  8
OUTLINE
  6
CONTINUOUS
 62
     3
 10
15.087847999999999
 20
-79.792428000000001
 30
0.0
 11
15.003168000000001
 21
-79.939594999999983
 31
0.0
  0
LINE
  8
OUTLINE
  6
CONTINUOUS
 62
     3
 10
14.998125
 20
-79.973586999999981
 30
0.0
 11
15.087289999999999
 21
-79.824432000000002
 31
0.0
  0
LINE
  8
OUTLINE
  6
CONTINUOUS
 62
     3
 10
15.003168000000001
 20
-79.939594999999983
 30
0.0
 11
14.896075
 21
-80.116959999999978
 31
0.0
  0
LINE
  8
OUTLINE
  6
CONTINUOUS
 62
     3
 10
14.884548000000001
 20
-80.156436999999983
 30
0.0
 11
14.998125
 21
-79.973586999999981
 31
0.0
  0
LINE
  8
OUTLINE
  6
CONTINUOUS
 62
     3
 10
14.896075
 20
-80.116959999999978
 30
0.0
 11
14.765075
 21
-80.322450000000003
 31
0.0
  0
LINE
  8
OUTLINE
  6
CONTINUOUS
 62
     3
 10
14.745165
 20
-80.37036999999998
 30
0.0
 11
14.884548000000001
 21
-80.156436999999983
 31
0.0
  0
LINE
  8
OUTLINE
  6
CONTINUOUS
 62
     3
 10
15.087289999999999
 20
-79.824430000000007
 30
0.0
 11
15.087847999999999
 21
-79.792430000000024
 31
0.0
  0
LINE
  8
OUTLINE
  6
CONTINUOUS
 62
     3
 10
7.605101999999999
 20
-84.755054999999999
 30
0.0
 11
6.412169999999999
 21
-84.825271999999984
 31
0.0
  0
LINE
  8
OUTLINE
  6
CONTINUOUS
 62
     3
 10
8.784435
 20
-84.539829999999981
 30
0.0
 11
7.604019999999998
 21
-84.753996999999998
 31
0.0
  0
LINE
  8
OUTLINE
  6
CONTINUOUS
 62
     3
 10
7.605101999999999
 20
-84.755054999999999
 30
0.0
 11
8.77707
 21
-84.544049999999984
 31
0.0
  0
LINE
  8
OUTLINE
  6
CONTINUOUS
 62
     3
 10
9.933487
 20
-84.18479499999998
 30
0.0
 11
8.784435
 21
-84.539829999999981
 31
0.0
  0
LINE
  8
OUTLINE
  6
CONTINUOUS
 62
     3
 10
8.77707
 20
-84.544049999999984
 30
0.0
 11
9.918467
 21
-84.194206999999977
 31
0.0
  0
LINE
  8
OUTLINE
  6
CONTINUOUS
 62
     3
 10
11.031718
 20
-83.694315000000003
 30
0.0
 11
9.933487
 21
-84.18479499999998
 31
0.0
  0
LINE
  8
OUTLINE
  6
CONTINUOUS
 62
     3
 10
9.918467
 20
-84.194206999999977
 30
0.0
 11
11.010244999999999
 21
-83.710769999999982
 31
0.0
  0
LINE
  8
OUTLINE
  6
CONTINUOUS
 62
     3
 10
12.062659999999999
 20
-83.075817000000001
 30
0.0
 11
11.031718
 21
-83.694315000000003
 31
0.0
  0
LINE
  8
OUTLINE
  6
CONTINUOUS
 62
     3
 10
11.010244999999999
 20
-83.710769999999982
 30
0.0
 11
12.036225
 21
-83.100959999999986
 31
0.0
  0
LINE
  8
OUTLINE
  6
CONTINUOUS
 62
     3
 10
-6.412171999999999
 20
-84.825271999999984
 30
0.0
 11
-7.604298
 21
-84.75396499999998
 31
0.0
  0
LINE
  8
OUTLINE
  6
CONTINUOUS
 62
     3
 10
-12.03656
 20
-83.100734999999986
 30
0.0
 11
-11.010622
 21
-83.710575000000006
 31
0.0
  0
LINE
  8
OUTLINE
  6
CONTINUOUS
 62
     3
 10
-11.032107999999999
 20
-83.694114999999982
 30
0.0
 11
-12.063007000000001
 21
-83.075580000000002
 31
0.0
  0
LINE
  8
OUTLINE
  6
CONTINUOUS
 62
     3
 10
-8.77749
 20
-84.543949999999981
 30
0.0
 11
-7.605377
 21
-84.755021999999983
 31
0.0
  0
LINE
  8
OUTLINE
  6
CONTINUOUS
 62
     3
 10
-7.604298
 20
-84.75396499999998
 30
0.0
 11
-8.784864999999998
 21
-84.539725000000004
 31
0.0
  0
LINE
  8
OUTLINE
  6
CONTINUOUS
 62
     3
 10
-9.918905000000001
 20
-84.194044999999974
 30
0.0
 11
-8.77749
 21
-84.543949999999981
 31
0.0
  0
LINE
  8
OUTLINE
  6
CONTINUOUS
 62
     3
 10
-8.784864999999998
 20
-84.539725000000004
 30
0.0
 11
-9.933937
 21
-84.184628000000004
 31
0.0
  0
LINE
  8
OUTLINE
  6
CONTINUOUS
 62
     3
 10
-11.010622
 20
-83.710575000000006
 30
0.0
 11
-9.918905000000001
 21
-84.194044999999974
 31
0.0
  0
LINE
  8
OUTLINE
  6
CONTINUOUS
 62
     3
 10
-9.933937
 20
-84.184628000000004
 30
0.0
 11
-11.032107999999999
 21
-83.694114999999982
 31
0.0
  0
LINE
  8
OUTLINE
  6
CONTINUOUS
 62
     3
 10
-12.983003
 20
-82.372655000000023
 30
0.0
 11
-12.03656
 21
-83.100734999999986
 31
0.0
  0
LINE
  8
OUTLINE
  6
CONTINUOUS
 62
     3
 10
-12.063007000000001
 20
-83.075580000000002
 30
0.0
 11
-13.012651999999999
 21
-82.337400000000002
 31
0.0
  0
LINE
  8
OUTLINE
  6
CONTINUOUS
 62
     3
 10
-13.835807000000001
 20
-81.537126999999984
 30
0.0
 11
-12.983003
 21
-82.372655000000023
 31
0.0
  0
LINE
  8
OUTLINE
  6
CONTINUOUS
 62
     3
 10
-13.012651999999999
 20
-82.337400000000002
 30
0.0
 11
-13.866569999999999
 21
-81.490757000000002
 31
0.0
  0
LINE
  8
OUTLINE
  6
CONTINUOUS
 62
     3
 10
-14.581845
 20
-80.607556999999986
 30
0.0
 11
-13.835807000000001
 21
-81.537126999999984
 31
0.0
  0
LINE
  8
OUTLINE
  6
CONTINUOUS
 62
     3
 10
-13.866569999999999
 20
-81.490757000000002
 30
0.0
 11
-14.611395
 21
-80.549534999999977
 31
0.0
  0
LINE
  8
OUTLINE
  6
CONTINUOUS
 62
     3
 10
-14.745013
 20
-80.370599999999982
 30
0.0
 11
-14.581845
 21
-80.607556999999986
 31
0.0
  0
LINE
  8
OUTLINE
  6
CONTINUOUS
 62
     3
 10
-14.611395
 20
-80.549534999999977
 30
0.0
 11
-14.764879999999989
 21
-80.322749999999999
 31
0.0
  0
LINE
  8
OUTLINE
  6
CONTINUOUS
 62
     3
 10
-14.884404999999999
 20
-80.156665000000004
 30
0.0
 11
-14.745013
 21
-80.370599999999982
 31
0.0
  0
LINE
  8
OUTLINE
  6
CONTINUOUS
 62
     3
 10
-14.764879999999989
 20
-80.322749999999999
 30
0.0
 11
-14.895885
 21
-80.117269999999976
 31
0.0
  0
LINE
  8
OUTLINE
  6
CONTINUOUS
 62
     3
 10
-14.998063
 20
-79.973694999999978
 30
0.0
 11
-14.884404999999999
 21
-80.156665000000004
 31
0.0
  0
LINE
  8
OUTLINE
  6
CONTINUOUS
 62
     3
 10
-14.895885
 20
-80.117269999999976
 30
0.0
 11
-15.003080000000001
 21
-79.939746999999983
 31
0.0
  0
LINE
  8
OUTLINE
  6
CONTINUOUS
 62
     3
 10
-15.087289999999999
 20
-79.824432000000002
 30
0.0
 11
-14.998063
 21
-79.973694999999978
 31
0.0
  0
LINE
  8
OUTLINE
  6
CONTINUOUS
 62
     3
 10
-15.003080000000001
 20
-79.939746999999983
 30
0.0
 11
-15.08785
 21
-79.792428000000001
 31
0.0
  0
LINE
  8
OUTLINE
  6
CONTINUOUS
 62
     3
 10
-15.08785
 20
-79.792430000000024
 30
0.0
 11
-15.087289999999999
 21
-79.824430000000007
 31
0.0
  0
LINE
  8
OUTLINE
  6
CONTINUOUS
 62
     3
 10
-17.487007999999999
 20
-79.99147499999998
 30
0.0
 11
-38.844245000000001
 21
-79.99147499999998
 31
0.0
  0
LINE
  8
OUTLINE
  6
CONTINUOUS
 62
     3
 10
-78.119590000000002
 20
-79.144689999999983
 30
0.0
 11
-78.677120000000002
 21
-78.670282999999998
 31
0.0
  0
LINE
  8
OUTLINE
  6
CONTINUOUS
 62
     3
 10
-76.099580000000003
 20
-79.950280000000006
 30
0.0
 11
-76.813374999999979
 21
-79.793130000000005
 31
0.0
  0
LINE
  8
OUTLINE
  6
CONTINUOUS
 62
     3
 10
-75.492080000000001
 20
-79.991461999999999
 30
0.0
 11
-76.099580000000003
 21
-79.950280000000006
 31
0.0
  0
LINE
  8
OUTLINE
  6
CONTINUOUS
 62
     3
 10
-76.813374999999979
 20
-79.793130000000005
 30
0.0
 11
-77.492701999999994
 21
-79.52229699999998
 31
0.0
  0
LINE
  8
OUTLINE
  6
CONTINUOUS
 62
     3
 10
-77.492701999999994
 20
-79.52229699999998
 30
0.0
 11
-78.119590000000002
 21
-79.144689999999983
 31
0.0
  0
LINE
  8
OUTLINE
  6
CONTINUOUS
 62
     3
 10
-78.677120000000002
 20
-78.670282999999998
 30
0.0
 11
-79.150359999999978
 21
-78.111689999999982
 31
0.0
  0
LINE
  8
OUTLINE
  6
CONTINUOUS
 62
     3
 10
-79.150359999999978
 20
-78.111689999999982
 30
0.0
 11
-79.526685000000001
 21
-77.483842000000024
 31
0.0
  0
LINE
  8
OUTLINE
  6
CONTINUOUS
 62
     3
 10
-79.951695000000001
 20
-76.089115000000007
 30
0.0
 11
-79.991461999999999
 21
-75.492076999999981
 31
0.0
  0
LINE
  8
OUTLINE
  6
CONTINUOUS
 62
     3
 10
-79.526685000000001
 20
-77.483842000000024
 30
0.0
 11
-79.796109999999999
 21
-76.803636999999981
 31
0.0
  0
LINE
  8
OUTLINE
  6
CONTINUOUS
 62
     3
 10
-79.796109999999999
 20
-76.803636999999981
 30
0.0
 11
-79.951695000000001
 21
-76.089115000000007
 31
0.0
  0
LINE
  8
OUTLINE
  6
CONTINUOUS
 62
     3
 10
75.492078000000006
 20
79.991472999999999
 30
0.0
 11
-75.492080000000001
 21
79.991472999999999
 31
0.0
  0
LINE
  8
OUTLINE
  6
CONTINUOUS
 62
     3
 10
79.52668199999998
 20
77.483845000000002
 30
0.0
 11
79.796107999999975
 21
76.803640000000001
 31
0.0
  0
LINE
  8
OUTLINE
  6
CONTINUOUS
 62
     3
 10
79.951693000000006
 20
76.089117999999999
 30
0.0
 11
79.991460000000004
 21
75.492080000000001
 31
0.0
  0
LINE
  8
OUTLINE
  6
CONTINUOUS
 62
     3
 10
79.796107999999975
 20
76.803640000000001
 30
0.0
 11
79.951693000000006
 21
76.089117999999999
 31
0.0
  0
LINE
  8
OUTLINE
  6
CONTINUOUS
 62
     3
 10
75.492078000000006
 20
79.991465000000005
 30
0.0
 11
76.099576999999982
 21
79.950280000000006
 31
0.0
  0
LINE
  8
OUTLINE
  6
CONTINUOUS
 62
     3
 10
76.099576999999982
 20
79.950280000000006
 30
0.0
 11
76.813372999999999
 21
79.793132999999983
 31
0.0
  0
LINE
  8
OUTLINE
  6
CONTINUOUS
 62
     3
 10
76.813372999999999
 20
79.793132999999983
 30
0.0
 11
77.492701999999994
 21
79.522300000000001
 31
0.0
  0
LINE
  8
OUTLINE
  6
CONTINUOUS
 62
     3
 10
77.492701999999994
 20
79.522300000000001
 30
0.0
 11
78.119587999999993
 21
79.144693000000004
 31
0.0
  0
LINE
  8
OUTLINE
  6
CONTINUOUS
 62
     3
 10
78.119587999999993
 20
79.144693000000004
 30
0.0
 11
78.677117999999993
 21
78.670284999999978
 31
0.0
  0
LINE
  8
OUTLINE
  6
CONTINUOUS
 62
     3
 10
78.677117999999993
 20
78.670284999999978
 30
0.0
 11
79.150357999999983
 21
78.111693000000002
 31
0.0
  0
LINE
  8
OUTLINE
  6
CONTINUOUS
 62
     3
 10
79.150357999999983
 20
78.111693000000002
 30
0.0
 11
79.52668199999998
 21
77.483845000000002
 31
0.0
  0
LINE
  8
OUTLINE
  6
CONTINUOUS
 62
     3
 10
-79.792819999999978
 20
76.814382999999978
 30
0.0
 11
-79.521663000000004
 21
77.493984999999981
 31
0.0
  0
LINE
  8
OUTLINE
  6
CONTINUOUS
 62
     3
 10
-79.950205000000025
 20
76.100148000000004
 30
0.0
 11
-79.792819999999978
 21
76.814382999999978
 31
0.0
  0
LINE
  8
OUTLINE
  6
CONTINUOUS
 62
     3
 10
-79.991461999999999
 20
75.492080000000001
 30
0.0
 11
-79.950205000000025
 21
76.100148000000004
 31
0.0
  0
LINE
  8
OUTLINE
  6
CONTINUOUS
 62
     3
 10
-76.088544999999982
 20
79.951769999999982
 30
0.0
 11
-75.492080000000001
 21
79.991465000000005
 31
0.0
  0
LINE
  8
OUTLINE
  6
CONTINUOUS
 62
     3
 10
-76.802627000000001
 20
79.796418000000003
 30
0.0
 11
-76.088544999999982
 21
79.951769999999982
 31
0.0
  0
LINE
  8
OUTLINE
  6
CONTINUOUS
 62
     3
 10
-77.482555000000005
 20
79.527320000000003
 30
0.0
 11
-76.802627000000001
 21
79.796418000000003
 31
0.0
  0
LINE
  8
OUTLINE
  6
CONTINUOUS
 62
     3
 10
-78.110354999999998
 20
79.151318000000003
 30
0.0
 11
-77.482555000000005
 21
79.527320000000003
 31
0.0
  0
LINE
  8
OUTLINE
  6
CONTINUOUS
 62
     3
 10
-78.669071999999986
 20
78.678330000000003
 30
0.0
 11
-78.110354999999998
 21
79.151318000000003
 31
0.0
  0
LINE
  8
OUTLINE
  6
CONTINUOUS
 62
     3
 10
-79.143731999999986
 20
78.120923000000005
 30
0.0
 11
-78.669071999999986
 21
78.678330000000003
 31
0.0
  0
LINE
  8
OUTLINE
  6
CONTINUOUS
 62
     3
 10
-79.521663000000004
 20
77.493984999999981
 30
0.0
 11
-79.143731999999986
 21
78.120923000000005
 31
0.0
  0
ARC
  8
FIX
  6
CONTINUOUS
 62
    11
 10
69.965254999999999
 20
69.965254999999999
 30
0.0
 40
2.5
 50
315.0
 51
135.0
  0
LINE
  8
FIX
  6
CONTINUOUS
 62
    11
 10
66.783271999999997
 20
70.318809999999999
 30
0.0
 11
68.197488000000007
 21
71.733023000000003
 31
0.0
  0
LINE
  8
FIX
  6
CONTINUOUS
 62
    11
 10
71.733019999999996
 20
68.197490000000002
 30
0.0
 11
70.31880799999999
 21
66.783275000000003
 31
0.0
  0
ARC
  8
FIX
  6
CONTINUOUS
 62
    11
 10
68.55104
 20
68.551043000000007
 30
0.0
 40
2.5
 50
135.0
 51
315.0
  0
ARC
  8
FIX
  6
CONTINUOUS
 62
    11
 10
70.0
 20
6.0
 30
0.0
 40
2.0
 50
0.0
 51
180.0
  0
ARC
  8
FIX
  6
CONTINUOUS
 62
    11
 10
70.0
 20
0.0
 30
0.0
 40
2.0
 50
180.0
 51
0.0
  0
LINE
  8
FIX
  6
CONTINUOUS
 62
    11
 10
72.0
 20
6.0
 30
0.0
 11
72.0
 21
0.0
 31
0.0
  0
LINE
  8
FIX
  6
CONTINUOUS
 62
    11
 10
68.0
 20
0.0
 30
0.0
 11
68.0
 21
6.0
 31
0.0
  0
LINE
  8
FIX
  6
CONTINUOUS
 62
    11
 10
-72.0
 20
0.0
 30
0.0
 11
-72.0
 21
6.0
 31
0.0
  0
LINE
  8
FIX
  6
CONTINUOUS
 62
    11
 10
-68.0
 20
6.0
 30
0.0
 11
-68.0
 21
0.0
 31
0.0
  0
ARC
  8
FIX
  6
CONTINUOUS
 62
    11
 10
-70.0
 20
0.0
 30
0.0
 40
2.0
 50
180.0
 51
0.0
  0
ARC
  8
FIX
  6
CONTINUOUS
 62
    11
 10
-70.0
 20
6.0
 30
0.0
 40
2.0
 50
0.0
 51
180.0
  0
ARC
  8
FIX
  6
CONTINUOUS
 62
    11
 10
-70.741852000000023
 20
-69.327636999999996
 30
0.0
 40
2.5
 50
45.0
 51
225.0
  0
ARC
  8
FIX
  6
CONTINUOUS
 62
    11
 10
-69.327640000000002
 20
-70.741849999999985
 30
0.0
 40
2.5
 50
225.0
 51
45.0
  0
LINE
  8
FIX
  6
CONTINUOUS
 62
    11
 10
-68.974085000000002
 20
-67.559869999999989
 30
0.0
 11
-67.559871999999984
 21
-68.974081999999996
 31
0.0
  0
LINE
  8
FIX
  6
CONTINUOUS
 62
    11
 10
-71.095405
 20
-72.509617000000006
 30
0.0
 11
-72.509619999999998
 21
-71.095405
 31
0.0
  0
LINE
  8
NOTE
  6
CONTINUOUS
 62
     4
 10
-70.0
 20
6.0
 30
0.0
 11
-75.719678000000002
 21
22.629505000000002
 31
0.0
  0
LINE
  8
NOTE
  6
CONTINUOUS
 62
     4
 10
-70.0
 20
6.0
 30
0.0
 11
-85.500908999999979
 21
14.305239
 31
0.0
  0
LINE
  8
NOTE
  6
CONTINUOUS
 62
     4
 10
-215.74510599999999
 20
-392.183852
 30
0.0
 11
-397.58828899999997
 21
-392.183852
 31
0.0
  0
TEXT
  8
NOTE
  6
CONTINUOUS
 62
     4
 10
-375.92078299999997
 20
-381.65853800000002
 30
0.0
 40
40.0
  1
φ5×7
 41
0.9
  0
LINE
  8
NOTE
  6
CONTINUOUS
 62
     4
 10
-70.0
 20
-70.0
 30
0.0
 11
-215.74510599999999
 21
-392.183852
 31
0.0
  0
LINE
  8
NOTE
  6
CONTINUOUS
 62
     4
 10
-70.0
 20
-70.0
 30
0.0
 11
-74.470318000000006
 21
-97.521907999999996
 31
0.0
  0
LINE
  8
NOTE
  6
CONTINUOUS
 62
     4
 10
-70.0
 20
-70.0
 30
0.0
 11
-88.437905000000001
 21
-89.907157999999981
 31
0.0
  0
LINE
  8
SIZE
  6
CONTINUOUS
 62
    30
 10
70.0
 20
-25.0
 30
0.0
 11
70.0
 21
-221.87138300000001
 31
0.0
  0
LINE
  8
SIZE
  6
CONTINUOUS
 62
    30
 10
-70.0
 20
-96.0
 30
0.0
 11
-70.0
 21
-221.87138300000001
 31
0.0
  0
LINE
  8
SIZE
  6
CONTINUOUS
 62
    30
 10
58.0
 20
-201.87138300000001
 30
0.0
 11
-58.0
 21
-201.87138300000001
 31
0.0
  0
CIRCLE
  8
SIZE
  6
CONTINUOUS
 62
    30
 10
70.0
 20
-201.87138300000001
 30
0.0
 40
6.0
  0
LINE
  8
SIZE
  6
CONTINUOUS
 62
    30
 10
70.0
 20
-201.87138300000001
 30
0.0
 11
58.0
 21
-201.87138300000001
 31
0.0
  0
CIRCLE
  8
SIZE
  6
CONTINUOUS
 62
    30
 10
-70.0
 20
-201.87138300000001
 30
0.0
 40
6.0
  0
LINE
  8
SIZE
  6
CONTINUOUS
 62
    30
 10
-70.0
 20
-201.87138300000001
 30
0.0
 11
-58.0
 21
-201.87138300000001
 31
0.0
  0
TEXT
  8
SIZE
  6
CONTINUOUS
 62
    30
 10
-68.571428571428569
 20
-176.87138300000001
 30
0.0
 40
64.0
  1
140
 41
0.9
 72
     1
 11
0.0
 21
-176.87138300000001
 31
0.0
  0
POINT
  8
DEFPOINTS
  6
CONTINUOUS
 62
    30
 10
70.0
 20
-5.0
 30
0.0
  0
POINT
  8
DEFPOINTS
  6
CONTINUOUS
 62
    30
 10
-70.0
 20
-76.0
 30
0.0
  0
POINT
  8
DEFPOINTS
  6
CONTINUOUS
 62
    30
 10
-70.0
 20
-201.87138300000001
 30
0.0
  0
LINE
  8
SIZE
  6
CONTINUOUS
 62
    30
 10
79.991469999999978
 20
-85.882695999999981
 30
0.0
 11
79.991469999999978
 21
-341.87138299999998
 31
0.0
  0
LINE
  8
SIZE
  6
CONTINUOUS
 62
    30
 10
-79.991472999999999
 20
-85.882695999999981
 30
0.0
 11
-79.991472999999999
 21
-341.87138299999998
 31
0.0
  0
LINE
  8
SIZE
  6
CONTINUOUS
 62
    30
 10
-67.991472999999999
 20
-321.87138299999998
 30
0.0
 11
67.991469999999993
 21
-321.87138299999998
 31
0.0
  0
LINE
  8
SIZE
  6
CONTINUOUS
 62
    30
 10
79.991469999999978
 20
-321.87138299999998
 30
0.0
 11
344.41432700000001
 21
-321.87138299999998
 31
0.0
  0
CIRCLE
  8
SIZE
  6
CONTINUOUS
 62
    30
 10
-79.991472999999999
 20
-321.87138299999998
 30
0.0
 40
6.0
  0
LINE
  8
SIZE
  6
CONTINUOUS
 62
    30
 10
-79.991472999999999
 20
-321.87138299999998
 30
0.0
 11
-67.991472999999999
 21
-321.87138299999998
 31
0.0
  0
CIRCLE
  8
SIZE
  6
CONTINUOUS
 62
    30
 10
79.991469999999978
 20
-321.87138299999998
 30
0.0
 40
6.0
  0
LINE
  8
SIZE
  6
CONTINUOUS
 62
    30
 10
79.991469999999978
 20
-321.87138299999998
 30
0.0
 11
67.991469999999993
 21
-321.87138299999998
 31
0.0
  0
TEXT
  8
SIZE
  6
CONTINUOUS
 62
    30
 10
113.1514704285715
 20
-296.87138299999998
 30
0.0
 40
64.0
  1
□160
 41
0.9
 72
     1
 11
218.202899
 21
-296.87138299999998
 31
0.0
  0
POINT
  8
DEFPOINTS
  6
CONTINUOUS
 62
    30
 10
79.991469999999978
 20
-65.882695999999996
 30
0.0
  0
POINT
  8
DEFPOINTS
  6
CONTINUOUS
 62
    30
 10
-79.991472999999999
 20
-65.882695999999996
 30
0.0
  0
POINT
  8
DEFPOINTS
  6
CONTINUOUS
 62
    30
 10
-79.991472999999999
 20
-321.87138299999998
 30
0.0
  0
LINE
  8
SIZE
  6
CONTINUOUS
 62
    30
 10
95.0
 20
70.0
 30
0.0
 11
224.215845
 21
70.0
 31
0.0
  0
LINE
  8
SIZE
  6
CONTINUOUS
 62
    30
 10
110.28252000000001
 20
0.0
 30
0.0
 11
224.215845
 21
0.0
 31
0.0
  0
LINE
  8
SIZE
  6
CONTINUOUS
 62
    30
 10
204.215845
 20
-12.0
 30
0.0
 11
204.215845
 21
-24.0
 31
0.0
  0
LINE
  8
SIZE
  6
CONTINUOUS
 62
    30
 10
204.215845
 20
82.0
 30
0.0
 11
204.215845
 21
237.25714300000001
 31
0.0
  0
LINE
  8
SIZE
  6
CONTINUOUS
 62
    30
 10
204.215845
 20
0.0
 30
0.0
 11
204.215845
 21
70.0
 31
0.0
  0
CIRCLE
  8
SIZE
  6
CONTINUOUS
 62
    30
 10
204.215845
 20
0.0
 30
0.0
 40
6.0
  0
LINE
  8
SIZE
  6
CONTINUOUS
 62
    30
 10
204.215845
 20
0.0
 30
0.0
 11
204.215845
 21
-12.0
 31
0.0
  0
CIRCLE
  8
SIZE
  6
CONTINUOUS
 62
    30
 10
204.215845
 20
70.0
 30
0.0
 40
6.0
  0
LINE
  8
SIZE
  6
CONTINUOUS
 62
    30
 10
204.215845
 20
70.0
 30
0.0
 11
204.215845
 21
82.0
 31
0.0
  0
TEXT
  8
SIZE
  6
CONTINUOUS
 62
    30
 10
179.215845
 20
118.9999995714286
 30
0.0
 40
64.0
  1
70
 50
90.0
 41
0.9
 72
     1
 11
179.215845
 21
165.62857099999999
 31
0.0
  0
POINT
  8
DEFPOINTS
  6
CONTINUOUS
 62
    30
 10
75.0
 20
70.0
 30
0.0
  0
POINT
  8
DEFPOINTS
  6
CONTINUOUS
 62
    30
 10
90.282520000000005
 20
0.0
 30
0.0
  0
POINT
  8
DEFPOINTS
  6
CONTINUOUS
 62
    30
 10
204.215845
 20
0.0
 30
0.0
  0
LINE
  8
SIZE
  6
CONTINUOUS
 62
    30
 10
-111.33922099999999
 20
0.0
 30
0.0
 11
-258.01343000000003
 21
0.0
 31
0.0
  0
LINE
  8
SIZE
  6
CONTINUOUS
 62
    30
 10
-95.0
 20
-70.0
 30
0.0
 11
-258.01343000000003
 21
-70.0
 31
0.0
  0
LINE
  8
SIZE
  6
CONTINUOUS
 62
    30
 10
-238.01343
 20
12.0
 30
0.0
 11
-238.01343
 21
24.0
 31
0.0
  0
LINE
  8
SIZE
  6
CONTINUOUS
 62
    30
 10
-238.01343
 20
-82.0
 30
0.0
 11
-238.01343
 21
-237.25714300000001
 31
0.0
  0
LINE
  8
SIZE
  6
CONTINUOUS
 62
    30
 10
-238.01343
 20
0.0
 30
0.0
 11
-238.01343
 21
-70.0
 31
0.0
  0
CIRCLE
  8
SIZE
  6
CONTINUOUS
 62
    30
 10
-238.01343
 20
0.0
 30
0.0
 40
6.0
  0
LINE
  8
SIZE
  6
CONTINUOUS
 62
    30
 10
-238.01343
 20
0.0
 30
0.0
 11
-238.01343
 21
12.0
 31
0.0
  0
CIRCLE
  8
SIZE
  6
CONTINUOUS
 62
    30
 10
-238.01343
 20
-70.0
 30
0.0
 40
6.0
  0
LINE
  8
SIZE
  6
CONTINUOUS
 62
    30
 10
-238.01343
 20
-70.0
 30
0.0
 11
-238.01343
 21
-82.0
 31
0.0
  0
TEXT
  8
SIZE
  6
CONTINUOUS
 62
    30
 10
-263.01343000000003
 20
-212.2571424285714
 30
0.0
 40
64.0
  1
70
 50
90.0
 41
0.9
 72
     1
 11
-263.01343000000003
 21
-165.62857099999999
 31
0.0
  0
POINT
  8
DEFPOINTS
  6
CONTINUOUS
 62
    30
 10
-91.339220999999995
 20
0.0
 30
0.0
  0
POINT
  8
DEFPOINTS
  6
CONTINUOUS
 62
    30
 10
-75.0
 20
-70.0
 30
0.0
  0
POINT
  8
DEFPOINTS
  6
CONTINUOUS
 62
    30
 10
-238.01343
 20
-70.0
 30
0.0
  0
LINE
  8
SIZE
  6
CONTINUOUS
 62
    30
 10
-95.0
 20
6.0
 30
0.0
 11
-258.01343000000003
 21
6.0
 31
0.0
  0
LINE
  8
SIZE
  6
CONTINUOUS
 62
    30
 10
-111.33922099999999
 20
0.0
 30
0.0
 11
-258.01343000000003
 21
0.0
 31
0.0
  0
LINE
  8
SIZE
  6
CONTINUOUS
 62
    30
 10
-238.01343
 20
-12.0
 30
0.0
 11
-238.01343
 21
-24.0
 31
0.0
  0
LINE
  8
SIZE
  6
CONTINUOUS
 62
    30
 10
-238.01343
 20
18.0
 30
0.0
 11
-238.01343
 21
115.657143
 31
0.0
  0
LINE
  8
SIZE
  6
CONTINUOUS
 62
    30
 10
-238.01343
 20
0.0
 30
0.0
 11
-238.01343
 21
6.0
 31
0.0
  0
CIRCLE
  8
SIZE
  6
CONTINUOUS
 62
    30
 10
-238.01343
 20
0.0
 30
0.0
 40
6.0
  0
LINE
  8
SIZE
  6
CONTINUOUS
 62
    30
 10
-238.01343
 20
0.0
 30
0.0
 11
-238.01343
 21
-12.0
 31
0.0
  0
CIRCLE
  8
SIZE
  6
CONTINUOUS
 62
    30
 10
-238.01343
 20
6.0
 30
0.0
 40
6.0
  0
LINE
  8
SIZE
  6
CONTINUOUS
 62
    30
 10
-238.01343
 20
6.0
 30
0.0
 11
-238.01343
 21
18.0
 31
0.0
  0
TEXT
  8
SIZE
  6
CONTINUOUS
 62
    30
 10
-263.01343000000003
 20
54.99999957142856
 30
0.0
 40
64.0
  1
6
 50
90.0
 41
0.9
 72
     1
 11
-263.01343000000003
 21
72.828570999999982
 31
0.0
  0
POINT
  8
DEFPOINTS
  6
CONTINUOUS
 62
    30
 10
-75.0
 20
6.0
 30
0.0
  0
POINT
  8
DEFPOINTS
  6
CONTINUOUS
 62
    30
 10
-91.339220999999995
 20
0.0
 30
0.0
  0
POINT
  8
DEFPOINTS
  6
CONTINUOUS
 62
    30
 10
-238.01343
 20
0.0
 30
0.0
  0
LINE
  8
SIZE
  6
CONTINUOUS
 62
    30
 10
20.0
 20
-84.825271999999984
 30
0.0
 11
224.215845
 21
-84.825272999999981
 31
0.0
  0
LINE
  8
SIZE
  6
CONTINUOUS
 62
    30
 10
20.0
 20
-79.792428999999998
 30
0.0
 11
224.215845
 21
-79.792428999999998
 31
0.0
  0
LINE
  8
SIZE
  6
CONTINUOUS
 62
    30
 10
204.215845
 20
-67.792428999999984
 30
0.0
 11
204.215845
 21
-55.792428999999998
 31
0.0
  0
LINE
  8
SIZE
  6
CONTINUOUS
 62
    30
 10
204.215845
 20
-96.825272999999996
 30
0.0
 11
204.215845
 21
-197.22527299999999
 31
0.0
  0
LINE
  8
SIZE
  6
CONTINUOUS
 62
    30
 10
204.215845
 20
-79.792428999999998
 30
0.0
 11
204.215845
 21
-84.825272999999981
 31
0.0
  0
CIRCLE
  8
SIZE
  6
CONTINUOUS
 62
    30
 10
204.215845
 20
-79.792428999999998
 30
0.0
 40
6.0
  0
LINE
  8
SIZE
  6
CONTINUOUS
 62
    30
 10
204.215845
 20
-79.792428999999998
 30
0.0
 11
204.215845
 21
-67.792428999999984
 31
0.0
  0
CIRCLE
  8
SIZE
  6
CONTINUOUS
 62
    30
 10
204.215845
 20
-84.825272999999981
 30
0.0
 40
6.0
  0
LINE
  8
SIZE
  6
CONTINUOUS
 62
    30
 10
204.215845
 20
-84.825272999999981
 30
0.0
 11
204.215845
 21
-96.825272999999996
 31
0.0
  0
TEXT
  8
SIZE
  6
CONTINUOUS
 62
    30
 10
179.215845
 20
-172.22527299999999
 30
0.0
 40
64.0
  1
5
 50
90.0
 41
0.9
 72
     1
 11
179.215845
 21
-153.025273
 31
0.0
  0
POINT
  8
DEFPOINTS
  6
CONTINUOUS
 62
    30
 10
0.0
 20
-84.825271999999984
 30
0.0
  0
POINT
  8
DEFPOINTS
  6
CONTINUOUS
 62
    30
 10
0.0
 20
-79.792428999999998
 30
0.0
  0
POINT
  8
DEFPOINTS
  6
CONTINUOUS
 62
    30
 10
204.215845
 20
-79.792428999999998
 30
0.0
  0
CIRCLE
  8
DETAIL
  6
CONTINUOUS
 62
     5
 10
0.0
 20
0.0
 30
0.0
 40
23.0
  0
CIRCLE
  8
DETAIL
  6
CONTINUOUS
 62
     5
 10
0.0
 20
0.0
 30
0.0
 40
47.5
  0
LINE
  8
NOTE
  6
CONTINUOUS
 62
     4
 10
70.0
 20
70.0
 30
0.0
 11
-23.985537000000001
 21
315.45284800000002
 31
0.0
  0
LINE
  8
NOTE
  6
CONTINUOUS
 62
     4
 10
-23.985537000000001
 20
315.45284800000002
 30
0.0
 11
-201.30618799999999
 21
315.45284800000002
 31
0.0
  0
TEXT
  8
NOTE
  6
CONTINUOUS
 62
     4
 10
-183.46235999999999
 20
327.904652
 30
0.0
 40
40.0
  1
φ5×7
 41
0.9
  0
LINE
  8
NOTE
  6
CONTINUOUS
 62
     4
 10
70.0
 20
70.0
 30
0.0
 11
69.055154000000002
 21
89.397843000000023
 31
0.0
  0
LINE
  8
NOTE
  6
CONTINUOUS
 62
     4
 10
70.0
 20
70.0
 30
0.0
 11
57.747602999999998
 21
85.068105999999986
 31
0.0
  0
TEXT
  8
ETC
  6
CONTINUOUS
 62
    61
 10
221.45465796745981
 20
482.8558685546289
 30
0.0
 40
40.0
  1
V-08PQ7_3
 41
0.9
  0
TEXT
  8
ETC
  6
CONTINUOUS
 62
    61
 10
217.26866396745979
 20
422.15958955462889
 30
0.0
 40
40.0
  1
換気扇
 41
0.9
  0
TEXT
  8
ETC
  6
CONTINUOUS
 62
    61
 10
267.87616696745971
 20
340.289479554629
 30
0.0
 40
40.0
  1
V-08PQ7
 41
0.9
  0
TEXT
  8
ETC
  6
CONTINUOUS
 62
    61
 10
267.87616696745971
 20
280.09791387303397
 30
0.0
 40
40.0
  1
V-08PPQ7
 41
0.9
  0
ENDSEC
  0
EOF
