  0
SECTION
  2
HEADER
  9
$ACADVER
  1
AC1009
  9
$INSBASE
 10
0.0
 20
0.0
 30
0.0
  9
$EXTMIN
 10
-354.42286100000001
 20
-324.12028800000002
 30
0.0
  9
$EXTMAX
 10
714.02504199999998
 20
367.69815799999998
 30
49.999109999999988
  9
$LIMMIN
 10
-2970.0
 20
-2100.0
  9
$LIMMAX
 10
2970.0
 20
2100.0
  9
$ORTHOMODE
 70
     1
  9
$REGENMODE
 70
     1
  9
$FILLMODE
 70
     1
  9
$QTEXTMODE
 70
     0
  9
$MIRRTEXT
 70
     0
  9
$DRAGMODE
 70
     2
  9
$LTSCALE
 40
5.0
  9
$OSMODE
 70
    37
  9
$ATTMODE
 70
     1
  9
$TEXTSIZE
 40
64.0
  9
$TRACEWID
 40
0.05
  9
$TEXTSTYLE
  7
STANDARD
  9
$CLAYER
  8
SIZE
  9
$CELTYPE
  6
CONTINUOUS
  9
$CECOLOR
 62
     7
  9
$DIMSCALE
 40
1.0
  9
$DIMASZ
 40
12.0
  9
$DIMEXO
 40
20.0
  9
$DIMDLI
 40
200.0
  9
$DIMRND
 40
0.0
  9
$DIMDLE
 40
0.0
  9
$DIMEXE
 40
20.0
  9
$DIMTP
 40
0.0
  9
$DIMTM
 40
0.0
  9
$DIMTXT
 40
64.0
  9
$DIMCEN
 40
0.09
  9
$DIMTSZ
 40
0.0
  9
$DIMTOL
 70
     0
  9
$DIMLIM
 70
     0
  9
$DIMTIH
 70
     0
  9
$DIMTOH
 70
     0
  9
$DIMSE1
 70
     0
  9
$DIMSE2
 70
     0
  9
$DIMTAD
 70
     1
  9
$DIMZIN
 70
     8
  9
$DIMBLK
  1
DOT1
  9
$DIMASO
 70
     1
  9
$DIMSHO
 70
     0
  9
$DIMPOST
  1

  9
$DIMAPOST
  1

  9
$DIMALT
 70
     0
  9
$DIMALTD
 70
     2
  9
$DIMALTF
 40
25.399999999999999
  9
$DIMLFAC
 40
1.0
  9
$DIMTOFL
 70
     1
  9
$DIMTVP
 40
0.0
  9
$DIMTIX
 70
     1
  9
$DIMSOXD
 70
     0
  9
$DIMSAH
 70
     1
  9
$DIMBLK1
  1
ORIGIN
  9
$DIMBLK2
  1
ORIGIN
  9
$DIMSTYLE
  2
STANDARD
  9
$DIMCLRD
 70
     7
  9
$DIMCLRE
 70
     7
  9
$DIMCLRT
 70
     7
  9
$DIMTFAC
 40
1.0
  9
$DIMGAP
 40
25.0
  9
$LUNITS
 70
     2
  9
$LUPREC
 70
     4
  9
$SKETCHINC
 40
0.1
  9
$FILLETRAD
 40
3.0
  9
$AUNITS
 70
     1
  9
$AUPREC
 70
     3
  9
$MENU
  1
ACAD
  9
$ELEVATION
 40
0.0
  9
$PELEVATION
 40
0.0
  9
$THICKNESS
 40
50.0
  9
$LIMCHECK
 70
     0
  9
$BLIPMODE
 70
     0
  9
$CHAMFERA
 40
0.0
  9
$CHAMFERB
 40
0.0
  9
$SKPOLY
 70
     0
  9
$TDCREATE
 40
2453019.6230103709
  9
$TDUPDATE
 40
2454921.6323381951
  9
$TDINDWG
 40
1.7146200925999999
  9
$TDUSRTIMER
 40
1.7146182754999999
  9
$USRTIMER
 70
     1
  9
$ANGBASE
 50
0.0
  9
$ANGDIR
 70
     0
  9
$PDMODE
 70
     3
  9
$PDSIZE
 40
-2.0
  9
$PLINEWID
 40
0.0
  9
$COORDS
 70
     0
  9
$SPLFRAME
 70
     0
  9
$SPLINETYPE
 70
     6
  9
$SPLINESEGS
 70
     8
  9
$ATTDIA
 70
     0
  9
$ATTREQ
 70
     1
  9
$HANDLING
 70
     1
  9
$HANDSEED
  5
35C
  9
$SURFTAB1
 70
     6
  9
$SURFTAB2
 70
     6
  9
$SURFTYPE
 70
     6
  9
$SURFU
 70
     6
  9
$SURFV
 70
     6
  9
$UCSNAME
  2

  9
$UCSORG
 10
0.0
 20
0.0
 30
0.0
  9
$UCSXDIR
 10
1.0
 20
0.0
 30
0.0
  9
$UCSYDIR
 10
0.0
 20
1.0
 30
0.0
  9
$PUCSNAME
  2

  9
$PUCSORG
 10
0.0
 20
0.0
 30
0.0
  9
$PUCSXDIR
 10
1.0
 20
0.0
 30
0.0
  9
$PUCSYDIR
 10
0.0
 20
1.0
 30
0.0
  9
$USERI1
 70
     0
  9
$USERI2
 70
     0
  9
$USERI3
 70
     0
  9
$USERI4
 70
     0
  9
$USERI5
 70
     0
  9
$USERR1
 40
20.0
  9
$USERR2
 40
0.0
  9
$USERR3
 40
0.0
  9
$USERR4
 40
0.0
  9
$USERR5
 40
0.0
  9
$WORLDVIEW
 70
     1
  9
$SHADEDGE
 70
     3
  9
$SHADEDIF
 70
    70
  9
$TILEMODE
 70
     1
  9
$MAXACTVP
 70
    48
  9
$PLIMCHECK
 70
     0
  9
$PEXTMIN
 10
-1.0000000000000000E+020
 20
-1.0000000000000000E+020
 30
-1.0000000000000000E+020
  9
$PEXTMAX
 10
1.0000000000000000E+020
 20
1.0000000000000000E+020
 30
1.0000000000000000E+020
  9
$PLIMMIN
 10
0.0
 20
0.0
  9
$PLIMMAX
 10
12.0
 20
9.0
  9
$UNITMODE
 70
     0
  9
$VISRETAIN
 70
     0
  9
$PLINEGEN
 70
     0
  9
$PSLTSCALE
 70
     0
  0
ENDSEC
  0
SECTION
  2
TABLES
  0
TABLE
  2
VPORT
 70
     1
  0
VPORT
  2
*ACTIVE
 70
     0
 10
0.0
 20
0.0
 11
1.0
 21
1.0
 12
210.0804795540671
 22
-0.5257829720537757
 13
0.0
 23
0.0
 14
1.0
 24
1.0
 15
0.0
 25
0.0
 16
0.0
 26
0.0
 36
1.0
 17
0.0
 27
0.0
 37
0.0
 40
922.64890943626961
 41
1.3098995695839311
 42
50.0
 43
0.0
 44
0.0
 50
0.0
 51
0.0
 71
     0
 72
  1000
 73
     1
 74
     0
 75
     0
 76
     0
 77
     0
 78
     0
  0
ENDTAB
  0
TABLE
  2
LTYPE
 70
     2
  0
LTYPE
  2
CONTINUOUS
 70
     0
  3
実線
 72
    65
 73
     0
 40
0.0
  0
LTYPE
  2
DASHDOT
 70
     0
  3
____ _ ____ _ ____ _ ____ _ ____ _ ____ _ ____
 72
    65
 73
     4
 40
5.5
 49
4.0
 49
-0.6
 49
0.3
 49
-0.6
  0
ENDTAB
  0
TABLE
  2
LAYER
 70
     8
  0
LAYER
  2
0
 70
     0
 62
     7
  6
CONTINUOUS
  0
LAYER
  2
SIZE
 70
     0
 62
    30
  6
CONTINUOUS
  0
LAYER
  2
BASIS
 70
     0
 62
     6
  6
DASHDOT
  0
LAYER
  2
OUTLINE
 70
     0
 62
     3
  6
CONTINUOUS
  0
LAYER
  2
DETAIL
 70
     0
 62
     5
  6
CONTINUOUS
  0
LAYER
  2
ARRANGE
 70
     0
 62
     1
  6
CONTINUOUS
  0
LAYER
  2
DEFPOINTS
 70
     0
 62
     7
  6
CONTINUOUS
  0
LAYER
  2
ETC
 70
     0
 62
    61
  6
CONTINUOUS
  0
ENDTAB
  0
TABLE
  2
STYLE
 70
     2
  0
STYLE
  2
STANDARD
 70
     0
 40
64.0
 41
0.9
 50
0.0
 71
     0
 42
64.0
  3
SIMPLEX.shx
  4
BIGFONT.shx
  0
STYLE
  2
ANNOTATIVE
 70
     0
 40
0.0
 41
1.0
 50
0.0
 71
     0
 42
0.2
  3
txt
  4

  0
ENDTAB
  0
TABLE
  2
VIEW
 70
     1
  0
VIEW
  2
ALL
 70
     0
 40
4282.6198079999986
 10
0.0
 20
41.309903999999989
 41
5940.0
 11
0.0
 21
0.0
 31
1.0
 12
0.0
 22
0.0
 32
0.0
 42
50.0
 43
0.0
 44
0.0
 50
0.0
 71
     0
  0
ENDTAB
  0
TABLE
  2
UCS
 70
     0
  0
ENDTAB
  0
TABLE
  2
APPID
 70
    17
  0
APPID
  2
ACAD
 70
     0
  0
APPID
  2
ACADANNOTATIVE
 70
     0
  0
APPID
  2
ACAD_MLEADERVER
 70
     0
  0
APPID
  2
AUTOCAD_POSTSCRIPT_FIGURE
 70
     0
  0
APPID
  2
ACAD_EXEMPT_FROM_CAD_STANDARDS
 70
     0
  0
APPID
  2
ACAD_PSEXT
 70
     0
  0
APPID
  2
ACAUTHENVIRON
 70
     0
  0
APPID
  2
GENIUS_GENOENT_13
 70
     0
  0
APPID
  2
GENIUS_GENCFG_13
 70
     0
  0
APPID
  2
GENIUS_GENCFG0_13
 70
     0
  0
APPID
  2
GENIUS_GENCFG1_13
 70
     0
  0
APPID
  2
GENIUS_GENCFG2_13
 70
     0
  0
APPID
  2
GENIUS_GENCFG3_13
 70
     0
  0
APPID
  2
GENIUS_GENCFG4_13
 70
     0
  0
APPID
  2
GENIUS_GEVCFG0_13
 70
     0
  0
APPID
  2
CONTENTBLOCKDESCRIPTION
 70
     0
  0
APPID
  2
CONTENTBLOCKICON
 70
     0
  0
ENDTAB
  0
TABLE
  2
DIMSTYLE
 70
     2
  0
DIMSTYLE
  2
STANDARD
 70
     0
  3

  4

  5

  6

  7

 40
1.0
 41
0.18
 42
0.0625
 43
0.38
 44
0.18
 45
0.0
 46
0.0
 47
0.0
 48
0.0
140
0.18
141
0.09
142
0.0
143
25.399999999999999
144
1.0
145
0.0
146
1.0
147
0.09
 71
     0
 72
     0
 73
     1
 74
     1
 75
     0
 76
     0
 77
     0
 78
     0
170
     0
171
     2
172
     0
173
     0
174
     0
175
     0
176
     7
177
     7
178
     7
  0
DIMSTYLE
  2
ANNOTATIVE
 70
     0
  3

  4

  5

  6

  7

 40
1.0
 41
0.18
 42
0.0625
 43
0.38
 44
0.18
 45
0.0
 46
0.0
 47
0.0
 48
0.0
140
0.18
141
0.09
142
0.0
143
25.399999999999999
144
1.0
145
0.0
146
1.0
147
0.09
 71
     0
 72
     0
 73
     1
 74
     1
 75
     0
 76
     0
 77
     0
 78
     0
170
     0
171
     2
172
     0
173
     0
174
     0
175
     0
176
     0
177
     0
178
     0
  0
ENDTAB
  0
ENDSEC
  0
SECTION
  2
BLOCKS
  0
BLOCK
  8
0
  2
$MODEL_SPACE
 70
     0
 10
0.0
 20
0.0
 30
0.0
  3
$MODEL_SPACE
  1

  0
ENDBLK
  5
76
  8
0
  0
BLOCK
 67
     1
  8
0
  2
$PAPER_SPACE
 70
     0
 10
0.0
 20
0.0
 30
0.0
  3
$PAPER_SPACE
  1

  0
ENDBLK
  5
72
 67
     1
  8
0
  0
BLOCK
  8
0
  2
DOT1
 70
     0
 10
0.0
 20
0.0
 30
0.0
  3
DOT1
  1

  0
CIRCLE
  5
95
  8
SIZE
  6
CONTINUOUS
 62
     7
 10
0.0
 20
0.0
 30
0.0
 40
3.0
  0
ENDBLK
  5
96
  8
0
  0
BLOCK
  8
0
  2
_ORIGIN
 70
     0
 10
0.0
 20
0.0
 30
0.0
  3
_ORIGIN
  1

  0
CIRCLE
  5
99
  8
0
  6
CONTINUOUS
 62
     7
 10
0.0
 20
0.0
 30
0.0
 40
0.5
  0
LINE
  5
9A
  8
0
  6
CONTINUOUS
 62
     7
 10
0.0
 20
0.0
 30
0.0
 11
-1.0
 21
0.0
 31
0.0
  0
ENDBLK
  5
9B
  8
0
  0
ENDSEC
  0
SECTION
  2
ENTITIES
  0
POINT
  5
9C
  8
ARRANGE
  6
CONTINUOUS
 62
     1
 10
0.0
 20
0.0
 30
0.0
 39
49.999109999999988
  0
CIRCLE
  5
9D
  8
ARRANGE
  6
CONTINUOUS
 62
     1
 39
24.999555000000001
 10
0.0
 20
0.0
 30
0.0
 40
19.999644
  0
LINE
  5
9E
  8
BASIS
  6
DASHDOT
 62
     6
 39
49.999109999999988
 10
-0.000004
 20
-123.185356
 30
0.0
 11
0.0
 21
120.19748300000001
 31
0.0
  0
TEXT
  5
9F
  8
ETC
  6
CONTINUOUS
 62
    61
 10
196.02907400000001
 20
327.69815800000009
 30
0.0
 40
40.0
  1
V-08PQF3_2
 41
0.9
  0
TEXT
  5
A0
  8
ETC
  6
CONTINUOUS
 62
    61
 10
190.60323
 20
267.62804199999999
 30
0.0
 40
40.0
  1
換気扇
 41
0.9
  0
LINE
  5
A2
  8
BASIS
  6
DASHDOT
 62
     6
 39
49.999109999999988
 10
106.08331099999999
 20
0.000001
 30
0.0
 11
-106.08331099999999
 21
-0.000001
 31
0.0
  0
LINE
  5
A4
  8
DETAIL
  6
CONTINUOUS
 62
     5
 10
-46.5
 20
-90.149998999999994
 30
0.0
 11
-46.5
 21
-90.008880000000005
 31
0.0
  0
LINE
  5
A5
  8
DETAIL
  6
CONTINUOUS
 62
     5
 10
-67.5
 20
-90.149998999999994
 30
0.0
 11
-67.5
 21
-90.008880000000005
 31
0.0
  0
LINE
  5
A6
  8
DETAIL
  6
CONTINUOUS
 62
     5
 10
-46.5
 20
-90.149998999999994
 30
0.0
 11
-67.5
 21
-90.149998999999994
 31
0.0
  0
LINE
  5
A7
  8
DETAIL
  6
CONTINUOUS
 62
     5
 10
-61.504188999999997
 20
-92.984041000000005
 30
0.0
 11
-58.220624999999998
 21
-90.918018000000004
 31
0.0
  0
LINE
  5
A8
  8
DETAIL
  6
CONTINUOUS
 62
     5
 10
-63.5
 20
-90.149998999999994
 30
0.0
 11
-61.923763000000001
 21
-92.880122
 31
0.0
  0
ARC
  5
A9
  8
DETAIL
  6
CONTINUOUS
 62
     5
 10
-55.557856999999991
 20
-95.149998999999994
 30
0.0
 40
5.0
 50
90.0
 51
122.178158
  0
ARC
  5
AA
  8
DETAIL
  6
CONTINUOUS
 62
     5
 10
-61.663955000000001
 20
-92.730121999999994
 30
0.0
 40
0.3
 50
210.0
 51
302.178158
  0
LINE
  5
AB
  8
DETAIL
  6
CONTINUOUS
 62
     5
 10
74.852423000000002
 20
89.618402000000003
 30
0.0
 11
74.852423000000002
 21
-89.636161000000016
 31
0.0
  0
LINE
  5
AC
  8
DETAIL
  6
CONTINUOUS
 62
     5
 10
90.014700000000005
 20
88.691119999999984
 30
0.0
 11
90.014700000000005
 21
-78.522880000000001
 31
0.0
  0
ARC
  5
AD
  8
DETAIL
  6
CONTINUOUS
 62
     5
 10
88.714699999999993
 20
-88.708879999999994
 30
0.0
 40
1.3
 50
270.0
 51
0.0
  0
LINE
  5
AE
  8
DETAIL
  6
CONTINUOUS
 62
     5
 10
88.714699999999993
 20
-90.008880000000005
 30
0.0
 11
11.513325999999999
 21
-90.008880000000005
 31
0.0
  0
LINE
  5
AF
  8
DETAIL
  6
CONTINUOUS
 62
     5
 10
0.0
 20
-90.008880000000005
 30
0.0
 11
88.505743999999993
 21
-90.008880000000005
 31
0.0
  0
LINE
  5
B0
  8
DETAIL
  6
CONTINUOUS
 62
     5
 10
9.5160739999999997
 20
-90.008880000000005
 30
0.0
 11
4.5133260000000002
 21
-90.008880000000005
 31
0.0
  0
ARC
  5
B1
  8
DETAIL
  6
CONTINUOUS
 62
     5
 10
0.0147
 20
-62.008879999999998
 30
0.0
 40
35.0
 50
269.97593499999999
 51
299.00252999999998
  0
ARC
  5
B2
  8
DETAIL
  6
CONTINUOUS
 62
     5
 10
3.514699999999999
 20
-90.008880000000005
 30
0.0
 40
1.0
 50
176.995947
 51
3.004052999999999
  0
LINE
  5
B3
  8
DETAIL
  6
CONTINUOUS
 62
     5
 10
3.6269830000000001
 20
-89.904684000000003
 30
0.0
 11
3.514699999999999
 21
-89.904351000000005
 31
0.0
  0
LINE
  5
B4
  8
DETAIL
  6
CONTINUOUS
 62
     5
 10
3.7367010000000001
 20
-89.905658999999986
 30
0.0
 11
3.6269830000000001
 21
-89.904684000000003
 31
0.0
  0
LINE
  5
B5
  8
DETAIL
  6
CONTINUOUS
 62
     5
 10
3.8446690000000001
 20
-89.90729300000001
 30
0.0
 11
3.7367010000000001
 21
-89.905658999999986
 31
0.0
  0
LINE
  5
B6
  8
DETAIL
  6
CONTINUOUS
 62
     5
 10
3.9484439999999998
 20
-89.909538999999995
 30
0.0
 11
3.8446690000000001
 21
-89.90729300000001
 31
0.0
  0
LINE
  5
B7
  8
DETAIL
  6
CONTINUOUS
 62
     5
 10
4.045977999999999
 20
-89.912359999999978
 30
0.0
 11
3.9484439999999998
 21
-89.909538999999995
 31
0.0
  0
LINE
  5
B8
  8
DETAIL
  6
CONTINUOUS
 62
     5
 10
4.1369030000000002
 20
-89.915735999999995
 30
0.0
 11
4.045977999999999
 21
-89.912359999999978
 31
0.0
  0
LINE
  5
B9
  8
DETAIL
  6
CONTINUOUS
 62
     5
 10
4.2207179999999989
 20
-89.919663999999997
 30
0.0
 11
4.1369030000000002
 21
-89.915735999999995
 31
0.0
  0
LINE
  5
BA
  8
DETAIL
  6
CONTINUOUS
 62
     5
 10
4.2957780000000003
 20
-89.924049999999994
 30
0.0
 11
4.2207179999999989
 21
-89.919663999999997
 31
0.0
  0
LINE
  5
BB
  8
DETAIL
  6
CONTINUOUS
 62
     5
 10
4.3602809999999987
 20
-89.928808000000004
 30
0.0
 11
4.2957780000000003
 21
-89.924049999999994
 31
0.0
  0
LINE
  5
BC
  8
DETAIL
  6
CONTINUOUS
 62
     5
 10
4.414191999999999
 20
-89.933913000000004
 30
0.0
 11
4.3602809999999987
 21
-89.928808000000004
 31
0.0
  0
LINE
  5
BD
  8
DETAIL
  6
CONTINUOUS
 62
     5
 10
4.457101999999999
 20
-89.939343999999977
 30
0.0
 11
4.414191999999999
 21
-89.933913000000004
 31
0.0
  0
LINE
  5
BE
  8
DETAIL
  6
CONTINUOUS
 62
     5
 10
4.4883350000000002
 20
-89.944996000000003
 30
0.0
 11
4.457101999999999
 21
-89.939343999999977
 31
0.0
  0
LINE
  5
BF
  8
DETAIL
  6
CONTINUOUS
 62
     5
 10
4.507028
 20
-89.950771000000003
 30
0.0
 11
4.4883350000000002
 21
-89.944996000000003
 31
0.0
  0
LINE
  5
C0
  8
DETAIL
  6
CONTINUOUS
 62
     5
 10
4.5133260000000002
 20
-89.956472999999988
 30
0.0
 11
4.507028
 21
-89.950771000000003
 31
0.0
  0
LINE
  5
C1
  8
DETAIL
  6
CONTINUOUS
 62
     5
 10
2.5223729999999991
 20
-89.950771000000003
 30
0.0
 11
2.5160740000000001
 21
-89.956472999999988
 31
0.0
  0
LINE
  5
C2
  8
DETAIL
  6
CONTINUOUS
 62
     5
 10
2.5410659999999989
 20
-89.944996000000003
 30
0.0
 11
2.5223729999999991
 21
-89.950771000000003
 31
0.0
  0
LINE
  5
C3
  8
DETAIL
  6
CONTINUOUS
 62
     5
 10
2.5722979999999991
 20
-89.939343999999977
 30
0.0
 11
2.5410659999999989
 21
-89.944996000000003
 31
0.0
  0
LINE
  5
C4
  8
DETAIL
  6
CONTINUOUS
 62
     5
 10
2.6152079999999991
 20
-89.933913000000004
 30
0.0
 11
2.5722979999999991
 21
-89.939343999999977
 31
0.0
  0
LINE
  5
C5
  8
DETAIL
  6
CONTINUOUS
 62
     5
 10
2.669119999999999
 20
-89.928808000000004
 30
0.0
 11
2.6152079999999991
 21
-89.933913000000004
 31
0.0
  0
LINE
  5
C6
  8
DETAIL
  6
CONTINUOUS
 62
     5
 10
2.7336219999999991
 20
-89.924049999999994
 30
0.0
 11
2.669119999999999
 21
-89.928808000000004
 31
0.0
  0
LINE
  5
C7
  8
DETAIL
  6
CONTINUOUS
 62
     5
 10
2.8086820000000001
 20
-89.919663999999997
 30
0.0
 11
2.7336219999999991
 21
-89.924049999999994
 31
0.0
  0
LINE
  5
C8
  8
DETAIL
  6
CONTINUOUS
 62
     5
 10
2.8924979999999989
 20
-89.915735999999995
 30
0.0
 11
2.8086820000000001
 21
-89.919663999999997
 31
0.0
  0
LINE
  5
C9
  8
DETAIL
  6
CONTINUOUS
 62
     5
 10
2.9834230000000002
 20
-89.912359999999978
 30
0.0
 11
2.8924979999999989
 21
-89.915735999999995
 31
0.0
  0
LINE
  5
CA
  8
DETAIL
  6
CONTINUOUS
 62
     5
 10
3.080956
 20
-89.909538999999995
 30
0.0
 11
2.9834230000000002
 21
-89.912359999999978
 31
0.0
  0
LINE
  5
CB
  8
DETAIL
  6
CONTINUOUS
 62
     5
 10
3.1847310000000002
 20
-89.90729300000001
 30
0.0
 11
3.080956
 21
-89.909538999999995
 31
0.0
  0
LINE
  5
CC
  8
DETAIL
  6
CONTINUOUS
 62
     5
 10
3.2926989999999989
 20
-89.905658999999986
 30
0.0
 11
3.1847310000000002
 21
-89.90729300000001
 31
0.0
  0
LINE
  5
CD
  8
DETAIL
  6
CONTINUOUS
 62
     5
 10
3.4024179999999991
 20
-89.904684000000003
 30
0.0
 11
3.2926989999999989
 21
-89.905658999999986
 31
0.0
  0
LINE
  5
CE
  8
DETAIL
  6
CONTINUOUS
 62
     5
 10
3.514699999999999
 20
-89.904351000000005
 30
0.0
 11
3.4024179999999991
 21
-89.904684000000003
 31
0.0
  0
LINE
  5
CF
  8
DETAIL
  6
CONTINUOUS
 62
     5
 10
2.5160740000000001
 20
-90.008880000000005
 30
0.0
 11
0.0
 21
-90.008880000000005
 31
0.0
  0
ARC
  5
D0
  8
DETAIL
  6
CONTINUOUS
 62
     5
 10
10.514699999999999
 20
-90.008880000000005
 30
0.0
 40
1.0
 50
176.995947
 51
3.004052999999999
  0
LINE
  5
D1
  8
DETAIL
  6
CONTINUOUS
 62
     5
 10
10.626982999999999
 20
-89.904684000000003
 30
0.0
 11
10.514699999999999
 21
-89.904351000000005
 31
0.0
  0
LINE
  5
D2
  8
DETAIL
  6
CONTINUOUS
 62
     5
 10
10.736701
 20
-89.905658999999986
 30
0.0
 11
10.626982999999999
 21
-89.904684000000003
 31
0.0
  0
LINE
  5
D3
  8
DETAIL
  6
CONTINUOUS
 62
     5
 10
10.844669
 20
-89.90729300000001
 30
0.0
 11
10.736701
 21
-89.905658999999986
 31
0.0
  0
LINE
  5
D4
  8
DETAIL
  6
CONTINUOUS
 62
     5
 10
10.948444
 20
-89.909538999999995
 30
0.0
 11
10.844669
 21
-89.90729300000001
 31
0.0
  0
LINE
  5
D5
  8
DETAIL
  6
CONTINUOUS
 62
     5
 10
11.045978
 20
-89.912359999999978
 30
0.0
 11
10.948444
 21
-89.909538999999995
 31
0.0
  0
LINE
  5
D6
  8
DETAIL
  6
CONTINUOUS
 62
     5
 10
11.136903
 20
-89.915735999999995
 30
0.0
 11
11.045978
 21
-89.912359999999978
 31
0.0
  0
LINE
  5
D7
  8
DETAIL
  6
CONTINUOUS
 62
     5
 10
11.220718
 20
-89.919663999999997
 30
0.0
 11
11.136903
 21
-89.915735999999995
 31
0.0
  0
LINE
  5
D8
  8
DETAIL
  6
CONTINUOUS
 62
     5
 10
11.295778
 20
-89.924049999999994
 30
0.0
 11
11.220718
 21
-89.919663999999997
 31
0.0
  0
LINE
  5
D9
  8
DETAIL
  6
CONTINUOUS
 62
     5
 10
11.360281000000001
 20
-89.928808000000004
 30
0.0
 11
11.295778
 21
-89.924049999999994
 31
0.0
  0
LINE
  5
DA
  8
DETAIL
  6
CONTINUOUS
 62
     5
 10
11.414192
 20
-89.933913000000004
 30
0.0
 11
11.360281000000001
 21
-89.928808000000004
 31
0.0
  0
LINE
  5
DB
  8
DETAIL
  6
CONTINUOUS
 62
     5
 10
11.457102000000001
 20
-89.939343999999977
 30
0.0
 11
11.414192
 21
-89.933913000000004
 31
0.0
  0
LINE
  5
DC
  8
DETAIL
  6
CONTINUOUS
 62
     5
 10
11.488334999999999
 20
-89.944996000000003
 30
0.0
 11
11.457102000000001
 21
-89.939343999999977
 31
0.0
  0
LINE
  5
DD
  8
DETAIL
  6
CONTINUOUS
 62
     5
 10
11.507028
 20
-89.950771000000003
 30
0.0
 11
11.488334999999999
 21
-89.944996000000003
 31
0.0
  0
LINE
  5
DE
  8
DETAIL
  6
CONTINUOUS
 62
     5
 10
11.513325999999999
 20
-89.956472999999988
 30
0.0
 11
11.507028
 21
-89.950771000000003
 31
0.0
  0
LINE
  5
DF
  8
DETAIL
  6
CONTINUOUS
 62
     5
 10
9.5223729999999982
 20
-89.950771000000003
 30
0.0
 11
9.5160739999999997
 21
-89.956472999999988
 31
0.0
  0
LINE
  5
E0
  8
DETAIL
  6
CONTINUOUS
 62
     5
 10
9.5410660000000007
 20
-89.944996000000003
 30
0.0
 11
9.5223729999999982
 21
-89.950771000000003
 31
0.0
  0
LINE
  5
E1
  8
DETAIL
  6
CONTINUOUS
 62
     5
 10
9.5722979999999982
 20
-89.939343999999977
 30
0.0
 11
9.5410660000000007
 21
-89.944996000000003
 31
0.0
  0
LINE
  5
E2
  8
DETAIL
  6
CONTINUOUS
 62
     5
 10
9.6152080000000009
 20
-89.933913000000004
 30
0.0
 11
9.5722979999999982
 21
-89.939343999999977
 31
0.0
  0
LINE
  5
E3
  8
DETAIL
  6
CONTINUOUS
 62
     5
 10
9.6691199999999995
 20
-89.928808000000004
 30
0.0
 11
9.6152080000000009
 21
-89.933913000000004
 31
0.0
  0
LINE
  5
E4
  8
DETAIL
  6
CONTINUOUS
 62
     5
 10
9.7336220000000004
 20
-89.924049999999994
 30
0.0
 11
9.6691199999999995
 21
-89.928808000000004
 31
0.0
  0
LINE
  5
E5
  8
DETAIL
  6
CONTINUOUS
 62
     5
 10
9.808682000000001
 20
-89.919663999999997
 30
0.0
 11
9.7336220000000004
 21
-89.924049999999994
 31
0.0
  0
LINE
  5
E6
  8
DETAIL
  6
CONTINUOUS
 62
     5
 10
9.8924979999999998
 20
-89.915735999999995
 30
0.0
 11
9.808682000000001
 21
-89.919663999999997
 31
0.0
  0
LINE
  5
E7
  8
DETAIL
  6
CONTINUOUS
 62
     5
 10
9.9834230000000002
 20
-89.912359999999978
 30
0.0
 11
9.8924979999999998
 21
-89.915735999999995
 31
0.0
  0
LINE
  5
E8
  8
DETAIL
  6
CONTINUOUS
 62
     5
 10
10.080956
 20
-89.909538999999995
 30
0.0
 11
9.9834230000000002
 21
-89.912359999999978
 31
0.0
  0
LINE
  5
E9
  8
DETAIL
  6
CONTINUOUS
 62
     5
 10
10.184730999999999
 20
-89.90729300000001
 30
0.0
 11
10.080956
 21
-89.909538999999995
 31
0.0
  0
LINE
  5
EA
  8
DETAIL
  6
CONTINUOUS
 62
     5
 10
10.292699000000001
 20
-89.905658999999986
 30
0.0
 11
10.184730999999999
 21
-89.90729300000001
 31
0.0
  0
LINE
  5
EB
  8
DETAIL
  6
CONTINUOUS
 62
     5
 10
10.402418000000001
 20
-89.904684000000003
 30
0.0
 11
10.292699000000001
 21
-89.905658999999986
 31
0.0
  0
LINE
  5
EC
  8
DETAIL
  6
CONTINUOUS
 62
     5
 10
10.514699999999999
 20
-89.904351000000005
 30
0.0
 11
10.402418000000001
 21
-89.904684000000003
 31
0.0
  0
ARC
  5
ED
  8
DETAIL
  6
CONTINUOUS
 62
     5
 10
18.514700000000001
 20
-90.508880000000005
 30
0.0
 40
0.5
 50
97.498671999999985
 51
180.0
  0
ARC
  5
EE
  8
DETAIL
  6
CONTINUOUS
 62
     5
 10
16.014700000000001
 20
-90.870619000000005
 30
0.0
 40
2.0
 50
299.00226300000003
 51
0.0
  0
LINE
  5
EF
  8
DETAIL
  6
CONTINUOUS
 62
     5
 10
16.981394000000002
 20
-92.614469000000014
 30
0.0
 11
16.984397000000001
 21
-92.619814000000005
 31
0.0
  0
LINE
  5
F0
  8
DETAIL
  6
CONTINUOUS
 62
     5
 10
18.014700000000001
 20
-90.508880000000005
 30
0.0
 11
18.014700000000001
 21
-90.870619000000005
 31
0.0
  0
LINE
  5
F1
  8
DETAIL
  6
CONTINUOUS
 62
     5
 10
18.008489999999998
 20
-90.872561000000005
 30
0.0
 11
18.014700000000001
 21
-90.870619000000005
 31
0.0
  0
LINE
  5
F2
  8
DETAIL
  6
CONTINUOUS
 62
     5
 10
18.010104999999999
 20
-90.508032
 30
0.0
 11
18.014700000000001
 21
-90.508879000000007
 31
0.0
  0
LINE
  5
F3
  8
DETAIL
  6
CONTINUOUS
 62
     5
 10
90.115110999999985
 20
-78.522880000000001
 30
0.0
 11
90.014700000000005
 21
-78.522880000000001
 31
0.0
  0
LINE
  5
F4
  8
DETAIL
  6
CONTINUOUS
 62
     5
 10
90.410848999999985
 20
-79.270780999999999
 30
0.0
 11
90.414699999999996
 21
-79.223291000000003
 31
0.0
  0
LINE
  5
F5
  8
DETAIL
  6
CONTINUOUS
 62
     5
 10
90.400031999999996
 20
-79.315973999999997
 30
0.0
 11
90.410848999999985
 21
-79.270780999999999
 31
0.0
  0
LINE
  5
F6
  8
DETAIL
  6
CONTINUOUS
 62
     5
 10
90.381990000000002
 20
-79.359374000000003
 30
0.0
 11
90.400031999999996
 21
-79.315973999999997
 31
0.0
  0
LINE
  5
F7
  8
DETAIL
  6
CONTINUOUS
 62
     5
 10
90.357504000000006
 20
-79.399466000000004
 30
0.0
 11
90.381990000000002
 21
-79.359374000000003
 31
0.0
  0
LINE
  5
F8
  8
DETAIL
  6
CONTINUOUS
 62
     5
 10
90.326954999999998
 20
-79.435136
 30
0.0
 11
90.357504000000006
 21
-79.399466000000004
 31
0.0
  0
LINE
  5
F9
  8
DETAIL
  6
CONTINUOUS
 62
     5
 10
90.291285999999985
 20
-79.465684999999993
 30
0.0
 11
90.326954999999998
 21
-79.435136
 31
0.0
  0
LINE
  5
FA
  8
DETAIL
  6
CONTINUOUS
 62
     5
 10
90.251193999999984
 20
-79.490169999999992
 30
0.0
 11
90.291285999999985
 21
-79.465684999999993
 31
0.0
  0
LINE
  5
FB
  8
DETAIL
  6
CONTINUOUS
 62
     5
 10
90.207794000000007
 20
-79.508212
 30
0.0
 11
90.251193999999984
 21
-79.490169999999992
 31
0.0
  0
LINE
  5
FC
  8
DETAIL
  6
CONTINUOUS
 62
     5
 10
90.162600999999995
 20
-79.519028000000006
 30
0.0
 11
90.207794000000007
 21
-79.508212
 31
0.0
  0
LINE
  5
FD
  8
DETAIL
  6
CONTINUOUS
 62
     5
 10
90.115110999999985
 20
-79.522880000000001
 30
0.0
 11
90.162600999999995
 21
-79.519028000000006
 31
0.0
  0
LINE
  5
FE
  8
DETAIL
  6
CONTINUOUS
 62
     5
 10
90.115110999999985
 20
-79.522880000000001
 30
0.0
 11
90.014700000000005
 21
-79.522880000000001
 31
0.0
  0
LINE
  5
FF
  8
DETAIL
  6
CONTINUOUS
 62
     5
 10
90.115110999999985
 20
-80.522880000000001
 30
0.0
 11
90.014700000000005
 21
-80.522880000000001
 31
0.0
  0
LINE
  5
100
  8
DETAIL
  6
CONTINUOUS
 62
     5
 10
90.115110999999985
 20
-81.522880000000001
 30
0.0
 11
90.014700000000005
 21
-81.522880000000001
 31
0.0
  0
LINE
  5
101
  8
DETAIL
  6
CONTINUOUS
 62
     5
 10
90.115110999999985
 20
-82.522880000000001
 30
0.0
 11
90.014700000000005
 21
-82.522880000000001
 31
0.0
  0
LINE
  5
102
  8
DETAIL
  6
CONTINUOUS
 62
     5
 10
90.115110999999985
 20
-83.522879999999986
 30
0.0
 11
90.014700000000005
 21
-83.522879999999986
 31
0.0
  0
LINE
  5
103
  8
DETAIL
  6
CONTINUOUS
 62
     5
 10
90.115110999999985
 20
-84.508880000000005
 30
0.0
 11
90.014700000000005
 21
-84.508880000000005
 31
0.0
  0
LINE
  5
104
  8
DETAIL
  6
CONTINUOUS
 62
     5
 10
90.115110999999985
 20
-85.508880000000005
 30
0.0
 11
90.014700000000005
 21
-85.508880000000005
 31
0.0
  0
LINE
  5
105
  8
DETAIL
  6
CONTINUOUS
 62
     5
 10
90.410848999999985
 20
-81.270780999999999
 30
0.0
 11
90.414699999999996
 21
-81.223290999999989
 31
0.0
  0
LINE
  5
106
  8
DETAIL
  6
CONTINUOUS
 62
     5
 10
90.400031999999996
 20
-81.315973999999997
 30
0.0
 11
90.410848999999985
 21
-81.270780999999999
 31
0.0
  0
LINE
  5
107
  8
DETAIL
  6
CONTINUOUS
 62
     5
 10
90.381990000000002
 20
-81.359374000000017
 30
0.0
 11
90.400031999999996
 21
-81.315973999999997
 31
0.0
  0
LINE
  5
108
  8
DETAIL
  6
CONTINUOUS
 62
     5
 10
90.357504000000006
 20
-81.399466000000004
 30
0.0
 11
90.381990000000002
 21
-81.359374000000017
 31
0.0
  0
LINE
  5
109
  8
DETAIL
  6
CONTINUOUS
 62
     5
 10
90.326954999999998
 20
-81.435136
 30
0.0
 11
90.357504000000006
 21
-81.399466000000004
 31
0.0
  0
LINE
  5
10A
  8
DETAIL
  6
CONTINUOUS
 62
     5
 10
90.291285999999985
 20
-81.465684999999979
 30
0.0
 11
90.326954999999998
 21
-81.435136
 31
0.0
  0
LINE
  5
10B
  8
DETAIL
  6
CONTINUOUS
 62
     5
 10
90.251193999999984
 20
-81.490169999999978
 30
0.0
 11
90.291285999999985
 21
-81.465684999999979
 31
0.0
  0
LINE
  5
10C
  8
DETAIL
  6
CONTINUOUS
 62
     5
 10
90.207794000000007
 20
-81.508212000000015
 30
0.0
 11
90.251193999999984
 21
-81.490169999999978
 31
0.0
  0
LINE
  5
10D
  8
DETAIL
  6
CONTINUOUS
 62
     5
 10
90.162600999999995
 20
-81.519028000000006
 30
0.0
 11
90.207794000000007
 21
-81.508212000000015
 31
0.0
  0
LINE
  5
10E
  8
DETAIL
  6
CONTINUOUS
 62
     5
 10
90.115110999999985
 20
-81.522880000000001
 30
0.0
 11
90.162600999999995
 21
-81.519028000000006
 31
0.0
  0
LINE
  5
10F
  8
DETAIL
  6
CONTINUOUS
 62
     5
 10
90.410848999999985
 20
-83.270780999999985
 30
0.0
 11
90.414699999999996
 21
-83.223291000000003
 31
0.0
  0
LINE
  5
110
  8
DETAIL
  6
CONTINUOUS
 62
     5
 10
90.400031999999996
 20
-83.315973999999997
 30
0.0
 11
90.410848999999985
 21
-83.270780999999985
 31
0.0
  0
LINE
  5
111
  8
DETAIL
  6
CONTINUOUS
 62
     5
 10
90.381990000000002
 20
-83.359374000000003
 30
0.0
 11
90.400031999999996
 21
-83.315973999999997
 31
0.0
  0
LINE
  5
112
  8
DETAIL
  6
CONTINUOUS
 62
     5
 10
90.357504000000006
 20
-83.399466000000004
 30
0.0
 11
90.381990000000002
 21
-83.359374000000003
 31
0.0
  0
LINE
  5
113
  8
DETAIL
  6
CONTINUOUS
 62
     5
 10
90.326954999999998
 20
-83.435135999999986
 30
0.0
 11
90.357504000000006
 21
-83.399466000000004
 31
0.0
  0
LINE
  5
114
  8
DETAIL
  6
CONTINUOUS
 62
     5
 10
90.291285999999985
 20
-83.465684999999993
 30
0.0
 11
90.326954999999998
 21
-83.435135999999986
 31
0.0
  0
LINE
  5
115
  8
DETAIL
  6
CONTINUOUS
 62
     5
 10
90.251193999999984
 20
-83.490169999999992
 30
0.0
 11
90.291285999999985
 21
-83.465684999999993
 31
0.0
  0
LINE
  5
116
  8
DETAIL
  6
CONTINUOUS
 62
     5
 10
90.207794000000007
 20
-83.508212
 30
0.0
 11
90.251193999999984
 21
-83.490169999999992
 31
0.0
  0
LINE
  5
117
  8
DETAIL
  6
CONTINUOUS
 62
     5
 10
90.162600999999995
 20
-83.519028000000006
 30
0.0
 11
90.207794000000007
 21
-83.508212
 31
0.0
  0
LINE
  5
118
  8
DETAIL
  6
CONTINUOUS
 62
     5
 10
90.115110999999985
 20
-83.522879999999986
 30
0.0
 11
90.162600999999995
 21
-83.519028000000006
 31
0.0
  0
LINE
  5
119
  8
DETAIL
  6
CONTINUOUS
 62
     5
 10
90.410848999999985
 20
-85.256781000000004
 30
0.0
 11
90.414699999999996
 21
-85.209291000000007
 31
0.0
  0
LINE
  5
11A
  8
DETAIL
  6
CONTINUOUS
 62
     5
 10
90.400031999999996
 20
-85.301974000000001
 30
0.0
 11
90.410848999999985
 21
-85.256781000000004
 31
0.0
  0
LINE
  5
11B
  8
DETAIL
  6
CONTINUOUS
 62
     5
 10
90.381990000000002
 20
-85.345373999999993
 30
0.0
 11
90.400031999999996
 21
-85.301974000000001
 31
0.0
  0
LINE
  5
11C
  8
DETAIL
  6
CONTINUOUS
 62
     5
 10
90.357504000000006
 20
-85.385466000000008
 30
0.0
 11
90.381990000000002
 21
-85.345373999999993
 31
0.0
  0
LINE
  5
11D
  8
DETAIL
  6
CONTINUOUS
 62
     5
 10
90.326954999999998
 20
-85.421136000000004
 30
0.0
 11
90.357504000000006
 21
-85.385466000000008
 31
0.0
  0
LINE
  5
11E
  8
DETAIL
  6
CONTINUOUS
 62
     5
 10
90.291285999999985
 20
-85.451684999999998
 30
0.0
 11
90.326954999999998
 21
-85.421136000000004
 31
0.0
  0
LINE
  5
11F
  8
DETAIL
  6
CONTINUOUS
 62
     5
 10
90.251193999999984
 20
-85.476169999999996
 30
0.0
 11
90.291285999999985
 21
-85.451684999999998
 31
0.0
  0
LINE
  5
120
  8
DETAIL
  6
CONTINUOUS
 62
     5
 10
90.207794000000007
 20
-85.494212000000005
 30
0.0
 11
90.251193999999984
 21
-85.476169999999996
 31
0.0
  0
LINE
  5
121
  8
DETAIL
  6
CONTINUOUS
 62
     5
 10
90.162600999999995
 20
-85.505027999999996
 30
0.0
 11
90.207794000000007
 21
-85.494212000000005
 31
0.0
  0
LINE
  5
122
  8
DETAIL
  6
CONTINUOUS
 62
     5
 10
90.115110999999985
 20
-85.508880000000005
 30
0.0
 11
90.162600999999995
 21
-85.505027999999996
 31
0.0
  0
LINE
  5
123
  8
DETAIL
  6
CONTINUOUS
 62
     5
 10
90.162600999999995
 20
-84.512730999999988
 30
0.0
 11
90.115110999999985
 21
-84.508880000000005
 31
0.0
  0
LINE
  5
124
  8
DETAIL
  6
CONTINUOUS
 62
     5
 10
90.207794000000007
 20
-84.523548000000005
 30
0.0
 11
90.162600999999995
 21
-84.512730999999988
 31
0.0
  0
LINE
  5
125
  8
DETAIL
  6
CONTINUOUS
 62
     5
 10
90.251193999999984
 20
-84.541589000000016
 30
0.0
 11
90.207794000000007
 21
-84.523548000000005
 31
0.0
  0
LINE
  5
126
  8
DETAIL
  6
CONTINUOUS
 62
     5
 10
90.291285999999985
 20
-84.566074999999998
 30
0.0
 11
90.251193999999984
 21
-84.541589000000016
 31
0.0
  0
LINE
  5
127
  8
DETAIL
  6
CONTINUOUS
 62
     5
 10
90.326954999999998
 20
-84.596624000000006
 30
0.0
 11
90.291285999999985
 21
-84.566074999999998
 31
0.0
  0
LINE
  5
128
  8
DETAIL
  6
CONTINUOUS
 62
     5
 10
90.357504000000006
 20
-84.632293000000004
 30
0.0
 11
90.326954999999998
 21
-84.596624000000006
 31
0.0
  0
LINE
  5
129
  8
DETAIL
  6
CONTINUOUS
 62
     5
 10
90.381990000000002
 20
-84.672385999999989
 30
0.0
 11
90.357504000000006
 21
-84.632293000000004
 31
0.0
  0
LINE
  5
12A
  8
DETAIL
  6
CONTINUOUS
 62
     5
 10
90.400031999999996
 20
-84.715785999999994
 30
0.0
 11
90.381990000000002
 21
-84.672385999999989
 31
0.0
  0
LINE
  5
12B
  8
DETAIL
  6
CONTINUOUS
 62
     5
 10
90.410848999999985
 20
-84.760978000000009
 30
0.0
 11
90.400031999999996
 21
-84.715785999999994
 31
0.0
  0
LINE
  5
12C
  8
DETAIL
  6
CONTINUOUS
 62
     5
 10
90.414699999999996
 20
-84.808468999999988
 30
0.0
 11
90.410848999999985
 21
-84.760978000000009
 31
0.0
  0
LINE
  5
12D
  8
DETAIL
  6
CONTINUOUS
 62
     5
 10
90.162600999999995
 20
-82.526730999999998
 30
0.0
 11
90.115110999999985
 21
-82.522880000000001
 31
0.0
  0
LINE
  5
12E
  8
DETAIL
  6
CONTINUOUS
 62
     5
 10
90.207794000000007
 20
-82.537548000000015
 30
0.0
 11
90.162600999999995
 21
-82.526730999999998
 31
0.0
  0
LINE
  5
12F
  8
DETAIL
  6
CONTINUOUS
 62
     5
 10
90.251193999999984
 20
-82.555588999999998
 30
0.0
 11
90.207794000000007
 21
-82.537548000000015
 31
0.0
  0
LINE
  5
130
  8
DETAIL
  6
CONTINUOUS
 62
     5
 10
90.291285999999985
 20
-82.580074999999994
 30
0.0
 11
90.251193999999984
 21
-82.555588999999998
 31
0.0
  0
LINE
  5
131
  8
DETAIL
  6
CONTINUOUS
 62
     5
 10
90.326954999999998
 20
-82.610624000000001
 30
0.0
 11
90.291285999999985
 21
-82.580074999999994
 31
0.0
  0
LINE
  5
132
  8
DETAIL
  6
CONTINUOUS
 62
     5
 10
90.357504000000006
 20
-82.646293000000014
 30
0.0
 11
90.326954999999998
 21
-82.610624000000001
 31
0.0
  0
LINE
  5
133
  8
DETAIL
  6
CONTINUOUS
 62
     5
 10
90.381990000000002
 20
-82.686385999999999
 30
0.0
 11
90.357504000000006
 21
-82.646293000000014
 31
0.0
  0
LINE
  5
134
  8
DETAIL
  6
CONTINUOUS
 62
     5
 10
90.400031999999996
 20
-82.729786000000004
 30
0.0
 11
90.381990000000002
 21
-82.686385999999999
 31
0.0
  0
LINE
  5
135
  8
DETAIL
  6
CONTINUOUS
 62
     5
 10
90.410848999999985
 20
-82.774978000000004
 30
0.0
 11
90.400031999999996
 21
-82.729786000000004
 31
0.0
  0
LINE
  5
136
  8
DETAIL
  6
CONTINUOUS
 62
     5
 10
90.414699999999996
 20
-82.822468999999998
 30
0.0
 11
90.410848999999985
 21
-82.774978000000004
 31
0.0
  0
LINE
  5
137
  8
DETAIL
  6
CONTINUOUS
 62
     5
 10
90.162600999999995
 20
-80.526731000000012
 30
0.0
 11
90.115110999999985
 21
-80.522880000000001
 31
0.0
  0
LINE
  5
138
  8
DETAIL
  6
CONTINUOUS
 62
     5
 10
90.207794000000007
 20
-80.537548000000001
 30
0.0
 11
90.162600999999995
 21
-80.526731000000012
 31
0.0
  0
LINE
  5
139
  8
DETAIL
  6
CONTINUOUS
 62
     5
 10
90.251193999999984
 20
-80.555588999999983
 30
0.0
 11
90.207794000000007
 21
-80.537548000000001
 31
0.0
  0
LINE
  5
13A
  8
DETAIL
  6
CONTINUOUS
 62
     5
 10
90.291285999999985
 20
-80.580074999999994
 30
0.0
 11
90.251193999999984
 21
-80.555588999999983
 31
0.0
  0
LINE
  5
13B
  8
DETAIL
  6
CONTINUOUS
 62
     5
 10
90.326954999999998
 20
-80.610624000000001
 30
0.0
 11
90.291285999999985
 21
-80.580074999999994
 31
0.0
  0
LINE
  5
13C
  8
DETAIL
  6
CONTINUOUS
 62
     5
 10
90.357504000000006
 20
-80.646293
 30
0.0
 11
90.326954999999998
 21
-80.610624000000001
 31
0.0
  0
LINE
  5
13D
  8
DETAIL
  6
CONTINUOUS
 62
     5
 10
90.381990000000002
 20
-80.686385999999985
 30
0.0
 11
90.357504000000006
 21
-80.646293
 31
0.0
  0
LINE
  5
13E
  8
DETAIL
  6
CONTINUOUS
 62
     5
 10
90.400031999999996
 20
-80.729786000000004
 30
0.0
 11
90.381990000000002
 21
-80.686385999999985
 31
0.0
  0
LINE
  5
13F
  8
DETAIL
  6
CONTINUOUS
 62
     5
 10
90.410848999999985
 20
-80.774978000000004
 30
0.0
 11
90.400031999999996
 21
-80.729786000000004
 31
0.0
  0
LINE
  5
140
  8
DETAIL
  6
CONTINUOUS
 62
     5
 10
90.414699999999996
 20
-80.822468999999984
 30
0.0
 11
90.410848999999985
 21
-80.774978000000004
 31
0.0
  0
LINE
  5
141
  8
DETAIL
  6
CONTINUOUS
 62
     5
 10
90.162600999999995
 20
-78.526731000000012
 30
0.0
 11
90.115110999999985
 21
-78.522880000000001
 31
0.0
  0
LINE
  5
142
  8
DETAIL
  6
CONTINUOUS
 62
     5
 10
90.207794000000007
 20
-78.537548000000001
 30
0.0
 11
90.162600999999995
 21
-78.526731000000012
 31
0.0
  0
LINE
  5
143
  8
DETAIL
  6
CONTINUOUS
 62
     5
 10
90.251193999999984
 20
-78.555588999999998
 30
0.0
 11
90.207794000000007
 21
-78.537548000000001
 31
0.0
  0
LINE
  5
144
  8
DETAIL
  6
CONTINUOUS
 62
     5
 10
90.291285999999985
 20
-78.580074999999994
 30
0.0
 11
90.251193999999984
 21
-78.555588999999998
 31
0.0
  0
LINE
  5
145
  8
DETAIL
  6
CONTINUOUS
 62
     5
 10
90.326954999999998
 20
-78.610624000000001
 30
0.0
 11
90.291285999999985
 21
-78.580074999999994
 31
0.0
  0
LINE
  5
146
  8
DETAIL
  6
CONTINUOUS
 62
     5
 10
90.357504000000006
 20
-78.646293
 30
0.0
 11
90.326954999999998
 21
-78.610624000000001
 31
0.0
  0
LINE
  5
147
  8
DETAIL
  6
CONTINUOUS
 62
     5
 10
90.381990000000002
 20
-78.686385999999999
 30
0.0
 11
90.357504000000006
 21
-78.646293
 31
0.0
  0
LINE
  5
148
  8
DETAIL
  6
CONTINUOUS
 62
     5
 10
90.400031999999996
 20
-78.729786000000004
 30
0.0
 11
90.381990000000002
 21
-78.686385999999999
 31
0.0
  0
LINE
  5
149
  8
DETAIL
  6
CONTINUOUS
 62
     5
 10
90.410848999999985
 20
-78.774978000000004
 30
0.0
 11
90.400031999999996
 21
-78.729786000000004
 31
0.0
  0
LINE
  5
14A
  8
DETAIL
  6
CONTINUOUS
 62
     5
 10
90.414699999999996
 20
-78.822468999999998
 30
0.0
 11
90.410848999999985
 21
-78.774978000000004
 31
0.0
  0
LINE
  5
14B
  8
DETAIL
  6
CONTINUOUS
 62
     5
 10
90.014700000000005
 20
-78.457277000000005
 30
0.0
 11
90.014700000000005
 21
-88.708879999999994
 31
0.0
  0
LINE
  5
14C
  8
DETAIL
  6
CONTINUOUS
 62
     5
 10
90.414699999999996
 20
-84.808468999999988
 30
0.0
 11
90.414699999999996
 21
-85.209291000000007
 31
0.0
  0
LINE
  5
14D
  8
DETAIL
  6
CONTINUOUS
 62
     5
 10
90.414699999999996
 20
-82.822468999999998
 30
0.0
 11
90.414699999999996
 21
-83.223291000000003
 31
0.0
  0
LINE
  5
14E
  8
DETAIL
  6
CONTINUOUS
 62
     5
 10
90.414699999999996
 20
-80.822468999999984
 30
0.0
 11
90.414699999999996
 21
-81.223290999999989
 31
0.0
  0
LINE
  5
14F
  8
DETAIL
  6
CONTINUOUS
 62
     5
 10
90.414699999999996
 20
-78.822468999999998
 30
0.0
 11
90.414699999999996
 21
-79.223291000000003
 31
0.0
  0
LINE
  5
150
  8
DETAIL
  6
CONTINUOUS
 62
     5
 10
48.75
 20
91.282843999999997
 30
0.0
 11
41.25
 21
91.282842000000016
 31
0.0
  0
LINE
  5
151
  8
DETAIL
  6
CONTINUOUS
 62
     5
 10
41.25
 20
94.688514999999995
 30
0.0
 11
48.75
 21
94.688514999999995
 31
0.0
  0
LINE
  5
152
  8
DETAIL
  6
CONTINUOUS
 62
     5
 10
40.122109000000002
 20
89.869086999999979
 30
0.0
 11
49.860283000000003
 21
89.869086999999979
 31
0.0
  0
LINE
  5
153
  8
DETAIL
  6
CONTINUOUS
 62
     5
 10
36.912591999999997
 20
89.991119999999995
 30
0.0
 11
0.0
 21
89.991119999999995
 31
0.0
  0
LINE
  5
154
  8
DETAIL
  6
CONTINUOUS
 62
     5
 10
40.25
 20
90.983256999999995
 30
0.0
 11
40.254831000000003
 21
91.012624000000017
 31
0.0
  0
LINE
  5
155
  8
DETAIL
  6
CONTINUOUS
 62
     5
 10
40.254831000000003
 20
91.012624000000017
 30
0.0
 11
40.269289000000001
 21
91.041813999999988
 31
0.0
  0
LINE
  5
156
  8
DETAIL
  6
CONTINUOUS
 62
     5
 10
40.269289000000001
 20
91.041813999999988
 30
0.0
 11
40.293264999999998
 21
91.070421999999994
 31
0.0
  0
LINE
  5
157
  8
DETAIL
  6
CONTINUOUS
 62
     5
 10
40.293264999999998
 20
91.070421999999994
 30
0.0
 11
40.326506000000002
 21
91.098175999999995
 31
0.0
  0
LINE
  5
158
  8
DETAIL
  6
CONTINUOUS
 62
     5
 10
40.326506000000002
 20
91.098175999999995
 30
0.0
 11
40.368589999999998
 21
91.124764999999996
 31
0.0
  0
LINE
  5
159
  8
DETAIL
  6
CONTINUOUS
 62
     5
 10
40.368589999999998
 20
91.124764999999996
 30
0.0
 11
40.419179
 21
91.149989000000005
 31
0.0
  0
LINE
  5
15A
  8
DETAIL
  6
CONTINUOUS
 62
     5
 10
40.419179
 20
91.149989000000005
 30
0.0
 11
40.477946000000003
 21
91.173663999999988
 31
0.0
  0
LINE
  5
15B
  8
DETAIL
  6
CONTINUOUS
 62
     5
 10
40.477946000000003
 20
91.173663999999988
 30
0.0
 11
40.544201999999999
 21
91.195485999999988
 31
0.0
  0
LINE
  5
15C
  8
DETAIL
  6
CONTINUOUS
 62
     5
 10
40.544201999999999
 20
91.195485999999988
 30
0.0
 11
40.617128000000001
 21
91.215214000000003
 31
0.0
  0
LINE
  5
15D
  8
DETAIL
  6
CONTINUOUS
 62
     5
 10
40.617128000000001
 20
91.215214000000003
 30
0.0
 11
40.696111999999992
 21
91.232690000000005
 31
0.0
  0
LINE
  5
15E
  8
DETAIL
  6
CONTINUOUS
 62
     5
 10
40.696111999999992
 20
91.232690000000005
 30
0.0
 11
40.780504000000001
 21
91.247775999999988
 31
0.0
  0
LINE
  5
15F
  8
DETAIL
  6
CONTINUOUS
 62
     5
 10
40.780504000000001
 20
91.247775999999988
 30
0.0
 11
40.869351000000002
 21
91.260289999999998
 31
0.0
  0
LINE
  5
160
  8
DETAIL
  6
CONTINUOUS
 62
     5
 10
40.869351000000002
 20
91.260289999999998
 30
0.0
 11
40.961699999999993
 21
91.270126999999988
 31
0.0
  0
LINE
  5
161
  8
DETAIL
  6
CONTINUOUS
 62
     5
 10
40.961699999999993
 20
91.270126999999988
 30
0.0
 11
41.056578000000002
 21
91.277186999999998
 31
0.0
  0
LINE
  5
162
  8
DETAIL
  6
CONTINUOUS
 62
     5
 10
41.056578000000002
 20
91.277186999999998
 30
0.0
 11
41.15294699999999
 21
91.28143399999999
 31
0.0
  0
LINE
  5
163
  8
DETAIL
  6
CONTINUOUS
 62
     5
 10
41.15294699999999
 20
91.28143399999999
 30
0.0
 11
41.249916999999989
 21
91.282845999999978
 31
0.0
  0
LINE
  5
164
  8
DETAIL
  6
CONTINUOUS
 62
     5
 10
40.25
 20
89.869086999999979
 30
0.0
 11
40.25
 21
93.688514999999995
 31
0.0
  0
ARC
  5
165
  8
DETAIL
  6
CONTINUOUS
 62
     5
 10
41.25
 20
93.688514999999995
 30
0.0
 40
1.0
 50
90.0
 51
180.0
  0
LINE
  5
166
  8
DETAIL
  6
CONTINUOUS
 62
     5
 10
40.04356099999999
 20
90.947634999999991
 30
0.0
 11
40.25
 21
90.947634999999991
 31
0.0
  0
LINE
  5
167
  8
DETAIL
  6
CONTINUOUS
 62
     5
 10
38.990892000000002
 20
94.0
 30
0.0
 11
40.25
 21
94.0
 31
0.0
  0
LINE
  5
168
  8
DETAIL
  6
CONTINUOUS
 62
     5
 10
40.058759999999992
 20
90.262356999999994
 30
0.0
 11
40.061646000000003
 21
90.160720999999995
 31
0.0
  0
LINE
  5
169
  8
DETAIL
  6
CONTINUOUS
 62
     5
 10
40.061646000000003
 20
90.160720999999995
 30
0.0
 11
40.064689999999999
 21
90.075473000000002
 31
0.0
  0
LINE
  5
16A
  8
DETAIL
  6
CONTINUOUS
 62
     5
 10
40.064689999999999
 20
90.075473000000002
 30
0.0
 11
40.067864999999998
 21
90.007653000000005
 31
0.0
  0
LINE
  5
16B
  8
DETAIL
  6
CONTINUOUS
 62
     5
 10
40.067864999999998
 20
90.007653000000005
 30
0.0
 11
40.071137999999991
 21
89.957652999999993
 31
0.0
  0
LINE
  5
16C
  8
DETAIL
  6
CONTINUOUS
 62
     5
 10
40.071137999999991
 20
89.957652999999993
 30
0.0
 11
40.074465999999987
 21
89.926306000000011
 31
0.0
  0
LINE
  5
16D
  8
DETAIL
  6
CONTINUOUS
 62
     5
 10
40.074465999999987
 20
89.926306000000011
 30
0.0
 11
40.077861999999989
 21
89.913334000000006
 31
0.0
  0
LINE
  5
16E
  8
DETAIL
  6
CONTINUOUS
 62
     5
 10
40.053570999999998
 20
90.511275999999995
 30
0.0
 11
40.058759999999992
 21
90.262356999999994
 31
0.0
  0
LINE
  5
16F
  8
DETAIL
  6
CONTINUOUS
 62
     5
 10
40.049318
 20
90.812866999999983
 30
0.0
 11
40.053570999999998
 21
90.511275999999995
 31
0.0
  0
LINE
  5
170
  8
DETAIL
  6
CONTINUOUS
 62
     5
 10
40.048219999999993
 20
90.947634999999991
 30
0.0
 11
40.049318
 21
90.812866999999983
 31
0.0
  0
LINE
  5
171
  8
DETAIL
  6
CONTINUOUS
 62
     5
 10
36.991196000000002
 20
89.965090000000004
 30
0.0
 11
36.991196000000002
 21
92.000305000000026
 31
0.0
  0
LINE
  5
172
  8
DETAIL
  6
CONTINUOUS
 62
     5
 10
37.542912000000001
 20
89.913332999999994
 30
0.0
 11
40.077861999999989
 21
89.913334000000006
 31
0.0
  0
LINE
  5
173
  8
DETAIL
  6
CONTINUOUS
 62
     5
 10
37.542912000000001
 20
89.913332999999994
 30
0.0
 11
37.269280999999999
 21
89.922926000000004
 31
0.0
  0
LINE
  5
174
  8
DETAIL
  6
CONTINUOUS
 62
     5
 10
37.269280999999999
 20
89.922926000000004
 30
0.0
 11
37.164067000000003
 21
89.927369999999996
 31
0.0
  0
LINE
  5
175
  8
DETAIL
  6
CONTINUOUS
 62
     5
 10
37.164067000000003
 20
89.927369999999996
 30
0.0
 11
37.121349000000009
 21
89.929511000000005
 31
0.0
  0
LINE
  5
176
  8
DETAIL
  6
CONTINUOUS
 62
     5
 10
37.121349000000009
 20
89.929511000000005
 30
0.0
 11
37.085591999999998
 21
89.931595999999999
 31
0.0
  0
LINE
  5
177
  8
DETAIL
  6
CONTINUOUS
 62
     5
 10
37.085591999999998
 20
89.931595999999999
 30
0.0
 11
37.057116000000001
 21
89.933627999999985
 31
0.0
  0
LINE
  5
178
  8
DETAIL
  6
CONTINUOUS
 62
     5
 10
37.057116000000001
 20
89.933627999999985
 30
0.0
 11
37.036059000000002
 21
89.935601000000005
 31
0.0
  0
LINE
  5
179
  8
DETAIL
  6
CONTINUOUS
 62
     5
 10
37.036059000000002
 20
89.935601000000005
 30
0.0
 11
37.022694000000001
 21
89.937510000000003
 31
0.0
  0
LINE
  5
17A
  8
DETAIL
  6
CONTINUOUS
 62
     5
 10
37.022694000000001
 20
89.937510000000003
 30
0.0
 11
37.016928999999998
 21
89.939356999999987
 31
0.0
  0
LINE
  5
17B
  8
DETAIL
  6
CONTINUOUS
 62
     5
 10
37.016928999999998
 20
89.939356999999987
 30
0.0
 11
36.991196000000002
 21
89.965090000000004
 31
0.0
  0
LINE
  5
17C
  8
DETAIL
  6
CONTINUOUS
 62
     5
 10
38.990892000000002
 20
94.0
 30
0.0
 11
38.794848000000002
 21
93.990369999999984
 31
0.0
  0
LINE
  5
17D
  8
DETAIL
  6
CONTINUOUS
 62
     5
 10
38.794848000000002
 20
93.990369999999984
 30
0.0
 11
38.600707
 21
93.961573000000001
 31
0.0
  0
LINE
  5
17E
  8
DETAIL
  6
CONTINUOUS
 62
     5
 10
38.600707
 20
93.961573000000001
 30
0.0
 11
38.410335000000003
 21
93.913890000000009
 31
0.0
  0
LINE
  5
17F
  8
DETAIL
  6
CONTINUOUS
 62
     5
 10
38.410335000000003
 20
93.913890000000009
 30
0.0
 11
38.225563999999999
 21
93.847781000000012
 31
0.0
  0
LINE
  5
180
  8
DETAIL
  6
CONTINUOUS
 62
     5
 10
38.225563999999999
 20
93.847781000000012
 30
0.0
 11
38.048169000000001
 21
93.763883000000007
 31
0.0
  0
LINE
  5
181
  8
DETAIL
  6
CONTINUOUS
 62
     5
 10
38.048169000000001
 20
93.763883000000007
 30
0.0
 11
37.879857000000001
 21
93.663003000000003
 31
0.0
  0
LINE
  5
182
  8
DETAIL
  6
CONTINUOUS
 62
     5
 10
37.879857000000001
 20
93.663003000000003
 30
0.0
 11
37.722248
 21
93.546114000000017
 31
0.0
  0
LINE
  5
183
  8
DETAIL
  6
CONTINUOUS
 62
     5
 10
37.722248
 20
93.546114000000017
 30
0.0
 11
37.576857000000011
 21
93.414339999999996
 31
0.0
  0
LINE
  5
184
  8
DETAIL
  6
CONTINUOUS
 62
     5
 10
37.576857000000011
 20
93.414339999999996
 30
0.0
 11
37.445083000000011
 21
93.268948999999992
 31
0.0
  0
LINE
  5
185
  8
DETAIL
  6
CONTINUOUS
 62
     5
 10
37.445083000000011
 20
93.268948999999992
 30
0.0
 11
37.328192999999999
 21
93.111338999999987
 31
0.0
  0
LINE
  5
186
  8
DETAIL
  6
CONTINUOUS
 62
     5
 10
37.328192999999999
 20
93.111338999999987
 30
0.0
 11
37.227314
 21
92.943027000000015
 31
0.0
  0
LINE
  5
187
  8
DETAIL
  6
CONTINUOUS
 62
     5
 10
37.227314
 20
92.943027000000015
 30
0.0
 11
37.143415000000012
 21
92.765631999999997
 31
0.0
  0
LINE
  5
188
  8
DETAIL
  6
CONTINUOUS
 62
     5
 10
37.143415000000012
 20
92.765631999999997
 30
0.0
 11
37.077306
 21
92.580860999999985
 31
0.0
  0
LINE
  5
189
  8
DETAIL
  6
CONTINUOUS
 62
     5
 10
37.077306
 20
92.580860999999985
 30
0.0
 11
37.029623000000001
 21
92.390489999999986
 31
0.0
  0
LINE
  5
18A
  8
DETAIL
  6
CONTINUOUS
 62
     5
 10
37.029623000000001
 20
92.390489999999986
 30
0.0
 11
37.000826000000004
 21
92.196347999999986
 31
0.0
  0
LINE
  5
18B
  8
DETAIL
  6
CONTINUOUS
 62
     5
 10
37.000826000000004
 20
92.196347999999986
 30
0.0
 11
36.991196000000002
 21
92.000305000000026
 31
0.0
  0
LINE
  5
18C
  8
DETAIL
  6
CONTINUOUS
 62
     5
 10
40.122109000000002
 20
89.869086999999979
 30
0.0
 11
40.077861999999989
 21
89.913334000000006
 31
0.0
  0
LINE
  5
18D
  8
DETAIL
  6
CONTINUOUS
 62
     5
 10
36.991196000000002
 20
89.991119999999995
 30
0.0
 11
31.037666999999999
 21
89.991119999999995
 31
0.0
  0
LINE
  5
18E
  8
DETAIL
  6
CONTINUOUS
 62
     5
 10
52.991196000000002
 20
89.991119999999995
 30
0.0
 11
88.714699999999993
 21
89.991119999999995
 31
0.0
  0
LINE
  5
18F
  8
DETAIL
  6
CONTINUOUS
 62
     5
 10
49.75
 20
93.688514999999995
 30
0.0
 11
49.75
 21
89.869086999999979
 31
0.0
  0
LINE
  5
190
  8
DETAIL
  6
CONTINUOUS
 62
     5
 10
48.750042000000001
 20
91.282845999999978
 30
0.0
 11
48.847155000000001
 21
91.281431999999995
 31
0.0
  0
LINE
  5
191
  8
DETAIL
  6
CONTINUOUS
 62
     5
 10
48.847155000000001
 20
91.281431999999995
 30
0.0
 11
48.943609000000002
 21
91.277177000000009
 31
0.0
  0
LINE
  5
192
  8
DETAIL
  6
CONTINUOUS
 62
     5
 10
48.943609000000002
 20
91.277177000000009
 30
0.0
 11
49.038494999999998
 21
91.270111
 31
0.0
  0
LINE
  5
193
  8
DETAIL
  6
CONTINUOUS
 62
     5
 10
49.038494999999998
 20
91.270111
 30
0.0
 11
49.130825000000002
 21
91.260270999999989
 31
0.0
  0
LINE
  5
194
  8
DETAIL
  6
CONTINUOUS
 62
     5
 10
49.130825000000002
 20
91.260270999999989
 30
0.0
 11
49.219670999999998
 21
91.247749999999996
 31
0.0
  0
LINE
  5
195
  8
DETAIL
  6
CONTINUOUS
 62
     5
 10
49.219670999999998
 20
91.247749999999996
 30
0.0
 11
49.304057999999998
 21
91.232656999999989
 31
0.0
  0
LINE
  5
196
  8
DETAIL
  6
CONTINUOUS
 62
     5
 10
49.304057999999998
 20
91.232656999999989
 30
0.0
 11
49.383015
 21
91.215180000000004
 31
0.0
  0
LINE
  5
197
  8
DETAIL
  6
CONTINUOUS
 62
     5
 10
49.383015
 20
91.215180000000004
 30
0.0
 11
49.455927000000003
 21
91.195447999999985
 31
0.0
  0
LINE
  5
198
  8
DETAIL
  6
CONTINUOUS
 62
     5
 10
49.455927000000003
 20
91.195447999999985
 30
0.0
 11
49.522185
 21
91.173615999999996
 31
0.0
  0
LINE
  5
199
  8
DETAIL
  6
CONTINUOUS
 62
     5
 10
49.522185
 20
91.173615999999996
 30
0.0
 11
49.580993999999997
 21
91.149912
 31
0.0
  0
LINE
  5
19A
  8
DETAIL
  6
CONTINUOUS
 62
     5
 10
49.580993999999997
 20
91.149912
 30
0.0
 11
49.631695999999998
 21
91.124606
 31
0.0
  0
LINE
  5
19B
  8
DETAIL
  6
CONTINUOUS
 62
     5
 10
49.631695999999998
 20
91.124606
 30
0.0
 11
49.673844000000003
 21
91.097924000000006
 31
0.0
  0
LINE
  5
19C
  8
DETAIL
  6
CONTINUOUS
 62
     5
 10
49.673844000000003
 20
91.097924000000006
 30
0.0
 11
49.70706599999999
 21
91.070095999999992
 31
0.0
  0
LINE
  5
19D
  8
DETAIL
  6
CONTINUOUS
 62
     5
 10
49.70706599999999
 20
91.070095999999992
 30
0.0
 11
49.730935000000002
 21
91.041477999999984
 31
0.0
  0
LINE
  5
19E
  8
DETAIL
  6
CONTINUOUS
 62
     5
 10
49.730935000000002
 20
91.041477999999984
 30
0.0
 11
49.745241999999998
 21
91.012402000000009
 31
0.0
  0
LINE
  5
19F
  8
DETAIL
  6
CONTINUOUS
 62
     5
 10
49.745241999999998
 20
91.012402000000009
 30
0.0
 11
49.75
 21
90.983256999999995
 31
0.0
  0
ARC
  5
1A0
  8
DETAIL
  6
CONTINUOUS
 62
     5
 10
48.75
 20
93.688514999999995
 30
0.0
 40
1.0
 50
0.0
 51
90.0
  0
LINE
  5
1A1
  8
DETAIL
  6
CONTINUOUS
 62
     5
 10
49.75
 20
90.947634999999991
 30
0.0
 11
49.938831
 21
90.947634999999991
 31
0.0
  0
LINE
  5
1A2
  8
DETAIL
  6
CONTINUOUS
 62
     5
 10
49.75
 20
94.0
 30
0.0
 11
50.991501
 21
94.0
 31
0.0
  0
LINE
  5
1A3
  8
DETAIL
  6
CONTINUOUS
 62
     5
 10
52.965463
 20
89.939356999999987
 30
0.0
 11
52.959816000000011
 21
89.937526999999989
 31
0.0
  0
LINE
  5
1A4
  8
DETAIL
  6
CONTINUOUS
 62
     5
 10
52.959816000000011
 20
89.937526999999989
 30
0.0
 11
52.946604999999998
 21
89.935631000000015
 31
0.0
  0
LINE
  5
1A5
  8
DETAIL
  6
CONTINUOUS
 62
     5
 10
52.946604999999998
 20
89.935631000000015
 30
0.0
 11
52.925761000000001
 21
89.933667000000014
 31
0.0
  0
LINE
  5
1A6
  8
DETAIL
  6
CONTINUOUS
 62
     5
 10
52.925761000000001
 20
89.933667000000014
 30
0.0
 11
52.897489
 21
89.931640000000002
 31
0.0
  0
LINE
  5
1A7
  8
DETAIL
  6
CONTINUOUS
 62
     5
 10
52.897489
 20
89.931640000000002
 30
0.0
 11
52.861871999999998
 21
89.929554999999993
 31
0.0
  0
LINE
  5
1A8
  8
DETAIL
  6
CONTINUOUS
 62
     5
 10
52.861871999999998
 20
89.929554999999993
 30
0.0
 11
52.819203000000002
 21
89.927412000000004
 31
0.0
  0
LINE
  5
1A9
  8
DETAIL
  6
CONTINUOUS
 62
     5
 10
49.860283000000003
 20
89.869086999999979
 30
0.0
 11
49.904530000000001
 21
89.913334000000006
 31
0.0
  0
LINE
  5
1AA
  8
DETAIL
  6
CONTINUOUS
 62
     5
 10
52.991196000000002
 20
89.965090000000004
 30
0.0
 11
52.965463
 21
89.939356999999987
 31
0.0
  0
LINE
  5
1AB
  8
DETAIL
  6
CONTINUOUS
 62
     5
 10
49.904530000000001
 20
89.913334000000006
 30
0.0
 11
49.907927000000001
 21
89.926306000000011
 31
0.0
  0
LINE
  5
1AC
  8
DETAIL
  6
CONTINUOUS
 62
     5
 10
49.907927000000001
 20
89.926306000000011
 30
0.0
 11
49.911254
 21
89.957652999999993
 31
0.0
  0
LINE
  5
1AD
  8
DETAIL
  6
CONTINUOUS
 62
     5
 10
49.911254
 20
89.957652999999993
 30
0.0
 11
49.914528000000011
 21
90.007653000000005
 31
0.0
  0
LINE
  5
1AE
  8
DETAIL
  6
CONTINUOUS
 62
     5
 10
49.914528000000011
 20
90.007653000000005
 30
0.0
 11
49.917703000000003
 21
90.075473000000002
 31
0.0
  0
LINE
  5
1AF
  8
DETAIL
  6
CONTINUOUS
 62
     5
 10
49.917703000000003
 20
90.075473000000002
 30
0.0
 11
49.920746000000001
 21
90.160720999999995
 31
0.0
  0
LINE
  5
1B0
  8
DETAIL
  6
CONTINUOUS
 62
     5
 10
49.920746000000001
 20
90.160720999999995
 30
0.0
 11
49.923633000000002
 21
90.262356999999994
 31
0.0
  0
LINE
  5
1B1
  8
DETAIL
  6
CONTINUOUS
 62
     5
 10
49.923633000000002
 20
90.262356999999994
 30
0.0
 11
49.928821999999997
 21
90.511275999999995
 31
0.0
  0
LINE
  5
1B2
  8
DETAIL
  6
CONTINUOUS
 62
     5
 10
52.991196000000002
 20
92.000305000000026
 30
0.0
 11
52.991196000000002
 21
89.965090000000004
 31
0.0
  0
LINE
  5
1B3
  8
DETAIL
  6
CONTINUOUS
 62
     5
 10
49.933075000000002
 20
90.812866999999983
 30
0.0
 11
49.934173000000001
 21
90.947634999999991
 31
0.0
  0
LINE
  5
1B4
  8
DETAIL
  6
CONTINUOUS
 62
     5
 10
49.928821999999997
 20
90.511275999999995
 30
0.0
 11
49.933075000000002
 21
90.812866999999983
 31
0.0
  0
LINE
  5
1B5
  8
DETAIL
  6
CONTINUOUS
 62
     5
 10
52.819203000000002
 20
89.927412000000004
 30
0.0
 11
52.71367399999999
 21
89.922948000000005
 31
0.0
  0
LINE
  5
1B6
  8
DETAIL
  6
CONTINUOUS
 62
     5
 10
52.71367399999999
 20
89.922948000000005
 30
0.0
 11
52.439480000000003
 21
89.913332999999994
 31
0.0
  0
LINE
  5
1B7
  8
DETAIL
  6
CONTINUOUS
 62
     5
 10
49.904530000000001
 20
89.913334000000006
 30
0.0
 11
52.439480000000003
 21
89.913332999999994
 31
0.0
  0
LINE
  5
1B8
  8
DETAIL
  6
CONTINUOUS
 62
     5
 10
50.991501
 20
94.0
 30
0.0
 11
51.187544000000003
 21
93.990369999999984
 31
0.0
  0
LINE
  5
1B9
  8
DETAIL
  6
CONTINUOUS
 62
     5
 10
51.187544000000003
 20
93.990369999999984
 30
0.0
 11
51.381686000000002
 21
93.961573000000001
 31
0.0
  0
LINE
  5
1BA
  8
DETAIL
  6
CONTINUOUS
 62
     5
 10
51.381686000000002
 20
93.961573000000001
 30
0.0
 11
51.572057000000001
 21
93.913890000000009
 31
0.0
  0
LINE
  5
1BB
  8
DETAIL
  6
CONTINUOUS
 62
     5
 10
51.572057000000001
 20
93.913890000000009
 30
0.0
 11
51.756828999999989
 21
93.847781000000012
 31
0.0
  0
LINE
  5
1BC
  8
DETAIL
  6
CONTINUOUS
 62
     5
 10
51.756828999999989
 20
93.847781000000012
 30
0.0
 11
51.934224
 21
93.763883000000007
 31
0.0
  0
LINE
  5
1BD
  8
DETAIL
  6
CONTINUOUS
 62
     5
 10
51.934224
 20
93.763883000000007
 30
0.0
 11
52.102536000000001
 21
93.663003000000003
 31
0.0
  0
LINE
  5
1BE
  8
DETAIL
  6
CONTINUOUS
 62
     5
 10
52.102536000000001
 20
93.663003000000003
 30
0.0
 11
52.260145000000001
 21
93.546114000000017
 31
0.0
  0
LINE
  5
1BF
  8
DETAIL
  6
CONTINUOUS
 62
     5
 10
52.260145000000001
 20
93.546114000000017
 30
0.0
 11
52.405535999999998
 21
93.414339999999996
 31
0.0
  0
LINE
  5
1C0
  8
DETAIL
  6
CONTINUOUS
 62
     5
 10
52.405535999999998
 20
93.414339999999996
 30
0.0
 11
52.537309999999998
 21
93.268948999999992
 31
0.0
  0
LINE
  5
1C1
  8
DETAIL
  6
CONTINUOUS
 62
     5
 10
52.537309999999998
 20
93.268948999999992
 30
0.0
 11
52.654198999999998
 21
93.111338999999987
 31
0.0
  0
LINE
  5
1C2
  8
DETAIL
  6
CONTINUOUS
 62
     5
 10
52.654198999999998
 20
93.111338999999987
 30
0.0
 11
52.755079000000002
 21
92.943027000000015
 31
0.0
  0
LINE
  5
1C3
  8
DETAIL
  6
CONTINUOUS
 62
     5
 10
52.755079000000002
 20
92.943027000000015
 30
0.0
 11
52.838977
 21
92.765631999999997
 31
0.0
  0
LINE
  5
1C4
  8
DETAIL
  6
CONTINUOUS
 62
     5
 10
52.838977
 20
92.765631999999997
 30
0.0
 11
52.905087000000002
 21
92.580860999999985
 31
0.0
  0
LINE
  5
1C5
  8
DETAIL
  6
CONTINUOUS
 62
     5
 10
52.905087000000002
 20
92.580860999999985
 30
0.0
 11
52.952769999999987
 21
92.390489999999986
 31
0.0
  0
LINE
  5
1C6
  8
DETAIL
  6
CONTINUOUS
 62
     5
 10
52.952769999999987
 20
92.390489999999986
 30
0.0
 11
52.981566000000001
 21
92.196347999999986
 31
0.0
  0
LINE
  5
1C7
  8
DETAIL
  6
CONTINUOUS
 62
     5
 10
52.981566000000001
 20
92.196347999999986
 30
0.0
 11
52.991196000000002
 21
92.000305000000026
 31
0.0
  0
ARC
  5
1C8
  8
DETAIL
  6
CONTINUOUS
 62
     5
 10
88.714699999999993
 20
88.691119999999984
 30
0.0
 40
1.3
 50
0.0
 51
90.0
  0
LINE
  5
1C9
  8
DETAIL
  6
CONTINUOUS
 62
     5
 10
-74.852423000000002
 20
89.618402000000003
 30
0.0
 11
-74.852423000000002
 21
-89.636161000000016
 31
0.0
  0
LINE
  5
1CA
  8
DETAIL
  6
CONTINUOUS
 62
     5
 10
-90.014700000000005
 20
88.691119999999984
 30
0.0
 11
-90.014700000000005
 21
-78.522880000000001
 31
0.0
  0
ARC
  5
1CB
  8
DETAIL
  6
CONTINUOUS
 62
     5
 10
-88.714699999999993
 20
-88.708879999999994
 30
0.0
 40
1.3
 50
180.0
 51
270.0
  0
LINE
  5
1CC
  8
DETAIL
  6
CONTINUOUS
 62
     5
 10
-88.714699999999993
 20
-90.008880000000005
 30
0.0
 11
-11.513325999999999
 21
-90.008880000000005
 31
0.0
  0
LINE
  5
1CD
  8
DETAIL
  6
CONTINUOUS
 62
     5
 10
0.0
 20
-90.008880000000005
 30
0.0
 11
-88.505743999999993
 21
-90.008880000000005
 31
0.0
  0
LINE
  5
1CE
  8
DETAIL
  6
CONTINUOUS
 62
     5
 10
-9.5160739999999997
 20
-90.008880000000005
 30
0.0
 11
-4.5133260000000002
 21
-90.008880000000005
 31
0.0
  0
ARC
  5
1CF
  8
DETAIL
  6
CONTINUOUS
 62
     5
 10
-0.0147
 20
-62.008879999999998
 30
0.0
 40
35.0
 50
240.99747000000011
 51
270.02406500000001
  0
ARC
  5
1D0
  8
DETAIL
  6
CONTINUOUS
 62
     5
 10
-3.514699999999999
 20
-90.008880000000005
 30
0.0
 40
1.0
 50
176.995947
 51
3.004052999999999
  0
LINE
  5
1D1
  8
DETAIL
  6
CONTINUOUS
 62
     5
 10
-3.6269830000000001
 20
-89.904684000000003
 30
0.0
 11
-3.514699999999999
 21
-89.904351000000005
 31
0.0
  0
LINE
  5
1D2
  8
DETAIL
  6
CONTINUOUS
 62
     5
 10
-3.7367010000000001
 20
-89.905658999999986
 30
0.0
 11
-3.6269830000000001
 21
-89.904684000000003
 31
0.0
  0
LINE
  5
1D3
  8
DETAIL
  6
CONTINUOUS
 62
     5
 10
-3.8446690000000001
 20
-89.90729300000001
 30
0.0
 11
-3.7367010000000001
 21
-89.905658999999986
 31
0.0
  0
LINE
  5
1D4
  8
DETAIL
  6
CONTINUOUS
 62
     5
 10
-3.9484439999999998
 20
-89.909538999999995
 30
0.0
 11
-3.8446690000000001
 21
-89.90729300000001
 31
0.0
  0
LINE
  5
1D5
  8
DETAIL
  6
CONTINUOUS
 62
     5
 10
-4.045977999999999
 20
-89.912359999999978
 30
0.0
 11
-3.9484439999999998
 21
-89.909538999999995
 31
0.0
  0
LINE
  5
1D6
  8
DETAIL
  6
CONTINUOUS
 62
     5
 10
-4.1369030000000002
 20
-89.915735999999995
 30
0.0
 11
-4.045977999999999
 21
-89.912359999999978
 31
0.0
  0
LINE
  5
1D7
  8
DETAIL
  6
CONTINUOUS
 62
     5
 10
-4.2207179999999989
 20
-89.919663999999997
 30
0.0
 11
-4.1369030000000002
 21
-89.915735999999995
 31
0.0
  0
LINE
  5
1D8
  8
DETAIL
  6
CONTINUOUS
 62
     5
 10
-4.2957780000000003
 20
-89.924049999999994
 30
0.0
 11
-4.2207179999999989
 21
-89.919663999999997
 31
0.0
  0
LINE
  5
1D9
  8
DETAIL
  6
CONTINUOUS
 62
     5
 10
-4.3602809999999987
 20
-89.928808000000004
 30
0.0
 11
-4.2957780000000003
 21
-89.924049999999994
 31
0.0
  0
LINE
  5
1DA
  8
DETAIL
  6
CONTINUOUS
 62
     5
 10
-4.414191999999999
 20
-89.933913000000004
 30
0.0
 11
-4.3602809999999987
 21
-89.928808000000004
 31
0.0
  0
LINE
  5
1DB
  8
DETAIL
  6
CONTINUOUS
 62
     5
 10
-4.457101999999999
 20
-89.939343999999977
 30
0.0
 11
-4.414191999999999
 21
-89.933913000000004
 31
0.0
  0
LINE
  5
1DC
  8
DETAIL
  6
CONTINUOUS
 62
     5
 10
-4.4883350000000002
 20
-89.944996000000003
 30
0.0
 11
-4.457101999999999
 21
-89.939343999999977
 31
0.0
  0
LINE
  5
1DD
  8
DETAIL
  6
CONTINUOUS
 62
     5
 10
-4.507028
 20
-89.950771000000003
 30
0.0
 11
-4.4883350000000002
 21
-89.944996000000003
 31
0.0
  0
LINE
  5
1DE
  8
DETAIL
  6
CONTINUOUS
 62
     5
 10
-4.5133260000000002
 20
-89.956472999999988
 30
0.0
 11
-4.507028
 21
-89.950771000000003
 31
0.0
  0
LINE
  5
1DF
  8
DETAIL
  6
CONTINUOUS
 62
     5
 10
-2.5223729999999991
 20
-89.950771000000003
 30
0.0
 11
-2.5160740000000001
 21
-89.956472999999988
 31
0.0
  0
LINE
  5
1E0
  8
DETAIL
  6
CONTINUOUS
 62
     5
 10
-2.5410659999999989
 20
-89.944996000000003
 30
0.0
 11
-2.5223729999999991
 21
-89.950771000000003
 31
0.0
  0
LINE
  5
1E1
  8
DETAIL
  6
CONTINUOUS
 62
     5
 10
-2.5722979999999991
 20
-89.939343999999977
 30
0.0
 11
-2.5410659999999989
 21
-89.944996000000003
 31
0.0
  0
LINE
  5
1E2
  8
DETAIL
  6
CONTINUOUS
 62
     5
 10
-2.6152079999999991
 20
-89.933913000000004
 30
0.0
 11
-2.5722979999999991
 21
-89.939343999999977
 31
0.0
  0
LINE
  5
1E3
  8
DETAIL
  6
CONTINUOUS
 62
     5
 10
-2.669119999999999
 20
-89.928808000000004
 30
0.0
 11
-2.6152079999999991
 21
-89.933913000000004
 31
0.0
  0
LINE
  5
1E4
  8
DETAIL
  6
CONTINUOUS
 62
     5
 10
-2.7336219999999991
 20
-89.924049999999994
 30
0.0
 11
-2.669119999999999
 21
-89.928808000000004
 31
0.0
  0
LINE
  5
1E5
  8
DETAIL
  6
CONTINUOUS
 62
     5
 10
-2.8086820000000001
 20
-89.919663999999997
 30
0.0
 11
-2.7336219999999991
 21
-89.924049999999994
 31
0.0
  0
LINE
  5
1E6
  8
DETAIL
  6
CONTINUOUS
 62
     5
 10
-2.8924979999999989
 20
-89.915735999999995
 30
0.0
 11
-2.8086820000000001
 21
-89.919663999999997
 31
0.0
  0
LINE
  5
1E7
  8
DETAIL
  6
CONTINUOUS
 62
     5
 10
-2.9834230000000002
 20
-89.912359999999978
 30
0.0
 11
-2.8924979999999989
 21
-89.915735999999995
 31
0.0
  0
LINE
  5
1E8
  8
DETAIL
  6
CONTINUOUS
 62
     5
 10
-3.080956
 20
-89.909538999999995
 30
0.0
 11
-2.9834230000000002
 21
-89.912359999999978
 31
0.0
  0
LINE
  5
1E9
  8
DETAIL
  6
CONTINUOUS
 62
     5
 10
-3.1847310000000002
 20
-89.90729300000001
 30
0.0
 11
-3.080956
 21
-89.909538999999995
 31
0.0
  0
LINE
  5
1EA
  8
DETAIL
  6
CONTINUOUS
 62
     5
 10
-3.2926989999999989
 20
-89.905658999999986
 30
0.0
 11
-3.1847310000000002
 21
-89.90729300000001
 31
0.0
  0
LINE
  5
1EB
  8
DETAIL
  6
CONTINUOUS
 62
     5
 10
-3.4024179999999991
 20
-89.904684000000003
 30
0.0
 11
-3.2926989999999989
 21
-89.905658999999986
 31
0.0
  0
LINE
  5
1EC
  8
DETAIL
  6
CONTINUOUS
 62
     5
 10
-3.514699999999999
 20
-89.904351000000005
 30
0.0
 11
-3.4024179999999991
 21
-89.904684000000003
 31
0.0
  0
LINE
  5
1ED
  8
DETAIL
  6
CONTINUOUS
 62
     5
 10
-2.5160740000000001
 20
-90.008880000000005
 30
0.0
 11
0.0
 21
-90.008880000000005
 31
0.0
  0
ARC
  5
1EE
  8
DETAIL
  6
CONTINUOUS
 62
     5
 10
-10.514699999999999
 20
-90.008880000000005
 30
0.0
 40
1.0
 50
176.995947
 51
3.004052999999999
  0
LINE
  5
1EF
  8
DETAIL
  6
CONTINUOUS
 62
     5
 10
-10.626982999999999
 20
-89.904684000000003
 30
0.0
 11
-10.514699999999999
 21
-89.904351000000005
 31
0.0
  0
LINE
  5
1F0
  8
DETAIL
  6
CONTINUOUS
 62
     5
 10
-10.736701
 20
-89.905658999999986
 30
0.0
 11
-10.626982999999999
 21
-89.904684000000003
 31
0.0
  0
LINE
  5
1F1
  8
DETAIL
  6
CONTINUOUS
 62
     5
 10
-10.844669
 20
-89.90729300000001
 30
0.0
 11
-10.736701
 21
-89.905658999999986
 31
0.0
  0
LINE
  5
1F2
  8
DETAIL
  6
CONTINUOUS
 62
     5
 10
-10.948444
 20
-89.909538999999995
 30
0.0
 11
-10.844669
 21
-89.90729300000001
 31
0.0
  0
LINE
  5
1F3
  8
DETAIL
  6
CONTINUOUS
 62
     5
 10
-11.045978
 20
-89.912359999999978
 30
0.0
 11
-10.948444
 21
-89.909538999999995
 31
0.0
  0
LINE
  5
1F4
  8
DETAIL
  6
CONTINUOUS
 62
     5
 10
-11.136903
 20
-89.915735999999995
 30
0.0
 11
-11.045978
 21
-89.912359999999978
 31
0.0
  0
LINE
  5
1F5
  8
DETAIL
  6
CONTINUOUS
 62
     5
 10
-11.220718
 20
-89.919663999999997
 30
0.0
 11
-11.136903
 21
-89.915735999999995
 31
0.0
  0
LINE
  5
1F6
  8
DETAIL
  6
CONTINUOUS
 62
     5
 10
-11.295778
 20
-89.924049999999994
 30
0.0
 11
-11.220718
 21
-89.919663999999997
 31
0.0
  0
LINE
  5
1F7
  8
DETAIL
  6
CONTINUOUS
 62
     5
 10
-11.360281000000001
 20
-89.928808000000004
 30
0.0
 11
-11.295778
 21
-89.924049999999994
 31
0.0
  0
LINE
  5
1F8
  8
DETAIL
  6
CONTINUOUS
 62
     5
 10
-11.414192
 20
-89.933913000000004
 30
0.0
 11
-11.360281000000001
 21
-89.928808000000004
 31
0.0
  0
LINE
  5
1F9
  8
DETAIL
  6
CONTINUOUS
 62
     5
 10
-11.457102000000001
 20
-89.939343999999977
 30
0.0
 11
-11.414192
 21
-89.933913000000004
 31
0.0
  0
LINE
  5
1FA
  8
DETAIL
  6
CONTINUOUS
 62
     5
 10
-11.488334999999999
 20
-89.944996000000003
 30
0.0
 11
-11.457102000000001
 21
-89.939343999999977
 31
0.0
  0
LINE
  5
1FB
  8
DETAIL
  6
CONTINUOUS
 62
     5
 10
-11.507028
 20
-89.950771000000003
 30
0.0
 11
-11.488334999999999
 21
-89.944996000000003
 31
0.0
  0
LINE
  5
1FC
  8
DETAIL
  6
CONTINUOUS
 62
     5
 10
-11.513325999999999
 20
-89.956472999999988
 30
0.0
 11
-11.507028
 21
-89.950771000000003
 31
0.0
  0
LINE
  5
1FD
  8
DETAIL
  6
CONTINUOUS
 62
     5
 10
-9.5223729999999982
 20
-89.950771000000003
 30
0.0
 11
-9.5160739999999997
 21
-89.956472999999988
 31
0.0
  0
LINE
  5
1FE
  8
DETAIL
  6
CONTINUOUS
 62
     5
 10
-9.5410660000000007
 20
-89.944996000000003
 30
0.0
 11
-9.5223729999999982
 21
-89.950771000000003
 31
0.0
  0
LINE
  5
1FF
  8
DETAIL
  6
CONTINUOUS
 62
     5
 10
-9.5722979999999982
 20
-89.939343999999977
 30
0.0
 11
-9.5410660000000007
 21
-89.944996000000003
 31
0.0
  0
LINE
  5
200
  8
DETAIL
  6
CONTINUOUS
 62
     5
 10
-9.6152080000000009
 20
-89.933913000000004
 30
0.0
 11
-9.5722979999999982
 21
-89.939343999999977
 31
0.0
  0
LINE
  5
201
  8
DETAIL
  6
CONTINUOUS
 62
     5
 10
-9.6691199999999995
 20
-89.928808000000004
 30
0.0
 11
-9.6152080000000009
 21
-89.933913000000004
 31
0.0
  0
LINE
  5
202
  8
DETAIL
  6
CONTINUOUS
 62
     5
 10
-9.7336220000000004
 20
-89.924049999999994
 30
0.0
 11
-9.6691199999999995
 21
-89.928808000000004
 31
0.0
  0
LINE
  5
203
  8
DETAIL
  6
CONTINUOUS
 62
     5
 10
-9.808682000000001
 20
-89.919663999999997
 30
0.0
 11
-9.7336220000000004
 21
-89.924049999999994
 31
0.0
  0
LINE
  5
204
  8
DETAIL
  6
CONTINUOUS
 62
     5
 10
-9.8924979999999998
 20
-89.915735999999995
 30
0.0
 11
-9.808682000000001
 21
-89.919663999999997
 31
0.0
  0
LINE
  5
205
  8
DETAIL
  6
CONTINUOUS
 62
     5
 10
-9.9834230000000002
 20
-89.912359999999978
 30
0.0
 11
-9.8924979999999998
 21
-89.915735999999995
 31
0.0
  0
LINE
  5
206
  8
DETAIL
  6
CONTINUOUS
 62
     5
 10
-10.080956
 20
-89.909538999999995
 30
0.0
 11
-9.9834230000000002
 21
-89.912359999999978
 31
0.0
  0
LINE
  5
207
  8
DETAIL
  6
CONTINUOUS
 62
     5
 10
-10.184730999999999
 20
-89.90729300000001
 30
0.0
 11
-10.080956
 21
-89.909538999999995
 31
0.0
  0
LINE
  5
208
  8
DETAIL
  6
CONTINUOUS
 62
     5
 10
-10.292699000000001
 20
-89.905658999999986
 30
0.0
 11
-10.184730999999999
 21
-89.90729300000001
 31
0.0
  0
LINE
  5
209
  8
DETAIL
  6
CONTINUOUS
 62
     5
 10
-10.402418000000001
 20
-89.904684000000003
 30
0.0
 11
-10.292699000000001
 21
-89.905658999999986
 31
0.0
  0
LINE
  5
20A
  8
DETAIL
  6
CONTINUOUS
 62
     5
 10
-10.514699999999999
 20
-89.904351000000005
 30
0.0
 11
-10.402418000000001
 21
-89.904684000000003
 31
0.0
  0
ARC
  5
20B
  8
DETAIL
  6
CONTINUOUS
 62
     5
 10
-18.514700000000001
 20
-90.508880000000005
 30
0.0
 40
0.5
 50
0.0
 51
82.501328000000015
  0
ARC
  5
20C
  8
DETAIL
  6
CONTINUOUS
 62
     5
 10
-16.014700000000001
 20
-90.870619000000005
 30
0.0
 40
2.0
 50
180.0
 51
240.997737
  0
LINE
  5
20D
  8
DETAIL
  6
CONTINUOUS
 62
     5
 10
-16.981394000000002
 20
-92.614469000000014
 30
0.0
 11
-16.984397000000001
 21
-92.619814000000005
 31
0.0
  0
LINE
  5
20E
  8
DETAIL
  6
CONTINUOUS
 62
     5
 10
-18.014700000000001
 20
-90.508880000000005
 30
0.0
 11
-18.014700000000001
 21
-90.870619000000005
 31
0.0
  0
LINE
  5
20F
  8
DETAIL
  6
CONTINUOUS
 62
     5
 10
-18.008489999999998
 20
-90.872561000000005
 30
0.0
 11
-18.014700000000001
 21
-90.870619000000005
 31
0.0
  0
LINE
  5
210
  8
DETAIL
  6
CONTINUOUS
 62
     5
 10
-18.010104999999999
 20
-90.508032
 30
0.0
 11
-18.014700000000001
 21
-90.508879000000007
 31
0.0
  0
LINE
  5
211
  8
DETAIL
  6
CONTINUOUS
 62
     5
 10
-90.115110999999985
 20
-78.522880000000001
 30
0.0
 11
-90.014700000000005
 21
-78.522880000000001
 31
0.0
  0
LINE
  5
212
  8
DETAIL
  6
CONTINUOUS
 62
     5
 10
-90.410848999999985
 20
-79.270780999999999
 30
0.0
 11
-90.414699999999996
 21
-79.223291000000003
 31
0.0
  0
LINE
  5
213
  8
DETAIL
  6
CONTINUOUS
 62
     5
 10
-90.400031999999996
 20
-79.315973999999997
 30
0.0
 11
-90.410848999999985
 21
-79.270780999999999
 31
0.0
  0
LINE
  5
214
  8
DETAIL
  6
CONTINUOUS
 62
     5
 10
-90.381990000000002
 20
-79.359374000000003
 30
0.0
 11
-90.400031999999996
 21
-79.315973999999997
 31
0.0
  0
LINE
  5
215
  8
DETAIL
  6
CONTINUOUS
 62
     5
 10
-90.357504000000006
 20
-79.399466000000004
 30
0.0
 11
-90.381990000000002
 21
-79.359374000000003
 31
0.0
  0
LINE
  5
216
  8
DETAIL
  6
CONTINUOUS
 62
     5
 10
-90.326954999999998
 20
-79.435136
 30
0.0
 11
-90.357504000000006
 21
-79.399466000000004
 31
0.0
  0
LINE
  5
217
  8
DETAIL
  6
CONTINUOUS
 62
     5
 10
-90.291285999999985
 20
-79.465684999999993
 30
0.0
 11
-90.326954999999998
 21
-79.435136
 31
0.0
  0
LINE
  5
218
  8
DETAIL
  6
CONTINUOUS
 62
     5
 10
-90.251193999999984
 20
-79.490169999999992
 30
0.0
 11
-90.291285999999985
 21
-79.465684999999993
 31
0.0
  0
LINE
  5
219
  8
DETAIL
  6
CONTINUOUS
 62
     5
 10
-90.207794000000007
 20
-79.508212
 30
0.0
 11
-90.251193999999984
 21
-79.490169999999992
 31
0.0
  0
LINE
  5
21A
  8
DETAIL
  6
CONTINUOUS
 62
     5
 10
-90.162600999999995
 20
-79.519028000000006
 30
0.0
 11
-90.207794000000007
 21
-79.508212
 31
0.0
  0
LINE
  5
21B
  8
DETAIL
  6
CONTINUOUS
 62
     5
 10
-90.115110999999985
 20
-79.522880000000001
 30
0.0
 11
-90.162600999999995
 21
-79.519028000000006
 31
0.0
  0
LINE
  5
21C
  8
DETAIL
  6
CONTINUOUS
 62
     5
 10
-90.115110999999985
 20
-79.522880000000001
 30
0.0
 11
-90.014700000000005
 21
-79.522880000000001
 31
0.0
  0
LINE
  5
21D
  8
DETAIL
  6
CONTINUOUS
 62
     5
 10
-90.115110999999985
 20
-80.522880000000001
 30
0.0
 11
-90.014700000000005
 21
-80.522880000000001
 31
0.0
  0
LINE
  5
21E
  8
DETAIL
  6
CONTINUOUS
 62
     5
 10
-90.115110999999985
 20
-81.522880000000001
 30
0.0
 11
-90.014700000000005
 21
-81.522880000000001
 31
0.0
  0
LINE
  5
21F
  8
DETAIL
  6
CONTINUOUS
 62
     5
 10
-90.115110999999985
 20
-82.522880000000001
 30
0.0
 11
-90.014700000000005
 21
-82.522880000000001
 31
0.0
  0
LINE
  5
220
  8
DETAIL
  6
CONTINUOUS
 62
     5
 10
-90.115110999999985
 20
-83.522879999999986
 30
0.0
 11
-90.014700000000005
 21
-83.522879999999986
 31
0.0
  0
LINE
  5
221
  8
DETAIL
  6
CONTINUOUS
 62
     5
 10
-90.115110999999985
 20
-84.508880000000005
 30
0.0
 11
-90.014700000000005
 21
-84.508880000000005
 31
0.0
  0
LINE
  5
222
  8
DETAIL
  6
CONTINUOUS
 62
     5
 10
-90.115110999999985
 20
-85.508880000000005
 30
0.0
 11
-90.014700000000005
 21
-85.508880000000005
 31
0.0
  0
LINE
  5
223
  8
DETAIL
  6
CONTINUOUS
 62
     5
 10
-90.410848999999985
 20
-81.270780999999999
 30
0.0
 11
-90.414699999999996
 21
-81.223290999999989
 31
0.0
  0
LINE
  5
224
  8
DETAIL
  6
CONTINUOUS
 62
     5
 10
-90.400031999999996
 20
-81.315973999999997
 30
0.0
 11
-90.410848999999985
 21
-81.270780999999999
 31
0.0
  0
LINE
  5
225
  8
DETAIL
  6
CONTINUOUS
 62
     5
 10
-90.381990000000002
 20
-81.359374000000017
 30
0.0
 11
-90.400031999999996
 21
-81.315973999999997
 31
0.0
  0
LINE
  5
226
  8
DETAIL
  6
CONTINUOUS
 62
     5
 10
-90.357504000000006
 20
-81.399466000000004
 30
0.0
 11
-90.381990000000002
 21
-81.359374000000017
 31
0.0
  0
LINE
  5
227
  8
DETAIL
  6
CONTINUOUS
 62
     5
 10
-90.326954999999998
 20
-81.435136
 30
0.0
 11
-90.357504000000006
 21
-81.399466000000004
 31
0.0
  0
LINE
  5
228
  8
DETAIL
  6
CONTINUOUS
 62
     5
 10
-90.291285999999985
 20
-81.465684999999979
 30
0.0
 11
-90.326954999999998
 21
-81.435136
 31
0.0
  0
LINE
  5
229
  8
DETAIL
  6
CONTINUOUS
 62
     5
 10
-90.251193999999984
 20
-81.490169999999978
 30
0.0
 11
-90.291285999999985
 21
-81.465684999999979
 31
0.0
  0
LINE
  5
22A
  8
DETAIL
  6
CONTINUOUS
 62
     5
 10
-90.207794000000007
 20
-81.508212000000015
 30
0.0
 11
-90.251193999999984
 21
-81.490169999999978
 31
0.0
  0
LINE
  5
22B
  8
DETAIL
  6
CONTINUOUS
 62
     5
 10
-90.162600999999995
 20
-81.519028000000006
 30
0.0
 11
-90.207794000000007
 21
-81.508212000000015
 31
0.0
  0
LINE
  5
22C
  8
DETAIL
  6
CONTINUOUS
 62
     5
 10
-90.115110999999985
 20
-81.522880000000001
 30
0.0
 11
-90.162600999999995
 21
-81.519028000000006
 31
0.0
  0
LINE
  5
22D
  8
DETAIL
  6
CONTINUOUS
 62
     5
 10
-90.410848999999985
 20
-83.270780999999985
 30
0.0
 11
-90.414699999999996
 21
-83.223291000000003
 31
0.0
  0
LINE
  5
22E
  8
DETAIL
  6
CONTINUOUS
 62
     5
 10
-90.400031999999996
 20
-83.315973999999997
 30
0.0
 11
-90.410848999999985
 21
-83.270780999999985
 31
0.0
  0
LINE
  5
22F
  8
DETAIL
  6
CONTINUOUS
 62
     5
 10
-90.381990000000002
 20
-83.359374000000003
 30
0.0
 11
-90.400031999999996
 21
-83.315973999999997
 31
0.0
  0
LINE
  5
230
  8
DETAIL
  6
CONTINUOUS
 62
     5
 10
-90.357504000000006
 20
-83.399466000000004
 30
0.0
 11
-90.381990000000002
 21
-83.359374000000003
 31
0.0
  0
LINE
  5
231
  8
DETAIL
  6
CONTINUOUS
 62
     5
 10
-90.326954999999998
 20
-83.435135999999986
 30
0.0
 11
-90.357504000000006
 21
-83.399466000000004
 31
0.0
  0
LINE
  5
232
  8
DETAIL
  6
CONTINUOUS
 62
     5
 10
-90.291285999999985
 20
-83.465684999999993
 30
0.0
 11
-90.326954999999998
 21
-83.435135999999986
 31
0.0
  0
LINE
  5
233
  8
DETAIL
  6
CONTINUOUS
 62
     5
 10
-90.251193999999984
 20
-83.490169999999992
 30
0.0
 11
-90.291285999999985
 21
-83.465684999999993
 31
0.0
  0
LINE
  5
234
  8
DETAIL
  6
CONTINUOUS
 62
     5
 10
-90.207794000000007
 20
-83.508212
 30
0.0
 11
-90.251193999999984
 21
-83.490169999999992
 31
0.0
  0
LINE
  5
235
  8
DETAIL
  6
CONTINUOUS
 62
     5
 10
-90.162600999999995
 20
-83.519028000000006
 30
0.0
 11
-90.207794000000007
 21
-83.508212
 31
0.0
  0
LINE
  5
236
  8
DETAIL
  6
CONTINUOUS
 62
     5
 10
-90.115110999999985
 20
-83.522879999999986
 30
0.0
 11
-90.162600999999995
 21
-83.519028000000006
 31
0.0
  0
LINE
  5
237
  8
DETAIL
  6
CONTINUOUS
 62
     5
 10
-90.410848999999985
 20
-85.256781000000004
 30
0.0
 11
-90.414699999999996
 21
-85.209291000000007
 31
0.0
  0
LINE
  5
238
  8
DETAIL
  6
CONTINUOUS
 62
     5
 10
-90.400031999999996
 20
-85.301974000000001
 30
0.0
 11
-90.410848999999985
 21
-85.256781000000004
 31
0.0
  0
LINE
  5
239
  8
DETAIL
  6
CONTINUOUS
 62
     5
 10
-90.381990000000002
 20
-85.345373999999993
 30
0.0
 11
-90.400031999999996
 21
-85.301974000000001
 31
0.0
  0
LINE
  5
23A
  8
DETAIL
  6
CONTINUOUS
 62
     5
 10
-90.357504000000006
 20
-85.385466000000008
 30
0.0
 11
-90.381990000000002
 21
-85.345373999999993
 31
0.0
  0
LINE
  5
23B
  8
DETAIL
  6
CONTINUOUS
 62
     5
 10
-90.326954999999998
 20
-85.421136000000004
 30
0.0
 11
-90.357504000000006
 21
-85.385466000000008
 31
0.0
  0
LINE
  5
23C
  8
DETAIL
  6
CONTINUOUS
 62
     5
 10
-90.291285999999985
 20
-85.451684999999998
 30
0.0
 11
-90.326954999999998
 21
-85.421136000000004
 31
0.0
  0
LINE
  5
23D
  8
DETAIL
  6
CONTINUOUS
 62
     5
 10
-90.251193999999984
 20
-85.476169999999996
 30
0.0
 11
-90.291285999999985
 21
-85.451684999999998
 31
0.0
  0
LINE
  5
23E
  8
DETAIL
  6
CONTINUOUS
 62
     5
 10
-90.207794000000007
 20
-85.494212000000005
 30
0.0
 11
-90.251193999999984
 21
-85.476169999999996
 31
0.0
  0
LINE
  5
23F
  8
DETAIL
  6
CONTINUOUS
 62
     5
 10
-90.162600999999995
 20
-85.505027999999996
 30
0.0
 11
-90.207794000000007
 21
-85.494212000000005
 31
0.0
  0
LINE
  5
240
  8
DETAIL
  6
CONTINUOUS
 62
     5
 10
-90.115110999999985
 20
-85.508880000000005
 30
0.0
 11
-90.162600999999995
 21
-85.505027999999996
 31
0.0
  0
LINE
  5
241
  8
DETAIL
  6
CONTINUOUS
 62
     5
 10
-90.162600999999995
 20
-84.512730999999988
 30
0.0
 11
-90.115110999999985
 21
-84.508880000000005
 31
0.0
  0
LINE
  5
242
  8
DETAIL
  6
CONTINUOUS
 62
     5
 10
-90.207794000000007
 20
-84.523548000000005
 30
0.0
 11
-90.162600999999995
 21
-84.512730999999988
 31
0.0
  0
LINE
  5
243
  8
DETAIL
  6
CONTINUOUS
 62
     5
 10
-90.251193999999984
 20
-84.541589000000016
 30
0.0
 11
-90.207794000000007
 21
-84.523548000000005
 31
0.0
  0
LINE
  5
244
  8
DETAIL
  6
CONTINUOUS
 62
     5
 10
-90.291285999999985
 20
-84.566074999999998
 30
0.0
 11
-90.251193999999984
 21
-84.541589000000016
 31
0.0
  0
LINE
  5
245
  8
DETAIL
  6
CONTINUOUS
 62
     5
 10
-90.326954999999998
 20
-84.596624000000006
 30
0.0
 11
-90.291285999999985
 21
-84.566074999999998
 31
0.0
  0
LINE
  5
246
  8
DETAIL
  6
CONTINUOUS
 62
     5
 10
-90.357504000000006
 20
-84.632293000000004
 30
0.0
 11
-90.326954999999998
 21
-84.596624000000006
 31
0.0
  0
LINE
  5
247
  8
DETAIL
  6
CONTINUOUS
 62
     5
 10
-90.381990000000002
 20
-84.672385999999989
 30
0.0
 11
-90.357504000000006
 21
-84.632293000000004
 31
0.0
  0
LINE
  5
248
  8
DETAIL
  6
CONTINUOUS
 62
     5
 10
-90.400031999999996
 20
-84.715785999999994
 30
0.0
 11
-90.381990000000002
 21
-84.672385999999989
 31
0.0
  0
LINE
  5
249
  8
DETAIL
  6
CONTINUOUS
 62
     5
 10
-90.410848999999985
 20
-84.760978000000009
 30
0.0
 11
-90.400031999999996
 21
-84.715785999999994
 31
0.0
  0
LINE
  5
24A
  8
DETAIL
  6
CONTINUOUS
 62
     5
 10
-90.414699999999996
 20
-84.808468999999988
 30
0.0
 11
-90.410848999999985
 21
-84.760978000000009
 31
0.0
  0
LINE
  5
24B
  8
DETAIL
  6
CONTINUOUS
 62
     5
 10
-90.162600999999995
 20
-82.526730999999998
 30
0.0
 11
-90.115110999999985
 21
-82.522880000000001
 31
0.0
  0
LINE
  5
24C
  8
DETAIL
  6
CONTINUOUS
 62
     5
 10
-90.207794000000007
 20
-82.537548000000015
 30
0.0
 11
-90.162600999999995
 21
-82.526730999999998
 31
0.0
  0
LINE
  5
24D
  8
DETAIL
  6
CONTINUOUS
 62
     5
 10
-90.251193999999984
 20
-82.555588999999998
 30
0.0
 11
-90.207794000000007
 21
-82.537548000000015
 31
0.0
  0
LINE
  5
24E
  8
DETAIL
  6
CONTINUOUS
 62
     5
 10
-90.291285999999985
 20
-82.580074999999994
 30
0.0
 11
-90.251193999999984
 21
-82.555588999999998
 31
0.0
  0
LINE
  5
24F
  8
DETAIL
  6
CONTINUOUS
 62
     5
 10
-90.326954999999998
 20
-82.610624000000001
 30
0.0
 11
-90.291285999999985
 21
-82.580074999999994
 31
0.0
  0
LINE
  5
250
  8
DETAIL
  6
CONTINUOUS
 62
     5
 10
-90.357504000000006
 20
-82.646293000000014
 30
0.0
 11
-90.326954999999998
 21
-82.610624000000001
 31
0.0
  0
LINE
  5
251
  8
DETAIL
  6
CONTINUOUS
 62
     5
 10
-90.381990000000002
 20
-82.686385999999999
 30
0.0
 11
-90.357504000000006
 21
-82.646293000000014
 31
0.0
  0
LINE
  5
252
  8
DETAIL
  6
CONTINUOUS
 62
     5
 10
-90.400031999999996
 20
-82.729786000000004
 30
0.0
 11
-90.381990000000002
 21
-82.686385999999999
 31
0.0
  0
LINE
  5
253
  8
DETAIL
  6
CONTINUOUS
 62
     5
 10
-90.410848999999985
 20
-82.774978000000004
 30
0.0
 11
-90.400031999999996
 21
-82.729786000000004
 31
0.0
  0
LINE
  5
254
  8
DETAIL
  6
CONTINUOUS
 62
     5
 10
-90.414699999999996
 20
-82.822468999999998
 30
0.0
 11
-90.410848999999985
 21
-82.774978000000004
 31
0.0
  0
LINE
  5
255
  8
DETAIL
  6
CONTINUOUS
 62
     5
 10
-90.162600999999995
 20
-80.526731000000012
 30
0.0
 11
-90.115110999999985
 21
-80.522880000000001
 31
0.0
  0
LINE
  5
256
  8
DETAIL
  6
CONTINUOUS
 62
     5
 10
-90.207794000000007
 20
-80.537548000000001
 30
0.0
 11
-90.162600999999995
 21
-80.526731000000012
 31
0.0
  0
LINE
  5
257
  8
DETAIL
  6
CONTINUOUS
 62
     5
 10
-90.251193999999984
 20
-80.555588999999983
 30
0.0
 11
-90.207794000000007
 21
-80.537548000000001
 31
0.0
  0
LINE
  5
258
  8
DETAIL
  6
CONTINUOUS
 62
     5
 10
-90.291285999999985
 20
-80.580074999999994
 30
0.0
 11
-90.251193999999984
 21
-80.555588999999983
 31
0.0
  0
LINE
  5
259
  8
DETAIL
  6
CONTINUOUS
 62
     5
 10
-90.326954999999998
 20
-80.610624000000001
 30
0.0
 11
-90.291285999999985
 21
-80.580074999999994
 31
0.0
  0
LINE
  5
25A
  8
DETAIL
  6
CONTINUOUS
 62
     5
 10
-90.357504000000006
 20
-80.646293
 30
0.0
 11
-90.326954999999998
 21
-80.610624000000001
 31
0.0
  0
LINE
  5
25B
  8
DETAIL
  6
CONTINUOUS
 62
     5
 10
-90.381990000000002
 20
-80.686385999999985
 30
0.0
 11
-90.357504000000006
 21
-80.646293
 31
0.0
  0
LINE
  5
25C
  8
DETAIL
  6
CONTINUOUS
 62
     5
 10
-90.400031999999996
 20
-80.729786000000004
 30
0.0
 11
-90.381990000000002
 21
-80.686385999999985
 31
0.0
  0
LINE
  5
25D
  8
DETAIL
  6
CONTINUOUS
 62
     5
 10
-90.410848999999985
 20
-80.774978000000004
 30
0.0
 11
-90.400031999999996
 21
-80.729786000000004
 31
0.0
  0
LINE
  5
25E
  8
DETAIL
  6
CONTINUOUS
 62
     5
 10
-90.414699999999996
 20
-80.822468999999984
 30
0.0
 11
-90.410848999999985
 21
-80.774978000000004
 31
0.0
  0
LINE
  5
25F
  8
DETAIL
  6
CONTINUOUS
 62
     5
 10
-90.162600999999995
 20
-78.526731000000012
 30
0.0
 11
-90.115110999999985
 21
-78.522880000000001
 31
0.0
  0
LINE
  5
260
  8
DETAIL
  6
CONTINUOUS
 62
     5
 10
-90.207794000000007
 20
-78.537548000000001
 30
0.0
 11
-90.162600999999995
 21
-78.526731000000012
 31
0.0
  0
LINE
  5
261
  8
DETAIL
  6
CONTINUOUS
 62
     5
 10
-90.251193999999984
 20
-78.555588999999998
 30
0.0
 11
-90.207794000000007
 21
-78.537548000000001
 31
0.0
  0
LINE
  5
262
  8
DETAIL
  6
CONTINUOUS
 62
     5
 10
-90.291285999999985
 20
-78.580074999999994
 30
0.0
 11
-90.251193999999984
 21
-78.555588999999998
 31
0.0
  0
LINE
  5
263
  8
DETAIL
  6
CONTINUOUS
 62
     5
 10
-90.326954999999998
 20
-78.610624000000001
 30
0.0
 11
-90.291285999999985
 21
-78.580074999999994
 31
0.0
  0
LINE
  5
264
  8
DETAIL
  6
CONTINUOUS
 62
     5
 10
-90.357504000000006
 20
-78.646293
 30
0.0
 11
-90.326954999999998
 21
-78.610624000000001
 31
0.0
  0
LINE
  5
265
  8
DETAIL
  6
CONTINUOUS
 62
     5
 10
-90.381990000000002
 20
-78.686385999999999
 30
0.0
 11
-90.357504000000006
 21
-78.646293
 31
0.0
  0
LINE
  5
266
  8
DETAIL
  6
CONTINUOUS
 62
     5
 10
-90.400031999999996
 20
-78.729786000000004
 30
0.0
 11
-90.381990000000002
 21
-78.686385999999999
 31
0.0
  0
LINE
  5
267
  8
DETAIL
  6
CONTINUOUS
 62
     5
 10
-90.410848999999985
 20
-78.774978000000004
 30
0.0
 11
-90.400031999999996
 21
-78.729786000000004
 31
0.0
  0
LINE
  5
268
  8
DETAIL
  6
CONTINUOUS
 62
     5
 10
-90.414699999999996
 20
-78.822468999999998
 30
0.0
 11
-90.410848999999985
 21
-78.774978000000004
 31
0.0
  0
LINE
  5
269
  8
DETAIL
  6
CONTINUOUS
 62
     5
 10
-90.014700000000005
 20
-78.457277000000005
 30
0.0
 11
-90.014700000000005
 21
-88.708879999999994
 31
0.0
  0
LINE
  5
26A
  8
DETAIL
  6
CONTINUOUS
 62
     5
 10
-90.414699999999996
 20
-84.808468999999988
 30
0.0
 11
-90.414699999999996
 21
-85.209291000000007
 31
0.0
  0
LINE
  5
26B
  8
DETAIL
  6
CONTINUOUS
 62
     5
 10
-90.414699999999996
 20
-82.822468999999998
 30
0.0
 11
-90.414699999999996
 21
-83.223291000000003
 31
0.0
  0
LINE
  5
26C
  8
DETAIL
  6
CONTINUOUS
 62
     5
 10
-90.414699999999996
 20
-80.822468999999984
 30
0.0
 11
-90.414699999999996
 21
-81.223290999999989
 31
0.0
  0
LINE
  5
26D
  8
DETAIL
  6
CONTINUOUS
 62
     5
 10
-90.414699999999996
 20
-78.822468999999998
 30
0.0
 11
-90.414699999999996
 21
-79.223291000000003
 31
0.0
  0
LINE
  5
26E
  8
DETAIL
  6
CONTINUOUS
 62
     5
 10
-48.75
 20
91.585448999999997
 30
0.0
 11
-41.25
 21
91.585447000000002
 31
0.0
  0
LINE
  5
26F
  8
DETAIL
  6
CONTINUOUS
 62
     5
 10
-41.25
 20
94.991119999999995
 30
0.0
 11
-48.75
 21
94.991119999999995
 31
0.0
  0
LINE
  5
270
  8
DETAIL
  6
CONTINUOUS
 62
     5
 10
-40.122109000000002
 20
89.869086999999979
 30
0.0
 11
-49.860283000000003
 21
89.869086999999979
 31
0.0
  0
LINE
  5
271
  8
DETAIL
  6
CONTINUOUS
 62
     5
 10
-36.912591999999997
 20
89.991119999999995
 30
0.0
 11
0.0
 21
89.991119999999995
 31
0.0
  0
LINE
  5
272
  8
DETAIL
  6
CONTINUOUS
 62
     5
 10
-40.25
 20
91.285861999999995
 30
0.0
 11
-40.254831000000003
 21
91.315229999999985
 31
0.0
  0
LINE
  5
273
  8
DETAIL
  6
CONTINUOUS
 62
     5
 10
-40.254831000000003
 20
91.315229999999985
 30
0.0
 11
-40.269289000000001
 21
91.344418999999974
 31
0.0
  0
LINE
  5
274
  8
DETAIL
  6
CONTINUOUS
 62
     5
 10
-40.269289000000001
 20
91.344418999999974
 30
0.0
 11
-40.293264999999998
 21
91.373027000000008
 31
0.0
  0
LINE
  5
275
  8
DETAIL
  6
CONTINUOUS
 62
     5
 10
-40.293264999999998
 20
91.373027000000008
 30
0.0
 11
-40.326506000000002
 21
91.400781000000009
 31
0.0
  0
LINE
  5
276
  8
DETAIL
  6
CONTINUOUS
 62
     5
 10
-40.326506000000002
 20
91.400781000000009
 30
0.0
 11
-40.368589999999998
 21
91.427369999999996
 31
0.0
  0
LINE
  5
277
  8
DETAIL
  6
CONTINUOUS
 62
     5
 10
-40.368589999999998
 20
91.427369999999996
 30
0.0
 11
-40.419179
 21
91.452594999999988
 31
0.0
  0
LINE
  5
278
  8
DETAIL
  6
CONTINUOUS
 62
     5
 10
-40.419179
 20
91.452594999999988
 30
0.0
 11
-40.477946000000003
 21
91.476268999999974
 31
0.0
  0
LINE
  5
279
  8
DETAIL
  6
CONTINUOUS
 62
     5
 10
-40.477946000000003
 20
91.476268999999974
 30
0.0
 11
-40.544201999999999
 21
91.498091000000002
 31
0.0
  0
LINE
  5
27A
  8
DETAIL
  6
CONTINUOUS
 62
     5
 10
-40.544201999999999
 20
91.498091000000002
 30
0.0
 11
-40.617128000000001
 21
91.51782
 31
0.0
  0
LINE
  5
27B
  8
DETAIL
  6
CONTINUOUS
 62
     5
 10
-40.617128000000001
 20
91.51782
 30
0.0
 11
-40.696111999999992
 21
91.535294999999991
 31
0.0
  0
LINE
  5
27C
  8
DETAIL
  6
CONTINUOUS
 62
     5
 10
-40.696111999999992
 20
91.535294999999991
 30
0.0
 11
-40.780504000000001
 21
91.550381000000002
 31
0.0
  0
LINE
  5
27D
  8
DETAIL
  6
CONTINUOUS
 62
     5
 10
-40.780504000000001
 20
91.550381000000002
 30
0.0
 11
-40.869351000000002
 21
91.562894999999983
 31
0.0
  0
LINE
  5
27E
  8
DETAIL
  6
CONTINUOUS
 62
     5
 10
-40.869351000000002
 20
91.562894999999983
 30
0.0
 11
-40.961699999999993
 21
91.572732999999985
 31
0.0
  0
LINE
  5
27F
  8
DETAIL
  6
CONTINUOUS
 62
     5
 10
-40.961699999999993
 20
91.572732999999985
 30
0.0
 11
-41.056578000000002
 21
91.579791999999983
 31
0.0
  0
LINE
  5
280
  8
DETAIL
  6
CONTINUOUS
 62
     5
 10
-41.056578000000002
 20
91.579791999999983
 30
0.0
 11
-41.15294699999999
 21
91.584039000000004
 31
0.0
  0
LINE
  5
281
  8
DETAIL
  6
CONTINUOUS
 62
     5
 10
-41.15294699999999
 20
91.584039000000004
 30
0.0
 11
-41.249916999999989
 21
91.585452000000004
 31
0.0
  0
LINE
  5
282
  8
DETAIL
  6
CONTINUOUS
 62
     5
 10
-40.25
 20
89.869086999999979
 30
0.0
 11
-40.25
 21
93.991119999999995
 31
0.0
  0
ARC
  5
283
  8
DETAIL
  6
CONTINUOUS
 62
     5
 10
-41.25
 20
93.991119999999995
 30
0.0
 40
1.0
 50
0.0
 51
90.0
  0
LINE
  5
284
  8
DETAIL
  6
CONTINUOUS
 62
     5
 10
-40.04356099999999
 20
91.250240000000005
 30
0.0
 11
-40.25
 21
91.250240000000005
 31
0.0
  0
LINE
  5
285
  8
DETAIL
  6
CONTINUOUS
 62
     5
 10
-38.990892000000002
 20
94.302605000000014
 30
0.0
 11
-40.25
 21
94.302605000000014
 31
0.0
  0
LINE
  5
286
  8
DETAIL
  6
CONTINUOUS
 62
     5
 10
-40.058759999999992
 20
90.262356999999994
 30
0.0
 11
-40.061646000000003
 21
90.160720999999995
 31
0.0
  0
LINE
  5
287
  8
DETAIL
  6
CONTINUOUS
 62
     5
 10
-40.061646000000003
 20
90.160720999999995
 30
0.0
 11
-40.064689999999999
 21
90.075473000000002
 31
0.0
  0
LINE
  5
288
  8
DETAIL
  6
CONTINUOUS
 62
     5
 10
-40.064689999999999
 20
90.075473000000002
 30
0.0
 11
-40.067864999999998
 21
90.007653000000005
 31
0.0
  0
LINE
  5
289
  8
DETAIL
  6
CONTINUOUS
 62
     5
 10
-40.067864999999998
 20
90.007653000000005
 30
0.0
 11
-40.071137999999991
 21
89.957652999999993
 31
0.0
  0
LINE
  5
28A
  8
DETAIL
  6
CONTINUOUS
 62
     5
 10
-40.071137999999991
 20
89.957652999999993
 30
0.0
 11
-40.074465999999987
 21
89.926306000000011
 31
0.0
  0
LINE
  5
28B
  8
DETAIL
  6
CONTINUOUS
 62
     5
 10
-40.074465999999987
 20
89.926306000000011
 30
0.0
 11
-40.077861999999989
 21
89.913334000000006
 31
0.0
  0
LINE
  5
28C
  8
DETAIL
  6
CONTINUOUS
 62
     5
 10
-40.053570999999998
 20
90.813881000000009
 30
0.0
 11
-40.058759999999992
 21
90.262356999999994
 31
0.0
  0
LINE
  5
28D
  8
DETAIL
  6
CONTINUOUS
 62
     5
 10
-40.049318
 20
91.115471999999997
 30
0.0
 11
-40.053570999999998
 21
90.813881000000009
 31
0.0
  0
LINE
  5
28E
  8
DETAIL
  6
CONTINUOUS
 62
     5
 10
-40.048219999999993
 20
91.250240000000005
 30
0.0
 11
-40.049318
 21
91.115471999999997
 31
0.0
  0
LINE
  5
28F
  8
DETAIL
  6
CONTINUOUS
 62
     5
 10
-36.991196000000002
 20
89.965090000000004
 30
0.0
 11
-36.991196000000002
 21
92.302909999999983
 31
0.0
  0
LINE
  5
290
  8
DETAIL
  6
CONTINUOUS
 62
     5
 10
-37.542912000000001
 20
89.913332999999994
 30
0.0
 11
-40.077861999999989
 21
89.913334000000006
 31
0.0
  0
LINE
  5
291
  8
DETAIL
  6
CONTINUOUS
 62
     5
 10
-37.542912000000001
 20
89.913332999999994
 30
0.0
 11
-37.269280999999999
 21
89.922926000000004
 31
0.0
  0
LINE
  5
292
  8
DETAIL
  6
CONTINUOUS
 62
     5
 10
-37.269280999999999
 20
89.922926000000004
 30
0.0
 11
-37.164067000000003
 21
89.927369999999996
 31
0.0
  0
LINE
  5
293
  8
DETAIL
  6
CONTINUOUS
 62
     5
 10
-37.164067000000003
 20
89.927369999999996
 30
0.0
 11
-37.121349000000009
 21
89.929511000000005
 31
0.0
  0
LINE
  5
294
  8
DETAIL
  6
CONTINUOUS
 62
     5
 10
-37.121349000000009
 20
89.929511000000005
 30
0.0
 11
-37.085591999999998
 21
89.931595999999999
 31
0.0
  0
LINE
  5
295
  8
DETAIL
  6
CONTINUOUS
 62
     5
 10
-37.085591999999998
 20
89.931595999999999
 30
0.0
 11
-37.057116000000001
 21
89.933627999999985
 31
0.0
  0
LINE
  5
296
  8
DETAIL
  6
CONTINUOUS
 62
     5
 10
-37.057116000000001
 20
89.933627999999985
 30
0.0
 11
-37.036059000000002
 21
89.935601000000005
 31
0.0
  0
LINE
  5
297
  8
DETAIL
  6
CONTINUOUS
 62
     5
 10
-37.036059000000002
 20
89.935601000000005
 30
0.0
 11
-37.022694000000001
 21
89.937510000000003
 31
0.0
  0
LINE
  5
298
  8
DETAIL
  6
CONTINUOUS
 62
     5
 10
-37.022694000000001
 20
89.937510000000003
 30
0.0
 11
-37.016928999999998
 21
89.939356999999987
 31
0.0
  0
LINE
  5
299
  8
DETAIL
  6
CONTINUOUS
 62
     5
 10
-37.016928999999998
 20
89.939356999999987
 30
0.0
 11
-36.991196000000002
 21
89.965090000000004
 31
0.0
  0
LINE
  5
29A
  8
DETAIL
  6
CONTINUOUS
 62
     5
 10
-38.990892000000002
 20
94.302605000000014
 30
0.0
 11
-38.794848000000002
 21
94.292974999999998
 31
0.0
  0
LINE
  5
29B
  8
DETAIL
  6
CONTINUOUS
 62
     5
 10
-38.794848000000002
 20
94.292974999999998
 30
0.0
 11
-38.600707
 21
94.264178999999999
 31
0.0
  0
LINE
  5
29C
  8
DETAIL
  6
CONTINUOUS
 62
     5
 10
-38.600707
 20
94.264178999999999
 30
0.0
 11
-38.410335000000003
 21
94.216496000000006
 31
0.0
  0
LINE
  5
29D
  8
DETAIL
  6
CONTINUOUS
 62
     5
 10
-38.410335000000003
 20
94.216496000000006
 30
0.0
 11
-38.225563999999999
 21
94.150386999999995
 31
0.0
  0
LINE
  5
29E
  8
DETAIL
  6
CONTINUOUS
 62
     5
 10
-38.225563999999999
 20
94.150386999999995
 30
0.0
 11
-38.048169000000001
 21
94.066488000000007
 31
0.0
  0
LINE
  5
29F
  8
DETAIL
  6
CONTINUOUS
 62
     5
 10
-38.048169000000001
 20
94.066488000000007
 30
0.0
 11
-37.879857000000001
 21
93.965607999999989
 31
0.0
  0
LINE
  5
2A0
  8
DETAIL
  6
CONTINUOUS
 62
     5
 10
-37.879857000000001
 20
93.965607999999989
 30
0.0
 11
-37.722248
 21
93.848718999999974
 31
0.0
  0
LINE
  5
2A1
  8
DETAIL
  6
CONTINUOUS
 62
     5
 10
-37.722248
 20
93.848718999999974
 30
0.0
 11
-37.576857000000011
 21
93.716944999999996
 31
0.0
  0
LINE
  5
2A2
  8
DETAIL
  6
CONTINUOUS
 62
     5
 10
-37.576857000000011
 20
93.716944999999996
 30
0.0
 11
-37.445083000000011
 21
93.571554000000006
 31
0.0
  0
LINE
  5
2A3
  8
DETAIL
  6
CONTINUOUS
 62
     5
 10
-37.445083000000011
 20
93.571554000000006
 30
0.0
 11
-37.328192999999999
 21
93.413944999999984
 31
0.0
  0
LINE
  5
2A4
  8
DETAIL
  6
CONTINUOUS
 62
     5
 10
-37.328192999999999
 20
93.413944999999984
 30
0.0
 11
-37.227314
 21
93.245632999999984
 31
0.0
  0
LINE
  5
2A5
  8
DETAIL
  6
CONTINUOUS
 62
     5
 10
-37.227314
 20
93.245632999999984
 30
0.0
 11
-37.143415000000012
 21
93.068237999999994
 31
0.0
  0
LINE
  5
2A6
  8
DETAIL
  6
CONTINUOUS
 62
     5
 10
-37.143415000000012
 20
93.068237999999994
 30
0.0
 11
-37.077306
 21
92.88346700000001
 31
0.0
  0
LINE
  5
2A7
  8
DETAIL
  6
CONTINUOUS
 62
     5
 10
-37.077306
 20
92.88346700000001
 30
0.0
 11
-37.029623000000001
 21
92.693095
 31
0.0
  0
LINE
  5
2A8
  8
DETAIL
  6
CONTINUOUS
 62
     5
 10
-37.029623000000001
 20
92.693095
 30
0.0
 11
-37.000826000000004
 21
92.498953
 31
0.0
  0
LINE
  5
2A9
  8
DETAIL
  6
CONTINUOUS
 62
     5
 10
-37.000826000000004
 20
92.498953
 30
0.0
 11
-36.991196000000002
 21
92.302909999999983
 31
0.0
  0
LINE
  5
2AA
  8
DETAIL
  6
CONTINUOUS
 62
     5
 10
-40.122109000000002
 20
89.869086999999979
 30
0.0
 11
-40.077861999999989
 21
89.913334000000006
 31
0.0
  0
LINE
  5
2AB
  8
DETAIL
  6
CONTINUOUS
 62
     5
 10
-36.991196000000002
 20
89.991119999999995
 30
0.0
 11
-31.037666999999999
 21
89.991119999999995
 31
0.0
  0
LINE
  5
2AC
  8
DETAIL
  6
CONTINUOUS
 62
     5
 10
-52.991196000000002
 20
89.991119999999995
 30
0.0
 11
-88.714699999999993
 21
89.991119999999995
 31
0.0
  0
LINE
  5
2AD
  8
DETAIL
  6
CONTINUOUS
 62
     5
 10
-49.75
 20
93.991119999999995
 30
0.0
 11
-49.75
 21
89.869086999999979
 31
0.0
  0
LINE
  5
2AE
  8
DETAIL
  6
CONTINUOUS
 62
     5
 10
-48.750042000000001
 20
91.585451000000006
 30
0.0
 11
-48.847155000000001
 21
91.584038000000007
 31
0.0
  0
LINE
  5
2AF
  8
DETAIL
  6
CONTINUOUS
 62
     5
 10
-48.847155000000001
 20
91.584038000000007
 30
0.0
 11
-48.943609000000002
 21
91.579781999999994
 31
0.0
  0
LINE
  5
2B0
  8
DETAIL
  6
CONTINUOUS
 62
     5
 10
-48.943609000000002
 20
91.579781999999994
 30
0.0
 11
-49.038494999999998
 21
91.572716999999997
 31
0.0
  0
LINE
  5
2B1
  8
DETAIL
  6
CONTINUOUS
 62
     5
 10
-49.038494999999998
 20
91.572716999999997
 30
0.0
 11
-49.130825000000002
 21
91.562876000000003
 31
0.0
  0
LINE
  5
2B2
  8
DETAIL
  6
CONTINUOUS
 62
     5
 10
-49.130825000000002
 20
91.562876000000003
 30
0.0
 11
-49.219670999999998
 21
91.550355000000025
 31
0.0
  0
LINE
  5
2B3
  8
DETAIL
  6
CONTINUOUS
 62
     5
 10
-49.219670999999998
 20
91.550355000000025
 30
0.0
 11
-49.304057999999998
 21
91.535261999999989
 31
0.0
  0
LINE
  5
2B4
  8
DETAIL
  6
CONTINUOUS
 62
     5
 10
-49.304057999999998
 20
91.535261999999989
 30
0.0
 11
-49.383015
 21
91.517785000000003
 31
0.0
  0
LINE
  5
2B5
  8
DETAIL
  6
CONTINUOUS
 62
     5
 10
-49.383015
 20
91.517785000000003
 30
0.0
 11
-49.455927000000003
 21
91.49805400000001
 31
0.0
  0
LINE
  5
2B6
  8
DETAIL
  6
CONTINUOUS
 62
     5
 10
-49.455927000000003
 20
91.49805400000001
 30
0.0
 11
-49.522185
 21
91.476221999999979
 31
0.0
  0
LINE
  5
2B7
  8
DETAIL
  6
CONTINUOUS
 62
     5
 10
-49.522185
 20
91.476221999999979
 30
0.0
 11
-49.580993999999997
 21
91.452517000000014
 31
0.0
  0
LINE
  5
2B8
  8
DETAIL
  6
CONTINUOUS
 62
     5
 10
-49.580993999999997
 20
91.452517000000014
 30
0.0
 11
-49.631695999999998
 21
91.427211000000014
 31
0.0
  0
LINE
  5
2B9
  8
DETAIL
  6
CONTINUOUS
 62
     5
 10
-49.631695999999998
 20
91.427211000000014
 30
0.0
 11
-49.673844000000003
 21
91.400529000000006
 31
0.0
  0
LINE
  5
2BA
  8
DETAIL
  6
CONTINUOUS
 62
     5
 10
-49.673844000000003
 20
91.400529000000006
 30
0.0
 11
-49.70706599999999
 21
91.372702000000004
 31
0.0
  0
LINE
  5
2BB
  8
DETAIL
  6
CONTINUOUS
 62
     5
 10
-49.70706599999999
 20
91.372702000000004
 30
0.0
 11
-49.730935000000002
 21
91.344082999999998
 31
0.0
  0
LINE
  5
2BC
  8
DETAIL
  6
CONTINUOUS
 62
     5
 10
-49.730935000000002
 20
91.344082999999998
 30
0.0
 11
-49.745241999999998
 21
91.315007999999992
 31
0.0
  0
LINE
  5
2BD
  8
DETAIL
  6
CONTINUOUS
 62
     5
 10
-49.745241999999998
 20
91.315007999999992
 30
0.0
 11
-49.75
 21
91.285861999999995
 31
0.0
  0
ARC
  5
2BE
  8
DETAIL
  6
CONTINUOUS
 62
     5
 10
-48.75
 20
93.991119999999995
 30
0.0
 40
1.0
 50
90.0
 51
180.0
  0
LINE
  5
2BF
  8
DETAIL
  6
CONTINUOUS
 62
     5
 10
-49.75
 20
91.250240000000005
 30
0.0
 11
-49.938831
 21
91.250240000000005
 31
0.0
  0
LINE
  5
2C0
  8
DETAIL
  6
CONTINUOUS
 62
     5
 10
-49.75
 20
94.302605000000014
 30
0.0
 11
-50.991501
 21
94.302605000000014
 31
0.0
  0
LINE
  5
2C1
  8
DETAIL
  6
CONTINUOUS
 62
     5
 10
-52.965463
 20
89.939356999999987
 30
0.0
 11
-52.959816000000011
 21
89.937526999999989
 31
0.0
  0
LINE
  5
2C2
  8
DETAIL
  6
CONTINUOUS
 62
     5
 10
-52.959816000000011
 20
89.937526999999989
 30
0.0
 11
-52.946604999999998
 21
89.935631000000015
 31
0.0
  0
LINE
  5
2C3
  8
DETAIL
  6
CONTINUOUS
 62
     5
 10
-52.946604999999998
 20
89.935631000000015
 30
0.0
 11
-52.925761000000001
 21
89.933667000000014
 31
0.0
  0
LINE
  5
2C4
  8
DETAIL
  6
CONTINUOUS
 62
     5
 10
-52.925761000000001
 20
89.933667000000014
 30
0.0
 11
-52.897489
 21
89.931640000000002
 31
0.0
  0
LINE
  5
2C5
  8
DETAIL
  6
CONTINUOUS
 62
     5
 10
-52.897489
 20
89.931640000000002
 30
0.0
 11
-52.861871999999998
 21
89.929554999999993
 31
0.0
  0
LINE
  5
2C6
  8
DETAIL
  6
CONTINUOUS
 62
     5
 10
-52.861871999999998
 20
89.929554999999993
 30
0.0
 11
-52.819203000000002
 21
89.927412000000004
 31
0.0
  0
LINE
  5
2C7
  8
DETAIL
  6
CONTINUOUS
 62
     5
 10
-49.860283000000003
 20
89.869086999999979
 30
0.0
 11
-49.904530000000001
 21
89.913334000000006
 31
0.0
  0
LINE
  5
2C8
  8
DETAIL
  6
CONTINUOUS
 62
     5
 10
-52.991196000000002
 20
89.965090000000004
 30
0.0
 11
-52.965463
 21
89.939356999999987
 31
0.0
  0
LINE
  5
2C9
  8
DETAIL
  6
CONTINUOUS
 62
     5
 10
-49.904530000000001
 20
89.913334000000006
 30
0.0
 11
-49.907927000000001
 21
89.926306000000011
 31
0.0
  0
LINE
  5
2CA
  8
DETAIL
  6
CONTINUOUS
 62
     5
 10
-49.907927000000001
 20
89.926306000000011
 30
0.0
 11
-49.911254
 21
89.957652999999993
 31
0.0
  0
LINE
  5
2CB
  8
DETAIL
  6
CONTINUOUS
 62
     5
 10
-49.911254
 20
89.957652999999993
 30
0.0
 11
-49.914528000000011
 21
90.007653000000005
 31
0.0
  0
LINE
  5
2CC
  8
DETAIL
  6
CONTINUOUS
 62
     5
 10
-49.914528000000011
 20
90.007653000000005
 30
0.0
 11
-49.917703000000003
 21
90.075473000000002
 31
0.0
  0
LINE
  5
2CD
  8
DETAIL
  6
CONTINUOUS
 62
     5
 10
-49.917703000000003
 20
90.075473000000002
 30
0.0
 11
-49.920746000000001
 21
90.160720999999995
 31
0.0
  0
LINE
  5
2CE
  8
DETAIL
  6
CONTINUOUS
 62
     5
 10
-49.920746000000001
 20
90.160720999999995
 30
0.0
 11
-49.923633000000002
 21
90.262356999999994
 31
0.0
  0
LINE
  5
2CF
  8
DETAIL
  6
CONTINUOUS
 62
     5
 10
-49.923633000000002
 20
90.262356999999994
 30
0.0
 11
-49.928821999999997
 21
90.813881000000009
 31
0.0
  0
LINE
  5
2D0
  8
DETAIL
  6
CONTINUOUS
 62
     5
 10
-52.991196000000002
 20
92.302909999999983
 30
0.0
 11
-52.991196000000002
 21
89.965090000000004
 31
0.0
  0
LINE
  5
2D1
  8
DETAIL
  6
CONTINUOUS
 62
     5
 10
-49.933075000000002
 20
91.115471999999997
 30
0.0
 11
-49.934173000000001
 21
91.250240000000005
 31
0.0
  0
LINE
  5
2D2
  8
DETAIL
  6
CONTINUOUS
 62
     5
 10
-49.928821999999997
 20
90.813881000000009
 30
0.0
 11
-49.933075000000002
 21
91.115471999999997
 31
0.0
  0
LINE
  5
2D3
  8
DETAIL
  6
CONTINUOUS
 62
     5
 10
-52.819203000000002
 20
89.927412000000004
 30
0.0
 11
-52.71367399999999
 21
89.922948000000005
 31
0.0
  0
LINE
  5
2D4
  8
DETAIL
  6
CONTINUOUS
 62
     5
 10
-52.71367399999999
 20
89.922948000000005
 30
0.0
 11
-52.439480000000003
 21
89.913332999999994
 31
0.0
  0
LINE
  5
2D5
  8
DETAIL
  6
CONTINUOUS
 62
     5
 10
-49.904530000000001
 20
89.913334000000006
 30
0.0
 11
-52.439480000000003
 21
89.913332999999994
 31
0.0
  0
LINE
  5
2D6
  8
DETAIL
  6
CONTINUOUS
 62
     5
 10
-50.991501
 20
94.302605000000014
 30
0.0
 11
-51.187544000000003
 21
94.292974999999998
 31
0.0
  0
LINE
  5
2D7
  8
DETAIL
  6
CONTINUOUS
 62
     5
 10
-51.187544000000003
 20
94.292974999999998
 30
0.0
 11
-51.381686000000002
 21
94.264178999999999
 31
0.0
  0
LINE
  5
2D8
  8
DETAIL
  6
CONTINUOUS
 62
     5
 10
-51.381686000000002
 20
94.264178999999999
 30
0.0
 11
-51.572057000000001
 21
94.216496000000006
 31
0.0
  0
LINE
  5
2D9
  8
DETAIL
  6
CONTINUOUS
 62
     5
 10
-51.572057000000001
 20
94.216496000000006
 30
0.0
 11
-51.756828999999989
 21
94.150386999999995
 31
0.0
  0
LINE
  5
2DA
  8
DETAIL
  6
CONTINUOUS
 62
     5
 10
-51.756828999999989
 20
94.150386999999995
 30
0.0
 11
-51.934224
 21
94.066488000000007
 31
0.0
  0
LINE
  5
2DB
  8
DETAIL
  6
CONTINUOUS
 62
     5
 10
-51.934224
 20
94.066488000000007
 30
0.0
 11
-52.102536000000001
 21
93.965607999999989
 31
0.0
  0
LINE
  5
2DC
  8
DETAIL
  6
CONTINUOUS
 62
     5
 10
-52.102536000000001
 20
93.965607999999989
 30
0.0
 11
-52.260145000000001
 21
93.848718999999974
 31
0.0
  0
LINE
  5
2DD
  8
DETAIL
  6
CONTINUOUS
 62
     5
 10
-52.260145000000001
 20
93.848718999999974
 30
0.0
 11
-52.405535999999998
 21
93.716944999999996
 31
0.0
  0
LINE
  5
2DE
  8
DETAIL
  6
CONTINUOUS
 62
     5
 10
-52.405535999999998
 20
93.716944999999996
 30
0.0
 11
-52.537309999999998
 21
93.571554000000006
 31
0.0
  0
LINE
  5
2DF
  8
DETAIL
  6
CONTINUOUS
 62
     5
 10
-52.537309999999998
 20
93.571554000000006
 30
0.0
 11
-52.654198999999998
 21
93.413944999999984
 31
0.0
  0
LINE
  5
2E0
  8
DETAIL
  6
CONTINUOUS
 62
     5
 10
-52.654198999999998
 20
93.413944999999984
 30
0.0
 11
-52.755079000000002
 21
93.245632999999984
 31
0.0
  0
LINE
  5
2E1
  8
DETAIL
  6
CONTINUOUS
 62
     5
 10
-52.755079000000002
 20
93.245632999999984
 30
0.0
 11
-52.838977
 21
93.068237999999994
 31
0.0
  0
LINE
  5
2E2
  8
DETAIL
  6
CONTINUOUS
 62
     5
 10
-52.838977
 20
93.068237999999994
 30
0.0
 11
-52.905087000000002
 21
92.88346700000001
 31
0.0
  0
LINE
  5
2E3
  8
DETAIL
  6
CONTINUOUS
 62
     5
 10
-52.905087000000002
 20
92.88346700000001
 30
0.0
 11
-52.952769999999987
 21
92.693095
 31
0.0
  0
LINE
  5
2E4
  8
DETAIL
  6
CONTINUOUS
 62
     5
 10
-52.952769999999987
 20
92.693095
 30
0.0
 11
-52.981566000000001
 21
92.498953
 31
0.0
  0
LINE
  5
2E5
  8
DETAIL
  6
CONTINUOUS
 62
     5
 10
-52.981566000000001
 20
92.498953
 30
0.0
 11
-52.991196000000002
 21
92.302909999999983
 31
0.0
  0
ARC
  5
2E6
  8
DETAIL
  6
CONTINUOUS
 62
     5
 10
-88.714699999999993
 20
88.691119999999984
 30
0.0
 40
1.3
 50
90.0
 51
180.0
  0
LINE
  5
2E7
  8
SIZE
  6
CONTINUOUS
 62
    30
 10
-108.71469999999999
 20
89.991119999999995
 30
0.0
 11
-204.91367299999999
 21
89.991119999999995
 31
0.0
  0
LINE
  5
2E8
  8
SIZE
  6
CONTINUOUS
 62
    30
 10
-65.0
 20
94.991119999999995
 30
0.0
 11
-204.91367299999999
 21
94.991119999999995
 31
0.0
  0
LINE
  5
2E9
  8
SIZE
  6
CONTINUOUS
 62
    30
 10
-184.91367299999999
 20
77.991119999999995
 30
0.0
 11
-184.91367299999999
 21
65.991119999999995
 31
0.0
  0
LINE
  5
2EA
  8
SIZE
  6
CONTINUOUS
 62
    30
 10
-184.91367299999999
 20
106.99112
 30
0.0
 11
-184.91367299999999
 21
118.99112
 31
0.0
  0
LINE
  5
2EB
  8
SIZE
  6
CONTINUOUS
 62
    30
 10
-184.91367299999999
 20
89.991119999999995
 30
0.0
 11
-184.91367299999999
 21
94.991119999999995
 31
0.0
  0
CIRCLE
  5
2EC
  8
SIZE
  6
CONTINUOUS
 62
    30
 10
-184.91367299999999
 20
89.991119999999995
 30
0.0
 40
6.0
  0
LINE
  5
2ED
  8
SIZE
  6
CONTINUOUS
 62
    30
 10
-184.91367299999999
 20
89.991119999999995
 30
0.0
 11
-184.91367299999999
 21
77.991119999999995
 31
0.0
  0
CIRCLE
  5
2EE
  8
SIZE
  6
CONTINUOUS
 62
    30
 10
-184.91367299999999
 20
94.991119999999995
 30
0.0
 40
6.0
  0
LINE
  5
2EF
  8
SIZE
  6
CONTINUOUS
 62
    30
 10
-184.91367299999999
 20
94.991119999999995
 30
0.0
 11
-184.91367299999999
 21
106.99112
 31
0.0
  0
TEXT
  5
2F0
  8
SIZE
  6
CONTINUOUS
 62
    30
 10
-209.91367299999999
 20
73.291120000000006
 30
0.0
 40
64.0
  1
5
 50
90.0
 41
0.9
 72
     1
 11
-209.91367299999999
 21
92.491119999999995
 31
0.0
  0
POINT
  5
2F1
  8
DEFPOINTS
  6
CONTINUOUS
 62
    30
 10
-88.714699999999993
 20
89.991119999999995
 30
0.0
  0
POINT
  5
2F2
  8
DEFPOINTS
  6
CONTINUOUS
 62
    30
 10
-45.0
 20
94.991119999999995
 30
0.0
  0
POINT
  5
2F3
  8
DEFPOINTS
  6
CONTINUOUS
 62
    30
 10
-184.91367299999999
 20
94.991119999999995
 30
0.0
  0
LINE
  5
2F4
  8
OUTLINE
  6
CONTINUOUS
 62
     3
 10
90.014700000000005
 20
88.691119999999984
 30
0.0
 11
90.014700000000005
 21
-78.522880000000001
 31
0.0
  0
ARC
  5
2F5
  8
OUTLINE
  6
CONTINUOUS
 62
     3
 10
88.714699999999993
 20
-88.708879999999994
 30
0.0
 40
1.3
 50
270.0
 51
0.0
  0
LINE
  5
2F6
  8
OUTLINE
  6
CONTINUOUS
 62
     3
 10
88.714699999999993
 20
-90.008880000000005
 30
0.0
 11
11.513325999999999
 21
-90.008880000000005
 31
0.0
  0
LINE
  5
2F7
  8
OUTLINE
  6
CONTINUOUS
 62
     3
 10
0.0
 20
-90.008880000000005
 30
0.0
 11
88.505743999999993
 21
-90.008880000000005
 31
0.0
  0
LINE
  5
2F8
  8
OUTLINE
  6
CONTINUOUS
 62
     3
 10
90.014700000000005
 20
-78.457277000000005
 30
0.0
 11
90.014700000000005
 21
-88.708879999999994
 31
0.0
  0
LINE
  5
2F9
  8
OUTLINE
  6
CONTINUOUS
 62
     3
 10
52.991196000000002
 20
89.991119999999995
 30
0.0
 11
88.714699999999993
 21
89.991119999999995
 31
0.0
  0
ARC
  5
2FA
  8
OUTLINE
  6
CONTINUOUS
 62
     3
 10
88.714699999999993
 20
88.691119999999984
 30
0.0
 40
1.3
 50
0.0
 51
90.0
  0
LINE
  5
2FB
  8
OUTLINE
  6
CONTINUOUS
 62
     3
 10
-90.014700000000005
 20
88.691119999999984
 30
0.0
 11
-90.014700000000005
 21
-78.522880000000001
 31
0.0
  0
ARC
  5
2FC
  8
OUTLINE
  6
CONTINUOUS
 62
     3
 10
-88.714699999999993
 20
-88.708879999999994
 30
0.0
 40
1.3
 50
180.0
 51
270.0
  0
LINE
  5
2FD
  8
OUTLINE
  6
CONTINUOUS
 62
     3
 10
-88.714699999999993
 20
-90.008880000000005
 30
0.0
 11
-11.513325999999999
 21
-90.008880000000005
 31
0.0
  0
LINE
  5
2FE
  8
OUTLINE
  6
CONTINUOUS
 62
     3
 10
0.0
 20
-90.008880000000005
 30
0.0
 11
-88.505743999999993
 21
-90.008880000000005
 31
0.0
  0
LINE
  5
2FF
  8
OUTLINE
  6
CONTINUOUS
 62
     3
 10
-90.014700000000005
 20
-78.457277000000005
 30
0.0
 11
-90.014700000000005
 21
-88.708879999999994
 31
0.0
  0
LINE
  5
300
  8
OUTLINE
  6
CONTINUOUS
 62
     3
 10
52.991196000000002
 20
89.991119999999995
 30
0.0
 11
-88.714699999999993
 21
89.991119999999995
 31
0.0
  0
ARC
  5
301
  8
OUTLINE
  6
CONTINUOUS
 62
     3
 10
-88.714699999999993
 20
88.691119999999984
 30
0.0
 40
1.3
 50
90.0
 51
180.0
  0
LINE
  5
302
  8
SIZE
  6
CONTINUOUS
 62
    30
 10
-90.000004000000004
 20
-108.903802
 30
0.0
 11
-90.000004000000004
 21
-324.12028800000002
 31
0.0
  0
LINE
  5
303
  8
SIZE
  6
CONTINUOUS
 62
    30
 10
89.999995999999996
 20
-108.903852
 30
0.0
 11
89.999995999999996
 21
-324.12028800000002
 31
0.0
  0
LINE
  5
304
  8
SIZE
  6
CONTINUOUS
 62
    30
 10
77.999995999999996
 20
-304.12028800000002
 30
0.0
 11
-78.000004000000004
 21
-304.12028800000002
 31
0.0
  0
LINE
  5
305
  8
SIZE
  6
CONTINUOUS
 62
    30
 10
-90.000004000000004
 20
-304.12028800000002
 30
0.0
 11
-354.42286100000001
 21
-304.12028800000002
 31
0.0
  0
CIRCLE
  5
306
  8
SIZE
  6
CONTINUOUS
 62
    30
 10
89.999995999999996
 20
-304.12028800000002
 30
0.0
 40
6.0
  0
LINE
  5
307
  8
SIZE
  6
CONTINUOUS
 62
    30
 10
89.999995999999996
 20
-304.12028800000002
 30
0.0
 11
77.999995999999996
 21
-304.12028800000002
 31
0.0
  0
CIRCLE
  5
308
  8
SIZE
  6
CONTINUOUS
 62
    30
 10
-90.000004000000004
 20
-304.12028800000002
 30
0.0
 40
6.0
  0
LINE
  5
309
  8
SIZE
  6
CONTINUOUS
 62
    30
 10
-90.000004000000004
 20
-304.12028800000002
 30
0.0
 11
-78.000004000000004
 21
-304.12028800000002
 31
0.0
  0
TEXT
  5
30A
  8
SIZE
  6
CONTINUOUS
 62
    30
 10
-333.26286057142852
 20
-279.12028800000002
 30
0.0
 40
64.0
  1
□180
 41
0.9
 72
     1
 11
-228.211432
 21
-279.12028800000002
 31
0.0
  0
POINT
  5
30B
  8
DEFPOINTS
  6
CONTINUOUS
 62
    30
 10
-90.000004000000004
 20
-88.903801999999999
 30
0.0
  0
POINT
  5
30C
  8
DEFPOINTS
  6
CONTINUOUS
 62
    30
 10
89.999995999999996
 20
-88.903852000000001
 30
0.0
  0
POINT
  5
30D
  8
DEFPOINTS
  6
CONTINUOUS
 62
    30
 10
89.999995999999996
 20
-304.12028800000002
 30
0.0
  0
LINE
  5
30E
  8
SIZE
  6
CONTINUOUS
 62
    30
 10
-20.0
 20
-97.008880000000005
 30
0.0
 11
-203.55909500000001
 21
-97.008880000000005
 31
0.0
  0
LINE
  5
30F
  8
SIZE
  6
CONTINUOUS
 62
    30
 10
-108.50574400000001
 20
-90.008880000000005
 30
0.0
 11
-203.55909500000001
 21
-90.008880000000005
 31
0.0
  0
LINE
  5
310
  8
SIZE
  6
CONTINUOUS
 62
    30
 10
-183.55909500000001
 20
-109.00888
 30
0.0
 11
-183.55909500000001
 21
-121.00888
 31
0.0
  0
LINE
  5
311
  8
SIZE
  6
CONTINUOUS
 62
    30
 10
-183.55909500000001
 20
-78.008880000000005
 30
0.0
 11
-183.55909500000001
 21
-66.008880000000005
 31
0.0
  0
LINE
  5
312
  8
SIZE
  6
CONTINUOUS
 62
    30
 10
-183.55909500000001
 20
-97.008880000000005
 30
0.0
 11
-183.55909500000001
 21
-90.008880000000005
 31
0.0
  0
CIRCLE
  5
313
  8
SIZE
  6
CONTINUOUS
 62
    30
 10
-183.55909500000001
 20
-97.008880000000005
 30
0.0
 40
6.0
  0
LINE
  5
314
  8
SIZE
  6
CONTINUOUS
 62
    30
 10
-183.55909500000001
 20
-97.008880000000005
 30
0.0
 11
-183.55909500000001
 21
-109.00888
 31
0.0
  0
CIRCLE
  5
315
  8
SIZE
  6
CONTINUOUS
 62
    30
 10
-183.55909500000001
 20
-90.008880000000005
 30
0.0
 40
6.0
  0
LINE
  5
316
  8
SIZE
  6
CONTINUOUS
 62
    30
 10
-183.55909500000001
 20
-90.008880000000005
 30
0.0
 11
-183.55909500000001
 21
-78.008880000000005
 31
0.0
  0
TEXT
  5
317
  8
SIZE
  6
CONTINUOUS
 62
    30
 10
-208.55909500000001
 20
-112.70887999999999
 30
0.0
 40
64.0
  1
7
 50
90.0
 41
0.9
 72
     1
 11
-208.55909500000001
 21
-93.508880000000005
 31
0.0
  0
POINT
  5
318
  8
DEFPOINTS
  6
CONTINUOUS
 62
    30
 10
0.0
 20
-97.008880000000005
 30
0.0
  0
POINT
  5
319
  8
DEFPOINTS
  6
CONTINUOUS
 62
    30
 10
-88.505743999999993
 20
-90.008880000000005
 30
0.0
  0
POINT
  5
31A
  8
DEFPOINTS
  6
CONTINUOUS
 62
    30
 10
-183.55909500000001
 20
-90.008880000000005
 30
0.0
  0
TEXT
  5
345
  8
ETC
  6
CONTINUOUS
 62
    61
 10
241.1544081208325
 20
200.61800709061271
 30
0.0
 40
40.0
  1
V-08PQF3
 41
0.9
  0
TEXT
  5
346
  8
ETC
  6
CONTINUOUS
 62
    61
 10
241.1544081208325
 20
137.53887509061269
 30
0.0
 40
40.0
  1
V-08PQF3-BE
 41
0.9
  0
TEXT
  5
347
  8
ETC
  6
CONTINUOUS
 62
    61
 10
241.1544081208325
 20
73.940907969085572
 30
0.0
 40
40.0
  1
V-08PQF3-CK
 41
0.9
  0
TEXT
  5
348
  8
ETC
  6
CONTINUOUS
 62
    61
 10
241.1544081208325
 20
10.86177596908561
 30
0.0
 40
40.0
  1
V-08PQF3-T
 41
0.9
  0
TEXT
  5
349
  8
ETC
  6
CONTINUOUS
 62
    61
 10
241.1544081208325
 20
-51.57289332528439
 30
0.0
 40
40.0
  1
V-08PQF3-BE-T
 41
0.9
  0
ENDSEC
  0
EOF
