  0
SECTION
  2
HEADER
  9
$ACADVER
  1
AC1009
  9
$INSBASE
 10
0.0
 20
0.0
 30
0.0
  9
$EXTMIN
 10
-390.46788600000002
 20
-377.34008599999999
 30
0.0
  9
$EXTMAX
 10
965.28094646856437
 20
692.34104700000023
 30
50.0
  9
$LIMMIN
 10
-2970.0
 20
-2100.0
  9
$LIMMAX
 10
2970.0
 20
2100.0
  9
$ORTHOMODE
 70
     0
  9
$REGENMODE
 70
     1
  9
$FILLMODE
 70
     1
  9
$QTEXTMODE
 70
     0
  9
$MIRRTEXT
 70
     0
  9
$DRAGMODE
 70
     2
  9
$LTSCALE
 40
5.0
  9
$OSMODE
 70
    37
  9
$ATTMODE
 70
     1
  9
$TEXTSIZE
 40
64.0
  9
$TRACEWID
 40
0.05
  9
$TEXTSTYLE
  7
STANDARD
  9
$CLAYER
  8
SIZE
  9
$CELTYPE
  6
CONTINUOUS
  9
$CECOLOR
 62
     7
  9
$DIMSCALE
 40
1.0
  9
$DIMASZ
 40
12.0
  9
$DIMEXO
 40
20.0
  9
$DIMDLI
 40
200.0
  9
$DIMRND
 40
0.0
  9
$DIMDLE
 40
0.0
  9
$DIMEXE
 40
20.0
  9
$DIMTP
 40
0.0
  9
$DIMTM
 40
0.0
  9
$DIMTXT
 40
64.0
  9
$DIMCEN
 40
0.09
  9
$DIMTSZ
 40
0.0
  9
$DIMTOL
 70
     0
  9
$DIMLIM
 70
     0
  9
$DIMTIH
 70
     0
  9
$DIMTOH
 70
     0
  9
$DIMSE1
 70
     0
  9
$DIMSE2
 70
     0
  9
$DIMTAD
 70
     1
  9
$DIMZIN
 70
     8
  9
$DIMBLK
  1
DOT1
  9
$DIMASO
 70
     1
  9
$DIMSHO
 70
     0
  9
$DIMPOST
  1

  9
$DIMAPOST
  1

  9
$DIMALT
 70
     0
  9
$DIMALTD
 70
     2
  9
$DIMALTF
 40
25.399999999999999
  9
$DIMLFAC
 40
1.0
  9
$DIMTOFL
 70
     1
  9
$DIMTVP
 40
0.0
  9
$DIMTIX
 70
     1
  9
$DIMSOXD
 70
     0
  9
$DIMSAH
 70
     1
  9
$DIMBLK1
  1
ORIGIN
  9
$DIMBLK2
  1
ORIGIN
  9
$DIMSTYLE
  2
STANDARD
  9
$DIMCLRD
 70
     7
  9
$DIMCLRE
 70
     7
  9
$DIMCLRT
 70
     7
  9
$DIMTFAC
 40
1.0
  9
$DIMGAP
 40
25.0
  9
$LUNITS
 70
     2
  9
$LUPREC
 70
     4
  9
$SKETCHINC
 40
0.1
  9
$FILLETRAD
 40
3.0
  9
$AUNITS
 70
     1
  9
$AUPREC
 70
     3
  9
$MENU
  1
ACAD
  9
$ELEVATION
 40
0.0
  9
$PELEVATION
 40
0.0
  9
$THICKNESS
 40
50.0
  9
$LIMCHECK
 70
     0
  9
$BLIPMODE
 70
     0
  9
$CHAMFERA
 40
0.0
  9
$CHAMFERB
 40
0.0
  9
$SKPOLY
 70
     0
  9
$TDCREATE
 40
2453019.6230103709
  9
$TDUPDATE
 40
2454921.6332428008
  9
$TDINDWG
 40
1.8962070369999999
  9
$TDUSRTIMER
 40
1.8961998032
  9
$USRTIMER
 70
     1
  9
$ANGBASE
 50
0.0
  9
$ANGDIR
 70
     0
  9
$PDMODE
 70
     3
  9
$PDSIZE
 40
-2.0
  9
$PLINEWID
 40
0.0
  9
$COORDS
 70
     0
  9
$SPLFRAME
 70
     0
  9
$SPLINETYPE
 70
     6
  9
$SPLINESEGS
 70
     8
  9
$ATTDIA
 70
     0
  9
$ATTREQ
 70
     1
  9
$HANDLING
 70
     1
  9
$HANDSEED
  5
47C
  9
$SURFTAB1
 70
     6
  9
$SURFTAB2
 70
     6
  9
$SURFTYPE
 70
     6
  9
$SURFU
 70
     6
  9
$SURFV
 70
     6
  9
$UCSNAME
  2

  9
$UCSORG
 10
0.0
 20
0.0
 30
0.0
  9
$UCSXDIR
 10
1.0
 20
0.0
 30
0.0
  9
$UCSYDIR
 10
0.0
 20
1.0
 30
0.0
  9
$PUCSNAME
  2

  9
$PUCSORG
 10
0.0
 20
0.0
 30
0.0
  9
$PUCSXDIR
 10
1.0
 20
0.0
 30
0.0
  9
$PUCSYDIR
 10
0.0
 20
1.0
 30
0.0
  9
$USERI1
 70
     0
  9
$USERI2
 70
     0
  9
$USERI3
 70
     0
  9
$USERI4
 70
     0
  9
$USERI5
 70
     0
  9
$USERR1
 40
20.0
  9
$USERR2
 40
0.0
  9
$USERR3
 40
0.0
  9
$USERR4
 40
0.0
  9
$USERR5
 40
0.0
  9
$WORLDVIEW
 70
     1
  9
$SHADEDGE
 70
     3
  9
$SHADEDIF
 70
    70
  9
$TILEMODE
 70
     1
  9
$MAXACTVP
 70
    48
  9
$PLIMCHECK
 70
     0
  9
$PEXTMIN
 10
-1.0000000000000000E+020
 20
-1.0000000000000000E+020
 30
-1.0000000000000000E+020
  9
$PEXTMAX
 10
1.0000000000000000E+020
 20
1.0000000000000000E+020
 30
1.0000000000000000E+020
  9
$PLIMMIN
 10
0.0
 20
0.0
  9
$PLIMMAX
 10
12.0
 20
9.0
  9
$UNITMODE
 70
     0
  9
$VISRETAIN
 70
     0
  9
$PLINEGEN
 70
     0
  9
$PSLTSCALE
 70
     0
  0
ENDSEC
  0
SECTION
  2
TABLES
  0
TABLE
  2
VPORT
 70
     1
  0
VPORT
  2
*ACTIVE
 70
     0
 10
0.0
 20
0.0
 11
1.0
 21
1.0
 12
320.42623476814401
 22
121.3628046770128
 13
0.0
 23
0.0
 14
1.0
 24
1.0
 15
0.0
 25
0.0
 16
0.0
 26
0.0
 36
1.0
 17
0.0
 27
0.0
 37
0.0
 40
1211.9992716064451
 41
1.3098995695839311
 42
50.0
 43
0.0
 44
0.0
 50
0.0
 51
0.0
 71
     0
 72
  1000
 73
     1
 74
     0
 75
     0
 76
     0
 77
     0
 78
     0
  0
ENDTAB
  0
TABLE
  2
LTYPE
 70
     3
  0
LTYPE
  2
CONTINUOUS
 70
     0
  3
実線
 72
    65
 73
     0
 40
0.0
  0
LTYPE
  2
DASHDOT
 70
     0
  3
____ _ ____ _ ____ _ ____ _ ____ _ ____ _ ____
 72
    65
 73
     4
 40
5.5
 49
4.0
 49
-0.6
 49
0.3
 49
-0.6
  0
LTYPE
  2
DASHED
 70
     0
  3
-- -- -- -- -- -- -- -- -- -- -- -- -- -- --
 72
    65
 73
     2
 40
0.75
 49
0.5
 49
-0.25
  0
ENDTAB
  0
TABLE
  2
LAYER
 70
     9
  0
LAYER
  2
0
 70
     0
 62
     7
  6
CONTINUOUS
  0
LAYER
  2
SIZE
 70
     0
 62
    30
  6
CONTINUOUS
  0
LAYER
  2
BASIS
 70
     0
 62
     6
  6
DASHDOT
  0
LAYER
  2
OUTLINE
 70
     0
 62
     3
  6
CONTINUOUS
  0
LAYER
  2
DETAIL
 70
     0
 62
     5
  6
CONTINUOUS
  0
LAYER
  2
ARRANGE
 70
     0
 62
     1
  6
CONTINUOUS
  0
LAYER
  2
DEFPOINTS
 70
     0
 62
     7
  6
CONTINUOUS
  0
LAYER
  2
ETC
 70
     0
 62
    61
  6
CONTINUOUS
  0
LAYER
  2
NOTE
 70
     0
 62
     4
  6
CONTINUOUS
  0
ENDTAB
  0
TABLE
  2
STYLE
 70
     2
  0
STYLE
  2
STANDARD
 70
     0
 40
64.0
 41
0.9
 50
0.0
 71
     0
 42
64.0
  3
SIMPLEX.shx
  4
BIGFONT.shx
  0
STYLE
  2
ANNOTATIVE
 70
     0
 40
0.0
 41
1.0
 50
0.0
 71
     0
 42
0.2
  3
txt
  4

  0
ENDTAB
  0
TABLE
  2
VIEW
 70
     1
  0
VIEW
  2
ALL
 70
     0
 40
4282.6198079999986
 10
0.0
 20
41.309903999999989
 41
5940.0
 11
0.0
 21
0.0
 31
1.0
 12
0.0
 22
0.0
 32
0.0
 42
50.0
 43
0.0
 44
0.0
 50
0.0
 71
     0
  0
ENDTAB
  0
TABLE
  2
UCS
 70
     0
  0
ENDTAB
  0
TABLE
  2
APPID
 70
    17
  0
APPID
  2
ACAD
 70
     0
  0
APPID
  2
ACADANNOTATIVE
 70
     0
  0
APPID
  2
ACAD_MLEADERVER
 70
     0
  0
APPID
  2
AUTOCAD_POSTSCRIPT_FIGURE
 70
     0
  0
APPID
  2
ACAD_EXEMPT_FROM_CAD_STANDARDS
 70
     0
  0
APPID
  2
ACAD_PSEXT
 70
     0
  0
APPID
  2
ACAUTHENVIRON
 70
     0
  0
APPID
  2
GENIUS_GENOENT_13
 70
     0
  0
APPID
  2
GENIUS_GENCFG_13
 70
     0
  0
APPID
  2
GENIUS_GENCFG0_13
 70
     0
  0
APPID
  2
GENIUS_GENCFG1_13
 70
     0
  0
APPID
  2
GENIUS_GENCFG2_13
 70
     0
  0
APPID
  2
GENIUS_GENCFG3_13
 70
     0
  0
APPID
  2
GENIUS_GENCFG4_13
 70
     0
  0
APPID
  2
GENIUS_GEVCFG0_13
 70
     0
  0
APPID
  2
CONTENTBLOCKDESCRIPTION
 70
     0
  0
APPID
  2
CONTENTBLOCKICON
 70
     0
  0
ENDTAB
  0
TABLE
  2
DIMSTYLE
 70
     2
  0
DIMSTYLE
  2
STANDARD
 70
     0
  3

  4

  5

  6

  7

 40
1.0
 41
0.18
 42
0.0625
 43
0.38
 44
0.18
 45
0.0
 46
0.0
 47
0.0
 48
0.0
140
0.18
141
0.09
142
0.0
143
25.399999999999999
144
1.0
145
0.0
146
1.0
147
0.09
 71
     0
 72
     0
 73
     1
 74
     1
 75
     0
 76
     0
 77
     0
 78
     0
170
     0
171
     2
172
     0
173
     0
174
     0
175
     0
176
     7
177
     7
178
     7
  0
DIMSTYLE
  2
ANNOTATIVE
 70
     0
  3

  4

  5

  6

  7

 40
1.0
 41
0.18
 42
0.0625
 43
0.38
 44
0.18
 45
0.0
 46
0.0
 47
0.0
 48
0.0
140
0.18
141
0.09
142
0.0
143
25.399999999999999
144
1.0
145
0.0
146
1.0
147
0.09
 71
     0
 72
     0
 73
     1
 74
     1
 75
     0
 76
     0
 77
     0
 78
     0
170
     0
171
     2
172
     0
173
     0
174
     0
175
     0
176
     0
177
     0
178
     0
  0
ENDTAB
  0
ENDSEC
  0
SECTION
  2
BLOCKS
  0
BLOCK
  8
0
  2
$MODEL_SPACE
 70
     0
 10
0.0
 20
0.0
 30
0.0
  3
$MODEL_SPACE
  1

  0
ENDBLK
  5
76
  8
0
  0
BLOCK
 67
     1
  8
0
  2
$PAPER_SPACE
 70
     0
 10
0.0
 20
0.0
 30
0.0
  3
$PAPER_SPACE
  1

  0
ENDBLK
  5
72
 67
     1
  8
0
  0
BLOCK
  8
0
  2
DOT1
 70
     0
 10
0.0
 20
0.0
 30
0.0
  3
DOT1
  1

  0
CIRCLE
  5
97
  8
SIZE
  6
CONTINUOUS
 62
     7
 10
0.0
 20
0.0
 30
0.0
 40
3.0
  0
ENDBLK
  5
98
  8
0
  0
BLOCK
  8
0
  2
_ORIGIN
 70
     0
 10
0.0
 20
0.0
 30
0.0
  3
_ORIGIN
  1

  0
CIRCLE
  5
9B
  8
0
  6
CONTINUOUS
 62
     7
 10
0.0
 20
0.0
 30
0.0
 40
0.5
  0
LINE
  5
9C
  8
0
  6
CONTINUOUS
 62
     7
 10
0.0
 20
0.0
 30
0.0
 11
-1.0
 21
0.0
 31
0.0
  0
ENDBLK
  5
9D
  8
0
  0
ENDSEC
  0
SECTION
  2
ENTITIES
  0
POINT
  5
9E
  8
ARRANGE
  6
CONTINUOUS
 62
     1
 10
0.0
 20
0.0
 30
0.0
 39
49.999109999999988
  0
CIRCLE
  5
9F
  8
ARRANGE
  6
CONTINUOUS
 62
     1
 39
24.999555000000001
 10
0.0
 20
0.0
 30
0.0
 40
19.999644
  0
LINE
  5
A0
  8
BASIS
  6
DASHDOT
 62
     6
 39
49.999109999999988
 10
-0.000004
 20
-123.185356
 30
0.0
 11
0.0
 21
120.19748300000001
 31
0.0
  0
TEXT
  5
A1
  8
ETC
  6
CONTINUOUS
 62
    61
 10
442.0697346645598
 20
647.40068813501114
 30
0.0
 40
40.0
  1
V-08PQF3_4
 41
0.9
  0
TEXT
  5
A2
  8
ETC
  6
CONTINUOUS
 62
    61
 10
436.64388966455988
 20
587.33057213501115
 30
0.0
 40
40.0
  1
換気扇
 41
0.9
  0
LINE
  5
A4
  8
BASIS
  6
DASHDOT
 62
     6
 39
49.999109999999988
 10
106.08331099999999
 20
0.000001
 30
0.0
 11
-106.583313
 21
-0.000001
 31
0.0
  0
LINE
  5
A6
  8
DETAIL
  6
CONTINUOUS
 62
     5
 10
-53.0
 20
-70.141680000000008
 30
0.0
 11
-53.0
 21
77.733113000000003
 31
0.0
  0
LINE
  5
A7
  8
DETAIL
  6
CONTINUOUS
 62
     5
 10
-57.5
 20
-90.0
 30
0.0
 11
-57.5
 21
90.0
 31
0.0
  0
LINE
  5
A8
  8
DETAIL
  6
CONTINUOUS
 62
     5
 10
-57.0
 20
90.0
 30
0.0
 11
-57.0
 21
-90.0
 31
0.0
  0
LINE
  5
A9
  8
DETAIL
  6
CONTINUOUS
 62
     5
 10
-55.784810999999998
 20
88.695401000000004
 30
0.0
 11
-55.784810999999998
 21
-88.695401000000004
 31
0.0
  0
LINE
  5
AA
  8
DETAIL
  6
CONTINUOUS
 62
     5
 10
-62.804473999999992
 20
0.000138
 30
0.0
 11
-62.724803999999999
 21
-17.788864
 31
0.0
  0
ARC
  5
AB
  8
DETAIL
  6
CONTINUOUS
 62
     5
 10
1957.999998
 20
0.0
 30
0.0
 40
2026.0
 50
177.49152100000001
 51
182.50847899999999
  0
LINE
  5
AC
  8
DETAIL
  6
CONTINUOUS
 62
     5
 10
-42.213962000000002
 20
-69.781295999999983
 30
0.0
 11
-42.214100999999992
 21
77.047372999999993
 31
0.0
  0
LINE
  5
AD
  8
DETAIL
  6
CONTINUOUS
 62
     5
 10
-43.0
 20
-69.807558999999998
 30
0.0
 11
-43.0
 21
76.882671000000002
 31
0.0
  0
LINE
  5
AE
  8
DETAIL
  6
CONTINUOUS
 62
     5
 10
-37.20000000000001
 20
-5.7000000000000002
 30
0.0
 11
-37.20000000000001
 21
12.699999999999999
 31
0.0
  0
LINE
  5
AF
  8
DETAIL
  6
CONTINUOUS
 62
     5
 10
-38.799999999999997
 20
12.699999999999999
 30
0.0
 11
-38.799999999999997
 21
-5.7000000000000002
 31
0.0
  0
LINE
  5
B0
  8
DETAIL
  6
CONTINUOUS
 62
     5
 10
-25.0
 20
89.072275000000005
 30
0.0
 11
-25.0
 21
-69.204798999999994
 31
0.0
  0
LINE
  5
B1
  8
DETAIL
  6
CONTINUOUS
 62
     5
 10
0.0
 20
-89.500000000000014
 30
0.0
 11
0.0
 21
93.004134999999991
 31
0.0
  0
ARC
  5
B2
  8
DETAIL
  6
CONTINUOUS
 62
     5
 10
-65.059556999999998
 20
-88.628651999999988
 30
0.0
 40
1.0
 50
182.50847899999999
 51
267.0
  0
LINE
  5
B3
  8
DETAIL
  6
CONTINUOUS
 62
     5
 10
-55.780929
 20
-88.782228000000003
 30
0.0
 11
-55.777949999999997
 21
-88.809878999999995
 31
0.0
  0
LINE
  5
B4
  8
DETAIL
  6
CONTINUOUS
 62
     5
 10
-61.529870999999993
 20
-71.141599999999997
 30
0.0
 11
-60.813020999999999
 21
-88.916403000000003
 31
0.0
  0
LINE
  5
B5
  8
DETAIL
  6
CONTINUOUS
 62
     5
 10
-53.0
 20
-82.0
 30
0.0
 11
-53.0
 21
-88.947481999999994
 31
0.0
  0
LINE
  5
B6
  8
DETAIL
  6
CONTINUOUS
 62
     5
 10
-50.5
 20
-82.0
 30
0.0
 11
-50.5
 21
-89.0
 31
0.0
  0
ARC
  5
B7
  8
DETAIL
  6
CONTINUOUS
 62
     5
 10
-49.113534000000001
 20
-88.499993000000003
 30
0.0
 40
0.5
 50
270.0
 51
358.99923999999999
  0
LINE
  5
B8
  8
DETAIL
  6
CONTINUOUS
 62
     5
 10
-24.851479999999999
 20
-89.508725999999996
 30
0.0
 11
-24.999673000000001
 21
-81.018743000000001
 31
0.0
  0
LINE
  5
B9
  8
DETAIL
  6
CONTINUOUS
 62
     5
 10
-24.351555999999999
 20
-90.0
 30
0.0
 11
-0.5
 21
-90.0
 31
0.0
  0
LINE
  5
BA
  8
DETAIL
  6
CONTINUOUS
 62
     5
 10
-53.982548000000001
 20
-89.947330000000008
 30
0.0
 11
-57.0
 21
-90.0
 31
0.0
  0
ARC
  5
BB
  8
DETAIL
  6
CONTINUOUS
 62
     5
 10
-58.5
 20
-90.0
 30
0.0
 40
1.0
 50
174.0
 51
0.0
  0
LINE
  5
BC
  8
DETAIL
  6
CONTINUOUS
 62
     5
 10
-55.703265000000002
 20
-88.992462999999987
 30
0.0
 11
-55.69435099999999
 21
-88.993775999999997
 31
0.0
  0
LINE
  5
BD
  8
DETAIL
  6
CONTINUOUS
 62
     5
 10
-55.71201099999999
 20
-88.988315
 30
0.0
 11
-55.703265000000002
 21
-88.992462999999987
 31
0.0
  0
LINE
  5
BE
  8
DETAIL
  6
CONTINUOUS
 62
     5
 10
-55.720629000000002
 20
-88.981290999999999
 30
0.0
 11
-55.71201099999999
 21
-88.988315
 31
0.0
  0
LINE
  5
BF
  8
DETAIL
  6
CONTINUOUS
 62
     5
 10
-55.728995999999988
 20
-88.971513999999999
 30
0.0
 11
-55.720629000000002
 21
-88.981290999999999
 31
0.0
  0
LINE
  5
C0
  8
DETAIL
  6
CONTINUOUS
 62
     5
 10
-55.737025000000003
 20
-88.959040999999999
 30
0.0
 11
-55.728995999999988
 21
-88.971513999999999
 31
0.0
  0
LINE
  5
C1
  8
DETAIL
  6
CONTINUOUS
 62
     5
 10
-55.744645999999989
 20
-88.944027000000006
 30
0.0
 11
-55.737025000000003
 21
-88.959040999999999
 31
0.0
  0
LINE
  5
C2
  8
DETAIL
  6
CONTINUOUS
 62
     5
 10
-55.751777000000011
 20
-88.926580999999999
 30
0.0
 11
-55.744645999999989
 21
-88.944027000000006
 31
0.0
  0
LINE
  5
C3
  8
DETAIL
  6
CONTINUOUS
 62
     5
 10
-55.758358999999999
 20
-88.906907999999987
 30
0.0
 11
-55.751777000000011
 21
-88.926580999999999
 31
0.0
  0
LINE
  5
C4
  8
DETAIL
  6
CONTINUOUS
 62
     5
 10
-55.764316999999998
 20
-88.885165999999998
 30
0.0
 11
-55.758358999999999
 21
-88.906907999999987
 31
0.0
  0
LINE
  5
C5
  8
DETAIL
  6
CONTINUOUS
 62
     5
 10
-55.769605000000013
 20
-88.861598999999998
 30
0.0
 11
-55.764316999999998
 21
-88.885165999999998
 31
0.0
  0
LINE
  5
C6
  8
DETAIL
  6
CONTINUOUS
 62
     5
 10
-55.774158999999997
 20
-88.836416
 30
0.0
 11
-55.769605000000013
 21
-88.861598999999998
 31
0.0
  0
LINE
  5
C7
  8
DETAIL
  6
CONTINUOUS
 62
     5
 10
-55.777949999999997
 20
-88.809878999999995
 30
0.0
 11
-55.774158999999997
 21
-88.836416
 31
0.0
  0
LINE
  5
C8
  8
DETAIL
  6
CONTINUOUS
 62
     5
 10
-60.214829000000002
 20
-89.834016999999989
 30
0.0
 11
-60.123002
 21
-89.855807999999996
 31
0.0
  0
LINE
  5
C9
  8
DETAIL
  6
CONTINUOUS
 62
     5
 10
-60.303282999999993
 20
-89.802119999999988
 30
0.0
 11
-60.214829000000002
 21
-89.834016999999989
 31
0.0
  0
LINE
  5
CA
  8
DETAIL
  6
CONTINUOUS
 62
     5
 10
-60.387516000000012
 20
-89.760294999999999
 30
0.0
 11
-60.303282999999993
 21
-89.802119999999988
 31
0.0
  0
LINE
  5
CB
  8
DETAIL
  6
CONTINUOUS
 62
     5
 10
-60.466656999999998
 20
-89.708782999999997
 30
0.0
 11
-60.387516000000012
 21
-89.760294999999999
 31
0.0
  0
LINE
  5
CC
  8
DETAIL
  6
CONTINUOUS
 62
     5
 10
-60.539729000000001
 20
-89.648021999999983
 30
0.0
 11
-60.466656999999998
 21
-89.708782999999997
 31
0.0
  0
LINE
  5
CD
  8
DETAIL
  6
CONTINUOUS
 62
     5
 10
-60.605795999999998
 20
-89.578589000000008
 30
0.0
 11
-60.539729000000001
 21
-89.648021999999983
 31
0.0
  0
LINE
  5
CE
  8
DETAIL
  6
CONTINUOUS
 62
     5
 10
-60.664090000000002
 20
-89.501039000000006
 30
0.0
 11
-60.605795999999998
 21
-89.578589000000008
 31
0.0
  0
LINE
  5
CF
  8
DETAIL
  6
CONTINUOUS
 62
     5
 10
-60.713853999999998
 20
-89.415955000000011
 30
0.0
 11
-60.664090000000002
 21
-89.501039000000006
 31
0.0
  0
LINE
  5
D0
  8
DETAIL
  6
CONTINUOUS
 62
     5
 10
-60.754314999999998
 20
-89.324370000000002
 30
0.0
 11
-60.713853999999998
 21
-89.415955000000011
 31
0.0
  0
LINE
  5
D1
  8
DETAIL
  6
CONTINUOUS
 62
     5
 10
-60.784884999999989
 20
-89.227363999999994
 30
0.0
 11
-60.754314999999998
 21
-89.324370000000002
 31
0.0
  0
LINE
  5
D2
  8
DETAIL
  6
CONTINUOUS
 62
     5
 10
-60.805043999999988
 20
-89.126159999999985
 30
0.0
 11
-60.784884999999989
 21
-89.227363999999994
 31
0.0
  0
LINE
  5
D3
  8
DETAIL
  6
CONTINUOUS
 62
     5
 10
-60.814509000000001
 20
-89.022133999999994
 30
0.0
 11
-60.805043999999988
 21
-89.126159999999985
 31
0.0
  0
LINE
  5
D4
  8
DETAIL
  6
CONTINUOUS
 62
     5
 10
-60.813020999999999
 20
-88.916403000000003
 30
0.0
 11
-60.814509000000001
 21
-89.022133999999994
 31
0.0
  0
LINE
  5
D5
  8
DETAIL
  6
CONTINUOUS
 62
     5
 10
-55.700086999999989
 20
-89.104552999999996
 30
0.0
 11
-55.69435099999999
 21
-88.993775999999997
 31
0.0
  0
LINE
  5
D6
  8
DETAIL
  6
CONTINUOUS
 62
     5
 10
-55.717542000000002
 20
-89.213965999999985
 30
0.0
 11
-55.700086999999989
 21
-89.104552999999996
 31
0.0
  0
LINE
  5
D7
  8
DETAIL
  6
CONTINUOUS
 62
     5
 10
-55.746502
 20
-89.320668000000012
 30
0.0
 11
-55.717542000000002
 21
-89.213965999999985
 31
0.0
  0
LINE
  5
D8
  8
DETAIL
  6
CONTINUOUS
 62
     5
 10
-55.786611000000001
 20
-89.423345999999995
 30
0.0
 11
-55.746502
 21
-89.320668000000012
 31
0.0
  0
LINE
  5
D9
  8
DETAIL
  6
CONTINUOUS
 62
     5
 10
-55.837375000000002
 20
-89.520736999999997
 30
0.0
 11
-55.786611000000001
 21
-89.423345999999995
 31
0.0
  0
LINE
  5
DA
  8
DETAIL
  6
CONTINUOUS
 62
     5
 10
-55.898168999999989
 20
-89.611641000000006
 30
0.0
 11
-55.837375000000002
 21
-89.520736999999997
 31
0.0
  0
LINE
  5
DB
  8
DETAIL
  6
CONTINUOUS
 62
     5
 10
-55.968243999999991
 20
-89.694939000000005
 30
0.0
 11
-55.898168999999989
 21
-89.611641000000006
 31
0.0
  0
LINE
  5
DC
  8
DETAIL
  6
CONTINUOUS
 62
     5
 10
-56.046737999999998
 20
-89.769606999999993
 30
0.0
 11
-55.968243999999991
 21
-89.694939000000005
 31
0.0
  0
LINE
  5
DD
  8
DETAIL
  6
CONTINUOUS
 62
     5
 10
-56.132685000000002
 20
-89.834723999999994
 30
0.0
 11
-56.046737999999998
 21
-89.769606999999993
 31
0.0
  0
LINE
  5
DE
  8
DETAIL
  6
CONTINUOUS
 62
     5
 10
-56.225026
 20
-89.889488999999998
 30
0.0
 11
-56.132685000000002
 21
-89.834723999999994
 31
0.0
  0
LINE
  5
DF
  8
DETAIL
  6
CONTINUOUS
 62
     5
 10
-56.322626
 20
-89.933227999999986
 30
0.0
 11
-56.225026
 21
-89.889488999999998
 31
0.0
  0
LINE
  5
E0
  8
DETAIL
  6
CONTINUOUS
 62
     5
 10
-56.424281999999998
 20
-89.965404000000007
 30
0.0
 11
-56.322626
 21
-89.933227999999986
 31
0.0
  0
LINE
  5
E1
  8
DETAIL
  6
CONTINUOUS
 62
     5
 10
-56.528743999999989
 20
-89.985618000000002
 30
0.0
 11
-56.424281999999998
 21
-89.965404000000007
 31
0.0
  0
LINE
  5
E2
  8
DETAIL
  6
CONTINUOUS
 62
     5
 10
-56.63472500000001
 20
-89.993623999999997
 30
0.0
 11
-56.528743999999989
 21
-89.985618000000002
 31
0.0
  0
LINE
  5
E3
  8
DETAIL
  6
CONTINUOUS
 62
     5
 10
-57.5
 20
-89.500000000000014
 30
0.0
 11
-57.0
 21
-89.491271999999995
 31
0.0
  0
LINE
  5
E4
  8
DETAIL
  6
CONTINUOUS
 62
     5
 10
-57.0
 20
-90.0
 30
0.0
 11
-54.67516899999999
 21
-89.959419999999994
 31
0.0
  0
LINE
  5
E5
  8
DETAIL
  6
CONTINUOUS
 62
     5
 10
-65.111893000000009
 20
-89.627281999999994
 30
0.0
 11
-57.5
 21
-90.0
 31
0.0
  0
LINE
  5
E6
  8
DETAIL
  6
CONTINUOUS
 62
     5
 10
-60.028857999999993
 20
-89.867346999999995
 30
0.0
 11
-60.019569999999987
 21
-89.867955000000009
 31
0.0
  0
LINE
  5
E7
  8
DETAIL
  6
CONTINUOUS
 62
     5
 10
-60.123002
 20
-89.855807999999996
 30
0.0
 11
-60.028860000000002
 21
-89.867365000000007
 31
0.0
  0
ARC
  5
E8
  8
DETAIL
  6
CONTINUOUS
 62
     5
 10
-54.0
 20
-88.947481999999994
 30
0.0
 40
1.0
 50
271.0
 51
0.0
  0
LINE
  5
E9
  8
DETAIL
  6
CONTINUOUS
 62
     5
 10
-50.5
 20
-89.0
 30
0.0
 11
-49.113534000000001
 21
-89.0
 31
0.0
  0
ARC
  5
EA
  8
DETAIL
  6
CONTINUOUS
 62
     5
 10
-24.351555999999999
 20
-89.499992000000006
 30
0.0
 40
0.5
 50
181.000933
 51
270.0
  0
ARC
  5
EB
  8
DETAIL
  6
CONTINUOUS
 62
     5
 10
-0.5
 20
-89.500000000000014
 30
0.0
 40
0.5
 50
270.0
 51
0.0
  0
LINE
  5
EC
  8
DETAIL
  6
CONTINUOUS
 62
     5
 10
-11.088414
 20
-96.997461999999985
 30
0.0
 11
-11.10089
 21
-96.996493999999998
 31
0.0
  0
LINE
  5
ED
  8
DETAIL
  6
CONTINUOUS
 62
     5
 10
-11.10089
 20
-96.996493999999998
 30
0.0
 11
-11.113338000000001
 21
-96.995371000000006
 31
0.0
  0
LINE
  5
EE
  8
DETAIL
  6
CONTINUOUS
 62
     5
 10
-11.113338000000001
 20
-96.995371000000006
 30
0.0
 11
-11.125753
 21
-96.994095000000016
 31
0.0
  0
LINE
  5
EF
  8
DETAIL
  6
CONTINUOUS
 62
     5
 10
-11.125753
 20
-96.994095000000016
 30
0.0
 11
-11.138135999999999
 21
-96.992666000000014
 31
0.0
  0
LINE
  5
F0
  8
DETAIL
  6
CONTINUOUS
 62
     5
 10
-11.138135999999999
 20
-96.992666000000014
 30
0.0
 11
-11.150482
 21
-96.991085000000012
 31
0.0
  0
LINE
  5
F1
  8
DETAIL
  6
CONTINUOUS
 62
     5
 10
-11.150482
 20
-96.991085000000012
 30
0.0
 11
-11.162791
 21
-96.989353000000023
 31
0.0
  0
LINE
  5
F2
  8
DETAIL
  6
CONTINUOUS
 62
     5
 10
-11.162791
 20
-96.989353000000023
 30
0.0
 11
-11.17506
 21
-96.987470999999999
 31
0.0
  0
LINE
  5
F3
  8
DETAIL
  6
CONTINUOUS
 62
     5
 10
-11.17506
 20
-96.987470999999999
 30
0.0
 11
-11.187287
 21
-96.985439999999997
 31
0.0
  0
LINE
  5
F4
  8
DETAIL
  6
CONTINUOUS
 62
     5
 10
-11.187287
 20
-96.985439999999997
 30
0.0
 11
-11.19947
 21
-96.983260999999999
 31
0.0
  0
LINE
  5
F5
  8
DETAIL
  6
CONTINUOUS
 62
     5
 10
-11.19947
 20
-96.983260999999999
 30
0.0
 11
-11.211607000000001
 21
-96.980935000000002
 31
0.0
  0
LINE
  5
F6
  8
DETAIL
  6
CONTINUOUS
 62
     5
 10
-11.211607000000001
 20
-96.980935000000002
 30
0.0
 11
-11.223696
 21
-96.978461999999993
 31
0.0
  0
LINE
  5
F7
  8
DETAIL
  6
CONTINUOUS
 62
     5
 10
-11.223696
 20
-96.978461999999993
 30
0.0
 11
-11.235735
 21
-96.975844999999993
 31
0.0
  0
LINE
  5
F8
  8
DETAIL
  6
CONTINUOUS
 62
     5
 10
-11.235735
 20
-96.975844999999993
 30
0.0
 11
-11.247722
 21
-96.973084999999998
 31
0.0
  0
LINE
  5
F9
  8
DETAIL
  6
CONTINUOUS
 62
     5
 10
-11.247722
 20
-96.973084999999998
 30
0.0
 11
-11.259655
 21
-96.970181999999994
 31
0.0
  0
LINE
  5
FA
  8
DETAIL
  6
CONTINUOUS
 62
     5
 10
-11.259655
 20
-96.970181999999994
 30
0.0
 11
-11.271532000000001
 21
-96.967136999999994
 31
0.0
  0
LINE
  5
FB
  8
DETAIL
  6
CONTINUOUS
 62
     5
 10
-11.271532000000001
 20
-96.967136999999994
 30
0.0
 11
-11.283352000000001
 21
-96.963953000000004
 31
0.0
  0
LINE
  5
FC
  8
DETAIL
  6
CONTINUOUS
 62
     5
 10
-11.283352000000001
 20
-96.963953000000004
 30
0.0
 11
-11.295112
 21
-96.960629000000012
 31
0.0
  0
LINE
  5
FD
  8
DETAIL
  6
CONTINUOUS
 62
     5
 10
-11.295112
 20
-96.960629000000012
 30
0.0
 11
-11.306811
 21
-96.957168999999993
 31
0.0
  0
LINE
  5
FE
  8
DETAIL
  6
CONTINUOUS
 62
     5
 10
-11.306811
 20
-96.957168999999993
 30
0.0
 11
-11.318446
 21
-96.953571999999994
 31
0.0
  0
LINE
  5
FF
  8
DETAIL
  6
CONTINUOUS
 62
     5
 10
-11.318446
 20
-96.953571999999994
 30
0.0
 11
-11.330017
 21
-96.949840000000009
 31
0.0
  0
LINE
  5
100
  8
DETAIL
  6
CONTINUOUS
 62
     5
 10
-11.330017
 20
-96.949840000000009
 30
0.0
 11
-11.341521
 21
-96.945975000000004
 31
0.0
  0
LINE
  5
101
  8
DETAIL
  6
CONTINUOUS
 62
     5
 10
-11.341521
 20
-96.945975000000004
 30
0.0
 11
-11.352957
 21
-96.941978000000006
 31
0.0
  0
LINE
  5
102
  8
DETAIL
  6
CONTINUOUS
 62
     5
 10
-11.352957
 20
-96.941978000000006
 30
0.0
 11
-11.364322
 21
-96.937850999999995
 31
0.0
  0
LINE
  5
103
  8
DETAIL
  6
CONTINUOUS
 62
     5
 10
-11.364322
 20
-96.937850999999995
 30
0.0
 11
-11.375616000000001
 21
-96.933593999999999
 31
0.0
  0
LINE
  5
104
  8
DETAIL
  6
CONTINUOUS
 62
     5
 10
-11.375616000000001
 20
-96.933593999999999
 30
0.0
 11
-11.386837
 21
-96.929209999999998
 31
0.0
  0
LINE
  5
105
  8
DETAIL
  6
CONTINUOUS
 62
     5
 10
-11.386837
 20
-96.929209999999998
 30
0.0
 11
-11.397982000000001
 21
-96.924700000000001
 31
0.0
  0
LINE
  5
106
  8
DETAIL
  6
CONTINUOUS
 62
     5
 10
-11.397982000000001
 20
-96.924700000000001
 30
0.0
 11
-11.409052000000001
 21
-96.920065000000008
 31
0.0
  0
LINE
  5
107
  8
DETAIL
  6
CONTINUOUS
 62
     5
 10
-11.409052000000001
 20
-96.920065000000008
 30
0.0
 11
-11.420043
 21
-96.915307000000013
 31
0.0
  0
LINE
  5
108
  8
DETAIL
  6
CONTINUOUS
 62
     5
 10
-11.420043
 20
-96.915307000000013
 30
0.0
 11
-11.430954
 21
-96.910427999999996
 31
0.0
  0
LINE
  5
109
  8
DETAIL
  6
CONTINUOUS
 62
     5
 10
-11.430954
 20
-96.910427999999996
 30
0.0
 11
-11.441784999999999
 21
-96.905428999999998
 31
0.0
  0
LINE
  5
10A
  8
DETAIL
  6
CONTINUOUS
 62
     5
 10
-11.441784999999999
 20
-96.905428999999998
 30
0.0
 11
-11.452533000000001
 21
-96.900311999999985
 31
0.0
  0
LINE
  5
10B
  8
DETAIL
  6
CONTINUOUS
 62
     5
 10
-11.452533000000001
 20
-96.900311999999985
 30
0.0
 11
-11.463198
 21
-96.895078000000012
 31
0.0
  0
LINE
  5
10C
  8
DETAIL
  6
CONTINUOUS
 62
     5
 10
-11.463198
 20
-96.895078000000012
 30
0.0
 11
-11.473777
 21
-96.88973
 31
0.0
  0
LINE
  5
10D
  8
DETAIL
  6
CONTINUOUS
 62
     5
 10
-11.473777
 20
-96.88973
 30
0.0
 11
-11.48427
 21
-96.88426800000002
 31
0.0
  0
LINE
  5
10E
  8
DETAIL
  6
CONTINUOUS
 62
     5
 10
-11.48427
 20
-96.88426800000002
 30
0.0
 11
-11.494674
 21
-96.878693999999996
 31
0.0
  0
LINE
  5
10F
  8
DETAIL
  6
CONTINUOUS
 62
     5
 10
-11.494674
 20
-96.878693999999996
 30
0.0
 11
-11.504989999999999
 21
-96.873011000000005
 31
0.0
  0
LINE
  5
110
  8
DETAIL
  6
CONTINUOUS
 62
     5
 10
-11.504989999999999
 20
-96.873011000000005
 30
0.0
 11
-11.515216000000001
 21
-96.867219999999989
 31
0.0
  0
LINE
  5
111
  8
DETAIL
  6
CONTINUOUS
 62
     5
 10
-11.515216000000001
 20
-96.867219999999989
 30
0.0
 11
-11.52535
 21
-96.861322000000015
 31
0.0
  0
LINE
  5
112
  8
DETAIL
  6
CONTINUOUS
 62
     5
 10
-11.52535
 20
-96.861322000000015
 30
0.0
 11
-11.535391000000001
 21
-96.855320000000006
 31
0.0
  0
LINE
  5
113
  8
DETAIL
  6
CONTINUOUS
 62
     5
 10
-11.535391000000001
 20
-96.855320000000006
 30
0.0
 11
-11.545337999999999
 21
-96.849215000000015
 31
0.0
  0
LINE
  5
114
  8
DETAIL
  6
CONTINUOUS
 62
     5
 10
-11.545337999999999
 20
-96.849215000000015
 30
0.0
 11
-11.55519
 21
-96.843008999999995
 31
0.0
  0
LINE
  5
115
  8
DETAIL
  6
CONTINUOUS
 62
     5
 10
-11.55519
 20
-96.843008999999995
 30
0.0
 11
-11.564947
 21
-96.836703999999997
 31
0.0
  0
LINE
  5
116
  8
DETAIL
  6
CONTINUOUS
 62
     5
 10
-11.564947
 20
-96.836703999999997
 30
0.0
 11
-11.574605999999999
 21
-96.830302000000003
 31
0.0
  0
LINE
  5
117
  8
DETAIL
  6
CONTINUOUS
 62
     5
 10
-11.574605999999999
 20
-96.830302000000003
 30
0.0
 11
-11.584168
 21
-96.82380400000001
 31
0.0
  0
LINE
  5
118
  8
DETAIL
  6
CONTINUOUS
 62
     5
 10
-11.584168
 20
-96.82380400000001
 30
0.0
 11
-11.593629999999999
 21
-96.817211999999998
 31
0.0
  0
LINE
  5
119
  8
DETAIL
  6
CONTINUOUS
 62
     5
 10
-11.593629999999999
 20
-96.817211999999998
 30
0.0
 11
-11.602992
 21
-96.810528000000005
 31
0.0
  0
LINE
  5
11A
  8
DETAIL
  6
CONTINUOUS
 62
     5
 10
-11.602992
 20
-96.810528000000005
 30
0.0
 11
-11.612254
 21
-96.803755000000024
 31
0.0
  0
LINE
  5
11B
  8
DETAIL
  6
CONTINUOUS
 62
     5
 10
-11.612254
 20
-96.803755000000024
 30
0.0
 11
-11.621414
 21
-96.796893000000011
 31
0.0
  0
LINE
  5
11C
  8
DETAIL
  6
CONTINUOUS
 62
     5
 10
-11.621414
 20
-96.796893000000011
 30
0.0
 11
-11.630471
 21
-96.789944999999989
 31
0.0
  0
LINE
  5
11D
  8
DETAIL
  6
CONTINUOUS
 62
     5
 10
-11.630471
 20
-96.789944999999989
 30
0.0
 11
-11.639424999999999
 21
-96.782911999999996
 31
0.0
  0
LINE
  5
11E
  8
DETAIL
  6
CONTINUOUS
 62
     5
 10
-11.639424999999999
 20
-96.782911999999996
 30
0.0
 11
-11.648275
 21
-96.775797999999995
 31
0.0
  0
LINE
  5
11F
  8
DETAIL
  6
CONTINUOUS
 62
     5
 10
-11.648275
 20
-96.775797999999995
 30
0.0
 11
-11.657021
 21
-96.768602000000001
 31
0.0
  0
LINE
  5
120
  8
DETAIL
  6
CONTINUOUS
 62
     5
 10
-11.657021
 20
-96.768602000000001
 30
0.0
 11
-11.665661
 21
-96.761328000000006
 31
0.0
  0
LINE
  5
121
  8
DETAIL
  6
CONTINUOUS
 62
     5
 10
-11.665661
 20
-96.761328000000006
 30
0.0
 11
-11.674194999999999
 21
-96.753977000000006
 31
0.0
  0
LINE
  5
122
  8
DETAIL
  6
CONTINUOUS
 62
     5
 10
-11.674194999999999
 20
-96.753977000000006
 30
0.0
 11
-11.682622
 21
-96.746552000000008
 31
0.0
  0
LINE
  5
123
  8
DETAIL
  6
CONTINUOUS
 62
     5
 10
-11.682622
 20
-96.746552000000008
 30
0.0
 11
-11.690942
 21
-96.739053000000013
 31
0.0
  0
LINE
  5
124
  8
DETAIL
  6
CONTINUOUS
 62
     5
 10
-11.690942
 20
-96.739053000000013
 30
0.0
 11
-11.699154
 21
-96.731483999999995
 31
0.0
  0
LINE
  5
125
  8
DETAIL
  6
CONTINUOUS
 62
     5
 10
-11.699154
 20
-96.731483999999995
 30
0.0
 11
-11.707257
 21
-96.723844999999983
 31
0.0
  0
LINE
  5
126
  8
DETAIL
  6
CONTINUOUS
 62
     5
 10
-11.707257
 20
-96.723844999999983
 30
0.0
 11
-11.715252
 21
-96.716138999999998
 31
0.0
  0
LINE
  5
127
  8
DETAIL
  6
CONTINUOUS
 62
     5
 10
-11.715252
 20
-96.716138999999998
 30
0.0
 11
-11.723138000000001
 21
-96.708368000000007
 31
0.0
  0
LINE
  5
128
  8
DETAIL
  6
CONTINUOUS
 62
     5
 10
-11.723138000000001
 20
-96.708368000000007
 30
0.0
 11
-11.730914
 21
-96.700534000000005
 31
0.0
  0
LINE
  5
129
  8
DETAIL
  6
CONTINUOUS
 62
     5
 10
-11.730914
 20
-96.700534000000005
 30
0.0
 11
-11.738580000000001
 21
-96.692638000000017
 31
0.0
  0
LINE
  5
12A
  8
DETAIL
  6
CONTINUOUS
 62
     5
 10
-11.738580000000001
 20
-96.692638000000017
 30
0.0
 11
-11.746136
 21
-96.684683000000007
 31
0.0
  0
LINE
  5
12B
  8
DETAIL
  6
CONTINUOUS
 62
     5
 10
-11.746136
 20
-96.684683000000007
 30
0.0
 11
-11.753581000000001
 21
-96.676670999999999
 31
0.0
  0
LINE
  5
12C
  8
DETAIL
  6
CONTINUOUS
 62
     5
 10
-11.753581000000001
 20
-96.676670999999999
 30
0.0
 11
-11.760916
 21
-96.668603000000004
 31
0.0
  0
LINE
  5
12D
  8
DETAIL
  6
CONTINUOUS
 62
     5
 10
-11.760916
 20
-96.668603000000004
 30
0.0
 11
-11.768139
 21
-96.660481000000004
 31
0.0
  0
LINE
  5
12E
  8
DETAIL
  6
CONTINUOUS
 62
     5
 10
-11.768139
 20
-96.660481000000004
 30
0.0
 11
-11.775251000000001
 21
-96.652306999999993
 31
0.0
  0
LINE
  5
12F
  8
DETAIL
  6
CONTINUOUS
 62
     5
 10
-11.775251000000001
 20
-96.652306999999993
 30
0.0
 11
-11.782251
 21
-96.644083999999992
 31
0.0
  0
LINE
  5
130
  8
DETAIL
  6
CONTINUOUS
 62
     5
 10
-11.782251
 20
-96.644083999999992
 30
0.0
 11
-11.789139
 21
-96.635812999999999
 31
0.0
  0
LINE
  5
131
  8
DETAIL
  6
CONTINUOUS
 62
     5
 10
-11.789139
 20
-96.635812999999999
 30
0.0
 11
-11.795916
 21
-96.627495999999994
 31
0.0
  0
LINE
  5
132
  8
DETAIL
  6
CONTINUOUS
 62
     5
 10
-11.795916
 20
-96.627495999999994
 30
0.0
 11
-11.802581
 21
-96.619135
 31
0.0
  0
LINE
  5
133
  8
DETAIL
  6
CONTINUOUS
 62
     5
 10
-11.802581
 20
-96.619135
 30
0.0
 11
-11.809134999999999
 21
-96.610731000000015
 31
0.0
  0
LINE
  5
134
  8
DETAIL
  6
CONTINUOUS
 62
     5
 10
-11.809134999999999
 20
-96.610731000000015
 30
0.0
 11
-11.815576
 21
-96.602287000000004
 31
0.0
  0
LINE
  5
135
  8
DETAIL
  6
CONTINUOUS
 62
     5
 10
-11.815576
 20
-96.602287000000004
 30
0.0
 11
-11.821906
 21
-96.593805000000003
 31
0.0
  0
LINE
  5
136
  8
DETAIL
  6
CONTINUOUS
 62
     5
 10
-11.821906
 20
-96.593805000000003
 30
0.0
 11
-11.828123
 21
-96.585286999999994
 31
0.0
  0
LINE
  5
137
  8
DETAIL
  6
CONTINUOUS
 62
     5
 10
-11.828123
 20
-96.585286999999994
 30
0.0
 11
-11.83423
 21
-96.57673299999999
 31
0.0
  0
LINE
  5
138
  8
DETAIL
  6
CONTINUOUS
 62
     5
 10
-11.83423
 20
-96.57673299999999
 30
0.0
 11
-11.840223999999999
 21
-96.568146999999996
 31
0.0
  0
LINE
  5
139
  8
DETAIL
  6
CONTINUOUS
 62
     5
 10
-11.840223999999999
 20
-96.568146999999996
 30
0.0
 11
-11.846107
 21
-96.559530000000024
 31
0.0
  0
LINE
  5
13A
  8
DETAIL
  6
CONTINUOUS
 62
     5
 10
-11.846107
 20
-96.559530000000024
 30
0.0
 11
-11.851879
 21
-96.550883999999996
 31
0.0
  0
LINE
  5
13B
  8
DETAIL
  6
CONTINUOUS
 62
     5
 10
-11.851879
 20
-96.550883999999996
 30
0.0
 11
-11.85754
 21
-96.542210999999995
 31
0.0
  0
LINE
  5
13C
  8
DETAIL
  6
CONTINUOUS
 62
     5
 10
-11.85754
 20
-96.542210999999995
 30
0.0
 11
-11.86309
 21
-96.533512000000016
 31
0.0
  0
LINE
  5
13D
  8
DETAIL
  6
CONTINUOUS
 62
     5
 10
-11.86309
 20
-96.533512000000016
 30
0.0
 11
-11.86853
 21
-96.524788999999998
 31
0.0
  0
LINE
  5
13E
  8
DETAIL
  6
CONTINUOUS
 62
     5
 10
-11.86853
 20
-96.524788999999998
 30
0.0
 11
-11.873858999999999
 21
-96.516044999999991
 31
0.0
  0
LINE
  5
13F
  8
DETAIL
  6
CONTINUOUS
 62
     5
 10
-11.873858999999999
 20
-96.516044999999991
 30
0.0
 11
-11.879079000000001
 21
-96.50728100000002
 31
0.0
  0
LINE
  5
140
  8
DETAIL
  6
CONTINUOUS
 62
     5
 10
-11.879079000000001
 20
-96.50728100000002
 30
0.0
 11
-11.884188999999999
 21
-96.498497999999998
 31
0.0
  0
LINE
  5
141
  8
DETAIL
  6
CONTINUOUS
 62
     5
 10
-11.884188999999999
 20
-96.498497999999998
 30
0.0
 11
-11.889189999999999
 21
-96.489699000000002
 31
0.0
  0
LINE
  5
142
  8
DETAIL
  6
CONTINUOUS
 62
     5
 10
-11.889189999999999
 20
-96.489699000000002
 30
0.0
 11
-11.894081999999999
 21
-96.480885000000001
 31
0.0
  0
LINE
  5
143
  8
DETAIL
  6
CONTINUOUS
 62
     5
 10
-11.894081999999999
 20
-96.480885000000001
 30
0.0
 11
-11.898866
 21
-96.472058000000004
 31
0.0
  0
LINE
  5
144
  8
DETAIL
  6
CONTINUOUS
 62
     5
 10
-11.898866
 20
-96.472058000000004
 30
0.0
 11
-11.903542
 21
-96.463219999999993
 31
0.0
  0
LINE
  5
145
  8
DETAIL
  6
CONTINUOUS
 62
     5
 10
-11.903542
 20
-96.463219999999993
 30
0.0
 11
-11.908110000000001
 21
-96.454371999999992
 31
0.0
  0
LINE
  5
146
  8
DETAIL
  6
CONTINUOUS
 62
     5
 10
-11.908110000000001
 20
-96.454371999999992
 30
0.0
 11
-11.912572000000001
 21
-96.445516999999995
 31
0.0
  0
LINE
  5
147
  8
DETAIL
  6
CONTINUOUS
 62
     5
 10
-11.912572000000001
 20
-96.445516999999995
 30
0.0
 11
-11.916928
 21
-96.436655000000002
 31
0.0
  0
LINE
  5
148
  8
DETAIL
  6
CONTINUOUS
 62
     5
 10
-11.916928
 20
-96.436655000000002
 30
0.0
 11
-11.921177
 21
-96.427789000000004
 31
0.0
  0
LINE
  5
149
  8
DETAIL
  6
CONTINUOUS
 62
     5
 10
-11.921177
 20
-96.427789000000004
 30
0.0
 11
-11.925322
 21
-96.418918999999988
 31
0.0
  0
LINE
  5
14A
  8
DETAIL
  6
CONTINUOUS
 62
     5
 10
-11.925322
 20
-96.418918999999988
 30
0.0
 11
-11.929361999999999
 21
-96.410049000000001
 31
0.0
  0
LINE
  5
14B
  8
DETAIL
  6
CONTINUOUS
 62
     5
 10
-11.929361999999999
 20
-96.410049000000001
 30
0.0
 11
-11.933298000000001
 21
-96.401178999999985
 31
0.0
  0
LINE
  5
14C
  8
DETAIL
  6
CONTINUOUS
 62
     5
 10
-11.933298000000001
 20
-96.401178999999985
 30
0.0
 11
-11.937131000000001
 21
-96.392312000000004
 31
0.0
  0
LINE
  5
14D
  8
DETAIL
  6
CONTINUOUS
 62
     5
 10
-11.937131000000001
 20
-96.392312000000004
 30
0.0
 11
-11.940861
 21
-96.383450000000011
 31
0.0
  0
LINE
  5
14E
  8
DETAIL
  6
CONTINUOUS
 62
     5
 10
-11.940861
 20
-96.383450000000011
 30
0.0
 11
-11.944487000000001
 21
-96.374594999999999
 31
0.0
  0
LINE
  5
14F
  8
DETAIL
  6
CONTINUOUS
 62
     5
 10
-11.944487000000001
 20
-96.374594999999999
 30
0.0
 11
-11.948012
 21
-96.365750000000006
 31
0.0
  0
LINE
  5
150
  8
DETAIL
  6
CONTINUOUS
 62
     5
 10
-11.948012
 20
-96.365750000000006
 30
0.0
 11
-11.951435
 21
-96.356917000000024
 31
0.0
  0
LINE
  5
151
  8
DETAIL
  6
CONTINUOUS
 62
     5
 10
-11.951435
 20
-96.356917000000024
 30
0.0
 11
-11.954758
 21
-96.348096999999996
 31
0.0
  0
LINE
  5
152
  8
DETAIL
  6
CONTINUOUS
 62
     5
 10
-11.954758
 20
-96.348096999999996
 30
0.0
 11
-11.957979999999999
 21
-96.339293999999995
 31
0.0
  0
LINE
  5
153
  8
DETAIL
  6
CONTINUOUS
 62
     5
 10
-11.957979999999999
 20
-96.339293999999995
 30
0.0
 11
-11.961102
 21
-96.330509000000006
 31
0.0
  0
LINE
  5
154
  8
DETAIL
  6
CONTINUOUS
 62
     5
 10
-11.961102
 20
-96.330509000000006
 30
0.0
 11
-11.964126
 21
-96.32174599999999
 31
0.0
  0
LINE
  5
155
  8
DETAIL
  6
CONTINUOUS
 62
     5
 10
-11.964126
 20
-96.32174599999999
 30
0.0
 11
-11.967051
 21
-96.313005000000004
 31
0.0
  0
LINE
  5
156
  8
DETAIL
  6
CONTINUOUS
 62
     5
 10
-11.967051
 20
-96.313005000000004
 30
0.0
 11
-11.969879000000001
 21
-96.304288999999997
 31
0.0
  0
LINE
  5
157
  8
DETAIL
  6
CONTINUOUS
 62
     5
 10
-11.969879000000001
 20
-96.304288999999997
 30
0.0
 11
-11.972611000000001
 21
-96.295599999999993
 31
0.0
  0
LINE
  5
158
  8
DETAIL
  6
CONTINUOUS
 62
     5
 10
-11.972611000000001
 20
-96.295599999999993
 30
0.0
 11
-11.975248000000001
 21
-96.286940999999999
 31
0.0
  0
LINE
  5
159
  8
DETAIL
  6
CONTINUOUS
 62
     5
 10
-11.975248000000001
 20
-96.286940999999999
 30
0.0
 11
-11.977790000000001
 21
-96.278313999999995
 31
0.0
  0
LINE
  5
15A
  8
DETAIL
  6
CONTINUOUS
 62
     5
 10
-11.977790000000001
 20
-96.278313999999995
 30
0.0
 11
-11.980238999999999
 21
-96.269720000000007
 31
0.0
  0
LINE
  5
15B
  8
DETAIL
  6
CONTINUOUS
 62
     5
 10
-11.980238999999999
 20
-96.269720000000007
 30
0.0
 11
-11.982595
 21
-96.261161999999999
 31
0.0
  0
LINE
  5
15C
  8
DETAIL
  6
CONTINUOUS
 62
     5
 10
-11.982595
 20
-96.261161999999999
 30
0.0
 11
-11.984859999999999
 21
-96.252642000000009
 31
0.0
  0
LINE
  5
15D
  8
DETAIL
  6
CONTINUOUS
 62
     5
 10
-11.984859999999999
 20
-96.252642000000009
 30
0.0
 11
-11.987034
 21
-96.244162000000003
 31
0.0
  0
LINE
  5
15E
  8
DETAIL
  6
CONTINUOUS
 62
     5
 10
-11.987034
 20
-96.244162000000003
 30
0.0
 11
-11.98912
 21
-96.235724000000005
 31
0.0
  0
LINE
  5
15F
  8
DETAIL
  6
CONTINUOUS
 62
     5
 10
-11.98912
 20
-96.235724000000005
 30
0.0
 11
-11.991118
 21
-96.227330000000009
 31
0.0
  0
LINE
  5
160
  8
DETAIL
  6
CONTINUOUS
 62
     5
 10
-11.991118
 20
-96.227330000000009
 30
0.0
 11
-11.993029
 21
-96.218981999999997
 31
0.0
  0
LINE
  5
161
  8
DETAIL
  6
CONTINUOUS
 62
     5
 10
-11.993029
 20
-96.218981999999997
 30
0.0
 11
-11.994854999999999
 21
-96.210681999999991
 31
0.0
  0
LINE
  5
162
  8
DETAIL
  6
CONTINUOUS
 62
     5
 10
-11.994854999999999
 20
-96.210681999999991
 30
0.0
 11
-11.996597
 21
-96.202432000000002
 31
0.0
  0
LINE
  5
163
  8
DETAIL
  6
CONTINUOUS
 62
     5
 10
-11.996597
 20
-96.202432000000002
 30
0.0
 11
-11.998255
 21
-96.194236000000004
 31
0.0
  0
LINE
  5
164
  8
DETAIL
  6
CONTINUOUS
 62
     5
 10
-11.998255
 20
-96.194236000000004
 30
0.0
 11
-11.999832
 21
-96.186095999999992
 31
0.0
  0
LINE
  5
165
  8
DETAIL
  6
CONTINUOUS
 62
     5
 10
-11.999832
 20
-96.186095999999992
 30
0.0
 11
-12.001328000000001
 21
-96.178017000000011
 31
0.0
  0
LINE
  5
166
  8
DETAIL
  6
CONTINUOUS
 62
     5
 10
-12.001328000000001
 20
-96.178017000000011
 30
0.0
 11
-12.002744
 21
-96.170000999999999
 31
0.0
  0
LINE
  5
167
  8
DETAIL
  6
CONTINUOUS
 62
     5
 10
-12.002744
 20
-96.170000999999999
 30
0.0
 11
-12.004083
 21
-96.162052000000017
 31
0.0
  0
LINE
  5
168
  8
DETAIL
  6
CONTINUOUS
 62
     5
 10
-12.004083
 20
-96.162052000000017
 30
0.0
 11
-12.005345
 21
-96.154173
 31
0.0
  0
LINE
  5
169
  8
DETAIL
  6
CONTINUOUS
 62
     5
 10
-12.005345
 20
-96.154173
 30
0.0
 11
-12.006531000000001
 21
-96.146366999999998
 31
0.0
  0
LINE
  5
16A
  8
DETAIL
  6
CONTINUOUS
 62
     5
 10
-12.006531000000001
 20
-96.146366999999998
 30
0.0
 11
-12.007644000000001
 21
-96.138638
 31
0.0
  0
LINE
  5
16B
  8
DETAIL
  6
CONTINUOUS
 62
     5
 10
-12.007644000000001
 20
-96.138638
 30
0.0
 11
-12.008685
 21
-96.130989
 31
0.0
  0
LINE
  5
16C
  8
DETAIL
  6
CONTINUOUS
 62
     5
 10
-12.008685
 20
-96.130989
 30
0.0
 11
-12.009655
 21
-96.123423000000017
 31
0.0
  0
LINE
  5
16D
  8
DETAIL
  6
CONTINUOUS
 62
     5
 10
-12.009655
 20
-96.123423000000017
 30
0.0
 11
-12.010557
 21
-96.115944000000013
 31
0.0
  0
LINE
  5
16E
  8
DETAIL
  6
CONTINUOUS
 62
     5
 10
-12.010557
 20
-96.115944000000013
 30
0.0
 11
-12.011391
 21
-96.108553999999998
 31
0.0
  0
LINE
  5
16F
  8
DETAIL
  6
CONTINUOUS
 62
     5
 10
-12.011391
 20
-96.108553999999998
 30
0.0
 11
-12.012161000000001
 21
-96.10125699999999
 31
0.0
  0
LINE
  5
170
  8
DETAIL
  6
CONTINUOUS
 62
     5
 10
-12.012161000000001
 20
-96.10125699999999
 30
0.0
 11
-12.012867999999999
 21
-96.094059000000001
 31
0.0
  0
LINE
  5
171
  8
DETAIL
  6
CONTINUOUS
 62
     5
 10
-12.012867999999999
 20
-96.094059000000001
 30
0.0
 11
-12.013512
 21
-96.086967999999999
 31
0.0
  0
LINE
  5
172
  8
DETAIL
  6
CONTINUOUS
 62
     5
 10
-12.013512
 20
-96.086967999999999
 30
0.0
 11
-12.014097
 21
-96.079991000000007
 31
0.0
  0
LINE
  5
173
  8
DETAIL
  6
CONTINUOUS
 62
     5
 10
-12.014097
 20
-96.079991000000007
 30
0.0
 11
-12.014623
 21
-96.073134999999994
 31
0.0
  0
LINE
  5
174
  8
DETAIL
  6
CONTINUOUS
 62
     5
 10
-12.014623
 20
-96.073134999999994
 30
0.0
 11
-12.015093999999999
 21
-96.066407999999996
 31
0.0
  0
LINE
  5
175
  8
DETAIL
  6
CONTINUOUS
 62
     5
 10
-12.015093999999999
 20
-96.066407999999996
 30
0.0
 11
-12.015511
 21
-96.059815999999984
 31
0.0
  0
LINE
  5
176
  8
DETAIL
  6
CONTINUOUS
 62
     5
 10
-12.015511
 20
-96.059815999999984
 30
0.0
 11
-12.015876
 21
-96.053370000000001
 31
0.0
  0
LINE
  5
177
  8
DETAIL
  6
CONTINUOUS
 62
     5
 10
-12.015876
 20
-96.053370000000001
 30
0.0
 11
-12.016192999999999
 21
-96.047075000000007
 31
0.0
  0
LINE
  5
178
  8
DETAIL
  6
CONTINUOUS
 62
     5
 10
-12.016192999999999
 20
-96.047075000000007
 30
0.0
 11
-12.016463
 21
-96.040951000000021
 31
0.0
  0
LINE
  5
179
  8
DETAIL
  6
CONTINUOUS
 62
     5
 10
-12.016463
 20
-96.040951000000021
 30
0.0
 11
-12.016688
 21
-96.035007999999991
 31
0.0
  0
LINE
  5
17A
  8
DETAIL
  6
CONTINUOUS
 62
     5
 10
-12.016688
 20
-96.035007999999991
 30
0.0
 11
-12.016873
 21
-96.029270999999994
 31
0.0
  0
LINE
  5
17B
  8
DETAIL
  6
CONTINUOUS
 62
     5
 10
-12.016873
 20
-96.029270999999994
 30
0.0
 11
-12.017018999999999
 21
-96.023747999999983
 31
0.0
  0
LINE
  5
17C
  8
DETAIL
  6
CONTINUOUS
 62
     5
 10
-12.017018999999999
 20
-96.023747999999983
 30
0.0
 11
-12.01713
 21
-96.018500000000003
 31
0.0
  0
LINE
  5
17D
  8
DETAIL
  6
CONTINUOUS
 62
     5
 10
-11.050832
 20
-96.999431000000001
 30
0.0
 11
-11.063382000000001
 21
-96.998930999999999
 31
0.0
  0
LINE
  5
17E
  8
DETAIL
  6
CONTINUOUS
 62
     5
 10
-11.063382000000001
 20
-96.998930999999999
 30
0.0
 11
-11.075911
 21
-96.998273999999995
 31
0.0
  0
LINE
  5
17F
  8
DETAIL
  6
CONTINUOUS
 62
     5
 10
-11.075911
 20
-96.998273999999995
 30
0.0
 11
-11.088414
 21
-96.997461999999985
 31
0.0
  0
LINE
  5
180
  8
DETAIL
  6
CONTINUOUS
 62
     5
 10
-11.025671000000001
 20
-96.999957999999992
 30
0.0
 11
-11.038259999999999
 21
-96.999774000000016
 31
0.0
  0
LINE
  5
181
  8
DETAIL
  6
CONTINUOUS
 62
     5
 10
-11.038259999999999
 20
-96.999774000000016
 30
0.0
 11
-11.050832
 21
-96.999431000000001
 31
0.0
  0
LINE
  5
182
  8
DETAIL
  6
CONTINUOUS
 62
     5
 10
-11.025671000000001
 20
-96.999957999999992
 30
0.0
 11
-10.982682
 21
-97.0
 31
0.0
  0
LINE
  5
183
  8
DETAIL
  6
CONTINUOUS
 62
     5
 10
-9.9829410000000003
 20
-96.022043999999994
 30
0.0
 11
-9.9830539999999992
 21
-96.026651000000015
 31
0.0
  0
LINE
  5
184
  8
DETAIL
  6
CONTINUOUS
 62
     5
 10
-9.9830539999999992
 20
-96.026651000000015
 30
0.0
 11
-9.9831909999999997
 21
-96.031377000000006
 31
0.0
  0
LINE
  5
185
  8
DETAIL
  6
CONTINUOUS
 62
     5
 10
-9.9831909999999997
 20
-96.031377000000006
 30
0.0
 11
-9.9833549999999995
 21
-96.036214000000015
 31
0.0
  0
LINE
  5
186
  8
DETAIL
  6
CONTINUOUS
 62
     5
 10
-9.9833549999999995
 20
-96.036214000000015
 30
0.0
 11
-9.9835460000000005
 21
-96.041156000000001
 31
0.0
  0
LINE
  5
187
  8
DETAIL
  6
CONTINUOUS
 62
     5
 10
-9.9835460000000005
 20
-96.041156000000001
 30
0.0
 11
-9.983766000000001
 21
-96.046195999999995
 31
0.0
  0
LINE
  5
188
  8
DETAIL
  6
CONTINUOUS
 62
     5
 10
-9.983766000000001
 20
-96.046195999999995
 30
0.0
 11
-9.9840169999999997
 21
-96.051330000000021
 31
0.0
  0
LINE
  5
189
  8
DETAIL
  6
CONTINUOUS
 62
     5
 10
-9.9840169999999997
 20
-96.051330000000021
 30
0.0
 11
-9.984299
 21
-96.056550999999985
 31
0.0
  0
LINE
  5
18A
  8
DETAIL
  6
CONTINUOUS
 62
     5
 10
-9.984299
 20
-96.056550999999985
 30
0.0
 11
-9.9846140000000005
 21
-96.061852999999985
 31
0.0
  0
LINE
  5
18B
  8
DETAIL
  6
CONTINUOUS
 62
     5
 10
-9.9846140000000005
 20
-96.061852999999985
 30
0.0
 11
-9.9849610000000002
 21
-96.067233000000002
 31
0.0
  0
LINE
  5
18C
  8
DETAIL
  6
CONTINUOUS
 62
     5
 10
-9.9849610000000002
 20
-96.067233000000002
 30
0.0
 11
-9.9853439999999996
 21
-96.072683999999995
 31
0.0
  0
LINE
  5
18D
  8
DETAIL
  6
CONTINUOUS
 62
     5
 10
-9.9853439999999996
 20
-96.072683999999995
 30
0.0
 11
-9.9857610000000001
 21
-96.078202000000005
 31
0.0
  0
LINE
  5
18E
  8
DETAIL
  6
CONTINUOUS
 62
     5
 10
-9.9857610000000001
 20
-96.078202000000005
 30
0.0
 11
-9.9862149999999996
 21
-96.083781999999999
 31
0.0
  0
LINE
  5
18F
  8
DETAIL
  6
CONTINUOUS
 62
     5
 10
-9.9862149999999996
 20
-96.083781999999999
 30
0.0
 11
-9.9867050000000006
 21
-96.089423999999994
 31
0.0
  0
LINE
  5
190
  8
DETAIL
  6
CONTINUOUS
 62
     5
 10
-9.9867050000000006
 20
-96.089423999999994
 30
0.0
 11
-9.9872329999999998
 21
-96.095123000000001
 31
0.0
  0
LINE
  5
191
  8
DETAIL
  6
CONTINUOUS
 62
     5
 10
-9.9872329999999998
 20
-96.095123000000001
 30
0.0
 11
-9.9878
 21
-96.100877000000011
 31
0.0
  0
LINE
  5
192
  8
DETAIL
  6
CONTINUOUS
 62
     5
 10
-9.9878
 20
-96.100877000000011
 30
0.0
 11
-9.9884059999999995
 21
-96.106684000000016
 31
0.0
  0
LINE
  5
193
  8
DETAIL
  6
CONTINUOUS
 62
     5
 10
-9.9884059999999995
 20
-96.106684000000016
 30
0.0
 11
-9.9890519999999992
 21
-96.112539999999996
 31
0.0
  0
LINE
  5
194
  8
DETAIL
  6
CONTINUOUS
 62
     5
 10
-9.9890519999999992
 20
-96.112539999999996
 30
0.0
 11
-9.9897379999999991
 21
-96.118443000000013
 31
0.0
  0
LINE
  5
195
  8
DETAIL
  6
CONTINUOUS
 62
     5
 10
-9.9897379999999991
 20
-96.118443000000013
 30
0.0
 11
-9.9904659999999996
 21
-96.124388999999994
 31
0.0
  0
LINE
  5
196
  8
DETAIL
  6
CONTINUOUS
 62
     5
 10
-9.9904659999999996
 20
-96.124388999999994
 30
0.0
 11
-9.9912350000000014
 21
-96.130376999999996
 31
0.0
  0
LINE
  5
197
  8
DETAIL
  6
CONTINUOUS
 62
     5
 10
-9.9912350000000014
 20
-96.130376999999996
 30
0.0
 11
-9.9920460000000002
 21
-96.136404000000013
 31
0.0
  0
LINE
  5
198
  8
DETAIL
  6
CONTINUOUS
 62
     5
 10
-9.9920460000000002
 20
-96.136404000000013
 30
0.0
 11
-9.9929000000000006
 21
-96.142466000000013
 31
0.0
  0
LINE
  5
199
  8
DETAIL
  6
CONTINUOUS
 62
     5
 10
-9.9929000000000006
 20
-96.142466000000013
 30
0.0
 11
-9.9937960000000015
 21
-96.148561000000001
 31
0.0
  0
LINE
  5
19A
  8
DETAIL
  6
CONTINUOUS
 62
     5
 10
-9.9937960000000015
 20
-96.148561000000001
 30
0.0
 11
-9.9947359999999996
 21
-96.154685000000001
 31
0.0
  0
LINE
  5
19B
  8
DETAIL
  6
CONTINUOUS
 62
     5
 10
-9.9947359999999996
 20
-96.154685000000001
 30
0.0
 11
-9.9957189999999994
 21
-96.160837999999998
 31
0.0
  0
LINE
  5
19C
  8
DETAIL
  6
CONTINUOUS
 62
     5
 10
-9.9957189999999994
 20
-96.160837999999998
 30
0.0
 11
-9.9967449999999989
 21
-96.167013999999995
 31
0.0
  0
LINE
  5
19D
  8
DETAIL
  6
CONTINUOUS
 62
     5
 10
-9.9967449999999989
 20
-96.167013999999995
 30
0.0
 11
-9.9978149999999992
 21
-96.173212000000007
 31
0.0
  0
LINE
  5
19E
  8
DETAIL
  6
CONTINUOUS
 62
     5
 10
-9.9978149999999992
 20
-96.173212000000007
 30
0.0
 11
-9.9989289999999986
 21
-96.179428999999999
 31
0.0
  0
LINE
  5
19F
  8
DETAIL
  6
CONTINUOUS
 62
     5
 10
-9.9989289999999986
 20
-96.179428999999999
 30
0.0
 11
-10.000086
 21
-96.185661999999994
 31
0.0
  0
LINE
  5
1A0
  8
DETAIL
  6
CONTINUOUS
 62
     5
 10
-10.000086
 20
-96.185661999999994
 30
0.0
 11
-10.001287
 21
-96.191907999999998
 31
0.0
  0
LINE
  5
1A1
  8
DETAIL
  6
CONTINUOUS
 62
     5
 10
-10.001287
 20
-96.191907999999998
 30
0.0
 11
-10.002530999999999
 21
-96.198165000000003
 31
0.0
  0
LINE
  5
1A2
  8
DETAIL
  6
CONTINUOUS
 62
     5
 10
-10.002530999999999
 20
-96.198165000000003
 30
0.0
 11
-10.003818000000001
 21
-96.204429000000005
 31
0.0
  0
LINE
  5
1A3
  8
DETAIL
  6
CONTINUOUS
 62
     5
 10
-10.003818000000001
 20
-96.204429000000005
 30
0.0
 11
-10.005148999999999
 21
-96.210701
 31
0.0
  0
LINE
  5
1A4
  8
DETAIL
  6
CONTINUOUS
 62
     5
 10
-10.005148999999999
 20
-96.210701
 30
0.0
 11
-10.006523
 21
-96.216978999999995
 31
0.0
  0
LINE
  5
1A5
  8
DETAIL
  6
CONTINUOUS
 62
     5
 10
-10.006523
 20
-96.216978999999995
 30
0.0
 11
-10.007942
 21
-96.223263000000003
 31
0.0
  0
LINE
  5
1A6
  8
DETAIL
  6
CONTINUOUS
 62
     5
 10
-10.007942
 20
-96.223263000000003
 30
0.0
 11
-10.009404
 21
-96.229552999999996
 31
0.0
  0
LINE
  5
1A7
  8
DETAIL
  6
CONTINUOUS
 62
     5
 10
-10.009404
 20
-96.229552999999996
 30
0.0
 11
-10.010910000000001
 21
-96.235848000000004
 31
0.0
  0
LINE
  5
1A8
  8
DETAIL
  6
CONTINUOUS
 62
     5
 10
-10.010910000000001
 20
-96.235848000000004
 30
0.0
 11
-10.012461
 21
-96.242148999999998
 31
0.0
  0
LINE
  5
1A9
  8
DETAIL
  6
CONTINUOUS
 62
     5
 10
-10.012461
 20
-96.242148999999998
 30
0.0
 11
-10.014056999999999
 21
-96.248455000000007
 31
0.0
  0
LINE
  5
1AA
  8
DETAIL
  6
CONTINUOUS
 62
     5
 10
-10.014056999999999
 20
-96.248455000000007
 30
0.0
 11
-10.015696999999999
 21
-96.254766000000004
 31
0.0
  0
LINE
  5
1AB
  8
DETAIL
  6
CONTINUOUS
 62
     5
 10
-10.015696999999999
 20
-96.254766000000004
 30
0.0
 11
-10.017383000000001
 21
-96.261082000000002
 31
0.0
  0
LINE
  5
1AC
  8
DETAIL
  6
CONTINUOUS
 62
     5
 10
-10.017383000000001
 20
-96.261082000000002
 30
0.0
 11
-10.019114999999999
 21
-96.267402000000004
 31
0.0
  0
LINE
  5
1AD
  8
DETAIL
  6
CONTINUOUS
 62
     5
 10
-10.019114999999999
 20
-96.267402000000004
 30
0.0
 11
-10.020892
 21
-96.273726000000011
 31
0.0
  0
LINE
  5
1AE
  8
DETAIL
  6
CONTINUOUS
 62
     5
 10
-10.020892
 20
-96.273726000000011
 30
0.0
 11
-10.022716000000001
 21
-96.280053000000009
 31
0.0
  0
LINE
  5
1AF
  8
DETAIL
  6
CONTINUOUS
 62
     5
 10
-10.022716000000001
 20
-96.280053000000009
 30
0.0
 11
-10.024585999999999
 21
-96.286384999999996
 31
0.0
  0
LINE
  5
1B0
  8
DETAIL
  6
CONTINUOUS
 62
     5
 10
-10.024585999999999
 20
-96.286384999999996
 30
0.0
 11
-10.026502000000001
 21
-96.292718999999991
 31
0.0
  0
LINE
  5
1B1
  8
DETAIL
  6
CONTINUOUS
 62
     5
 10
-10.026502000000001
 20
-96.292718999999991
 30
0.0
 11
-10.028465000000001
 21
-96.299055999999993
 31
0.0
  0
LINE
  5
1B2
  8
DETAIL
  6
CONTINUOUS
 62
     5
 10
-10.028465000000001
 20
-96.299055999999993
 30
0.0
 11
-10.030474999999999
 21
-96.305396000000002
 31
0.0
  0
LINE
  5
1B3
  8
DETAIL
  6
CONTINUOUS
 62
     5
 10
-10.030474999999999
 20
-96.305396000000002
 30
0.0
 11
-10.032533000000001
 21
-96.311739000000003
 31
0.0
  0
LINE
  5
1B4
  8
DETAIL
  6
CONTINUOUS
 62
     5
 10
-10.032533000000001
 20
-96.311739000000003
 30
0.0
 11
-10.034637999999999
 21
-96.318083000000016
 31
0.0
  0
LINE
  5
1B5
  8
DETAIL
  6
CONTINUOUS
 62
     5
 10
-10.034637999999999
 20
-96.318083000000016
 30
0.0
 11
-10.03679
 21
-96.324428999999995
 31
0.0
  0
LINE
  5
1B6
  8
DETAIL
  6
CONTINUOUS
 62
     5
 10
-10.03679
 20
-96.324428999999995
 30
0.0
 11
-10.038990999999999
 21
-96.330776
 31
0.0
  0
LINE
  5
1B7
  8
DETAIL
  6
CONTINUOUS
 62
     5
 10
-10.038990999999999
 20
-96.330776
 30
0.0
 11
-10.041240999999999
 21
-96.337125000000015
 31
0.0
  0
LINE
  5
1B8
  8
DETAIL
  6
CONTINUOUS
 62
     5
 10
-10.041240999999999
 20
-96.337125000000015
 30
0.0
 11
-10.043538
 21
-96.343474000000015
 31
0.0
  0
LINE
  5
1B9
  8
DETAIL
  6
CONTINUOUS
 62
     5
 10
-10.043538
 20
-96.343474000000015
 30
0.0
 11
-10.045885
 21
-96.349823000000001
 31
0.0
  0
LINE
  5
1BA
  8
DETAIL
  6
CONTINUOUS
 62
     5
 10
-10.045885
 20
-96.349823000000001
 30
0.0
 11
-10.048280999999999
 21
-96.356172000000001
 31
0.0
  0
LINE
  5
1BB
  8
DETAIL
  6
CONTINUOUS
 62
     5
 10
-10.048280999999999
 20
-96.356172000000001
 30
0.0
 11
-10.050725
 21
-96.362522000000013
 31
0.0
  0
LINE
  5
1BC
  8
DETAIL
  6
CONTINUOUS
 62
     5
 10
-10.050725
 20
-96.362522000000013
 30
0.0
 11
-10.05322
 21
-96.368870000000015
 31
0.0
  0
LINE
  5
1BD
  8
DETAIL
  6
CONTINUOUS
 62
     5
 10
-10.05322
 20
-96.368870000000015
 30
0.0
 11
-10.055764
 21
-96.375218000000004
 31
0.0
  0
LINE
  5
1BE
  8
DETAIL
  6
CONTINUOUS
 62
     5
 10
-10.055764
 20
-96.375218000000004
 30
0.0
 11
-10.058358
 21
-96.381563999999983
 31
0.0
  0
LINE
  5
1BF
  8
DETAIL
  6
CONTINUOUS
 62
     5
 10
-10.058358
 20
-96.381563999999983
 30
0.0
 11
-10.061002999999999
 21
-96.387907999999996
 31
0.0
  0
LINE
  5
1C0
  8
DETAIL
  6
CONTINUOUS
 62
     5
 10
-10.061002999999999
 20
-96.387907999999996
 30
0.0
 11
-10.063698
 21
-96.394250000000014
 31
0.0
  0
LINE
  5
1C1
  8
DETAIL
  6
CONTINUOUS
 62
     5
 10
-10.063698
 20
-96.394250000000014
 30
0.0
 11
-10.066444000000001
 21
-96.400589999999994
 31
0.0
  0
LINE
  5
1C2
  8
DETAIL
  6
CONTINUOUS
 62
     5
 10
-10.066444000000001
 20
-96.400589999999994
 30
0.0
 11
-10.069241
 21
-96.406926999999996
 31
0.0
  0
LINE
  5
1C3
  8
DETAIL
  6
CONTINUOUS
 62
     5
 10
-10.069241
 20
-96.406926999999996
 30
0.0
 11
-10.072089
 21
-96.413261000000006
 31
0.0
  0
LINE
  5
1C4
  8
DETAIL
  6
CONTINUOUS
 62
     5
 10
-10.072089
 20
-96.413261000000006
 30
0.0
 11
-10.074987999999999
 21
-96.419591000000011
 31
0.0
  0
LINE
  5
1C5
  8
DETAIL
  6
CONTINUOUS
 62
     5
 10
-10.074987999999999
 20
-96.419591000000011
 30
0.0
 11
-10.077939000000001
 21
-96.42591800000001
 31
0.0
  0
LINE
  5
1C6
  8
DETAIL
  6
CONTINUOUS
 62
     5
 10
-10.077939000000001
 20
-96.42591800000001
 30
0.0
 11
-10.080943
 21
-96.432240000000007
 31
0.0
  0
LINE
  5
1C7
  8
DETAIL
  6
CONTINUOUS
 62
     5
 10
-10.080943
 20
-96.432240000000007
 30
0.0
 11
-10.083997999999999
 21
-96.438556999999989
 31
0.0
  0
LINE
  5
1C8
  8
DETAIL
  6
CONTINUOUS
 62
     5
 10
-10.083997999999999
 20
-96.438556999999989
 30
0.0
 11
-10.087106
 21
-96.444868000000014
 31
0.0
  0
LINE
  5
1C9
  8
DETAIL
  6
CONTINUOUS
 62
     5
 10
-10.087106
 20
-96.444868000000014
 30
0.0
 11
-10.090266
 21
-96.451175000000006
 31
0.0
  0
LINE
  5
1CA
  8
DETAIL
  6
CONTINUOUS
 62
     5
 10
-10.090266
 20
-96.451175000000006
 30
0.0
 11
-10.093479
 21
-96.457475000000002
 31
0.0
  0
LINE
  5
1CB
  8
DETAIL
  6
CONTINUOUS
 62
     5
 10
-10.093479
 20
-96.457475000000002
 30
0.0
 11
-10.096745
 21
-96.463768999999985
 31
0.0
  0
LINE
  5
1CC
  8
DETAIL
  6
CONTINUOUS
 62
     5
 10
-10.096745
 20
-96.463768999999985
 30
0.0
 11
-10.100065000000001
 21
-96.470055999999985
 31
0.0
  0
LINE
  5
1CD
  8
DETAIL
  6
CONTINUOUS
 62
     5
 10
-10.100065000000001
 20
-96.470055999999985
 30
0.0
 11
-10.103438000000001
 21
-96.476334999999992
 31
0.0
  0
LINE
  5
1CE
  8
DETAIL
  6
CONTINUOUS
 62
     5
 10
-10.103438000000001
 20
-96.476334999999992
 30
0.0
 11
-10.106865000000001
 21
-96.482607000000016
 31
0.0
  0
LINE
  5
1CF
  8
DETAIL
  6
CONTINUOUS
 62
     5
 10
-10.106865000000001
 20
-96.482607000000016
 30
0.0
 11
-10.110346
 21
-96.488871000000003
 31
0.0
  0
LINE
  5
1D0
  8
DETAIL
  6
CONTINUOUS
 62
     5
 10
-10.110346
 20
-96.488871000000003
 30
0.0
 11
-10.113880999999999
 21
-96.495126000000013
 31
0.0
  0
LINE
  5
1D1
  8
DETAIL
  6
CONTINUOUS
 62
     5
 10
-10.113880999999999
 20
-96.495126000000013
 30
0.0
 11
-10.117470000000001
 21
-96.501372000000003
 31
0.0
  0
LINE
  5
1D2
  8
DETAIL
  6
CONTINUOUS
 62
     5
 10
-10.117470000000001
 20
-96.501372000000003
 30
0.0
 11
-10.121114
 21
-96.507608000000005
 31
0.0
  0
LINE
  5
1D3
  8
DETAIL
  6
CONTINUOUS
 62
     5
 10
-10.121114
 20
-96.507608000000005
 30
0.0
 11
-10.124813
 21
-96.513834000000003
 31
0.0
  0
LINE
  5
1D4
  8
DETAIL
  6
CONTINUOUS
 62
     5
 10
-10.124813
 20
-96.513834000000003
 30
0.0
 11
-10.128567
 21
-96.520049999999998
 31
0.0
  0
LINE
  5
1D5
  8
DETAIL
  6
CONTINUOUS
 62
     5
 10
-10.128567
 20
-96.520049999999998
 30
0.0
 11
-10.132376000000001
 21
-96.526255000000006
 31
0.0
  0
LINE
  5
1D6
  8
DETAIL
  6
CONTINUOUS
 62
     5
 10
-10.132376000000001
 20
-96.526255000000006
 30
0.0
 11
-10.136240000000001
 21
-96.532449
 31
0.0
  0
LINE
  5
1D7
  8
DETAIL
  6
CONTINUOUS
 62
     5
 10
-10.136240000000001
 20
-96.532449
 30
0.0
 11
-10.14016
 21
-96.538630000000012
 31
0.0
  0
LINE
  5
1D8
  8
DETAIL
  6
CONTINUOUS
 62
     5
 10
-10.14016
 20
-96.538630000000012
 30
0.0
 11
-10.144136
 21
-96.544798999999998
 31
0.0
  0
LINE
  5
1D9
  8
DETAIL
  6
CONTINUOUS
 62
     5
 10
-10.144136
 20
-96.544798999999998
 30
0.0
 11
-10.148168
 21
-96.550955000000016
 31
0.0
  0
LINE
  5
1DA
  8
DETAIL
  6
CONTINUOUS
 62
     5
 10
-10.148168
 20
-96.550955000000016
 30
0.0
 11
-10.152256
 21
-96.557097999999996
 31
0.0
  0
LINE
  5
1DB
  8
DETAIL
  6
CONTINUOUS
 62
     5
 10
-10.152256
 20
-96.557097999999996
 30
0.0
 11
-10.1564
 21
-96.563226999999998
 31
0.0
  0
LINE
  5
1DC
  8
DETAIL
  6
CONTINUOUS
 62
     5
 10
-10.1564
 20
-96.563226999999998
 30
0.0
 11
-10.160601
 21
-96.569340999999994
 31
0.0
  0
LINE
  5
1DD
  8
DETAIL
  6
CONTINUOUS
 62
     5
 10
-10.160601
 20
-96.569340999999994
 30
0.0
 11
-10.164859
 21
-96.575440000000015
 31
0.0
  0
LINE
  5
1DE
  8
DETAIL
  6
CONTINUOUS
 62
     5
 10
-10.164859
 20
-96.575440000000015
 30
0.0
 11
-10.169174
 21
-96.581524000000002
 31
0.0
  0
LINE
  5
1DF
  8
DETAIL
  6
CONTINUOUS
 62
     5
 10
-10.169174
 20
-96.581524000000002
 30
0.0
 11
-10.173545000000001
 21
-96.587591000000003
 31
0.0
  0
LINE
  5
1E0
  8
DETAIL
  6
CONTINUOUS
 62
     5
 10
-10.173545000000001
 20
-96.587591000000003
 30
0.0
 11
-10.177974000000001
 21
-96.593642000000003
 31
0.0
  0
LINE
  5
1E1
  8
DETAIL
  6
CONTINUOUS
 62
     5
 10
-10.177974000000001
 20
-96.593642000000003
 30
0.0
 11
-10.182461
 21
-96.599676000000017
 31
0.0
  0
LINE
  5
1E2
  8
DETAIL
  6
CONTINUOUS
 62
     5
 10
-10.182461
 20
-96.599676000000017
 30
0.0
 11
-10.187004
 21
-96.605692000000005
 31
0.0
  0
LINE
  5
1E3
  8
DETAIL
  6
CONTINUOUS
 62
     5
 10
-10.187004
 20
-96.605692000000005
 30
0.0
 11
-10.191606999999999
 21
-96.611691000000022
 31
0.0
  0
LINE
  5
1E4
  8
DETAIL
  6
CONTINUOUS
 62
     5
 10
-10.191606999999999
 20
-96.611691000000022
 30
0.0
 11
-10.19627
 21
-96.617675000000006
 31
0.0
  0
LINE
  5
1E5
  8
DETAIL
  6
CONTINUOUS
 62
     5
 10
-10.19627
 20
-96.617675000000006
 30
0.0
 11
-10.200998999999999
 21
-96.623649
 31
0.0
  0
LINE
  5
1E6
  8
DETAIL
  6
CONTINUOUS
 62
     5
 10
-10.200998999999999
 20
-96.623649
 30
0.0
 11
-10.205797
 21
-96.629615999999999
 31
0.0
  0
LINE
  5
1E7
  8
DETAIL
  6
CONTINUOUS
 62
     5
 10
-10.205797
 20
-96.629615999999999
 30
0.0
 11
-10.210668999999999
 21
-96.635580000000004
 31
0.0
  0
LINE
  5
1E8
  8
DETAIL
  6
CONTINUOUS
 62
     5
 10
-10.210668999999999
 20
-96.635580000000004
 30
0.0
 11
-10.215619
 21
-96.641545999999991
 31
0.0
  0
LINE
  5
1E9
  8
DETAIL
  6
CONTINUOUS
 62
     5
 10
-10.215619
 20
-96.641545999999991
 30
0.0
 11
-10.220651999999999
 21
-96.647516000000024
 31
0.0
  0
LINE
  5
1EA
  8
DETAIL
  6
CONTINUOUS
 62
     5
 10
-10.220651999999999
 20
-96.647516000000024
 30
0.0
 11
-10.225773
 21
-96.653494999999992
 31
0.0
  0
LINE
  5
1EB
  8
DETAIL
  6
CONTINUOUS
 62
     5
 10
-10.225773
 20
-96.653494999999992
 30
0.0
 11
-10.230986
 21
-96.659483999999992
 31
0.0
  0
LINE
  5
1EC
  8
DETAIL
  6
CONTINUOUS
 62
     5
 10
-10.230986
 20
-96.659483999999992
 30
0.0
 11
-10.236295999999999
 21
-96.665489000000022
 31
0.0
  0
LINE
  5
1ED
  8
DETAIL
  6
CONTINUOUS
 62
     5
 10
-10.236295999999999
 20
-96.665489000000022
 30
0.0
 11
-10.241709
 21
-96.671509999999998
 31
0.0
  0
LINE
  5
1EE
  8
DETAIL
  6
CONTINUOUS
 62
     5
 10
-10.241709
 20
-96.671509999999998
 30
0.0
 11
-10.24723
 21
-96.677552000000006
 31
0.0
  0
LINE
  5
1EF
  8
DETAIL
  6
CONTINUOUS
 62
     5
 10
-10.24723
 20
-96.677552000000006
 30
0.0
 11
-10.252864000000001
 21
-96.683616999999998
 31
0.0
  0
LINE
  5
1F0
  8
DETAIL
  6
CONTINUOUS
 62
     5
 10
-10.252864000000001
 20
-96.683616999999998
 30
0.0
 11
-10.258616999999999
 21
-96.689707999999996
 31
0.0
  0
LINE
  5
1F1
  8
DETAIL
  6
CONTINUOUS
 62
     5
 10
-10.258616999999999
 20
-96.689707999999996
 30
0.0
 11
-10.264493999999999
 21
-96.695825999999997
 31
0.0
  0
LINE
  5
1F2
  8
DETAIL
  6
CONTINUOUS
 62
     5
 10
-10.264493999999999
 20
-96.695825999999997
 30
0.0
 11
-10.270500999999999
 21
-96.701972999999995
 31
0.0
  0
LINE
  5
1F3
  8
DETAIL
  6
CONTINUOUS
 62
     5
 10
-10.270500999999999
 20
-96.701972999999995
 30
0.0
 11
-10.276646
 21
-96.70815300000001
 31
0.0
  0
LINE
  5
1F4
  8
DETAIL
  6
CONTINUOUS
 62
     5
 10
-10.276646
 20
-96.70815300000001
 30
0.0
 11
-10.282933999999999
 21
-96.714366999999996
 31
0.0
  0
LINE
  5
1F5
  8
DETAIL
  6
CONTINUOUS
 62
     5
 10
-10.282933999999999
 20
-96.714366999999996
 30
0.0
 11
-10.289374
 21
-96.720618999999999
 31
0.0
  0
LINE
  5
1F6
  8
DETAIL
  6
CONTINUOUS
 62
     5
 10
-10.289374
 20
-96.720618999999999
 30
0.0
 11
-10.295975
 21
-96.726911999999999
 31
0.0
  0
LINE
  5
1F7
  8
DETAIL
  6
CONTINUOUS
 62
     5
 10
-10.295975
 20
-96.726911999999999
 30
0.0
 11
-10.302745
 21
-96.733249000000001
 31
0.0
  0
LINE
  5
1F8
  8
DETAIL
  6
CONTINUOUS
 62
     5
 10
-10.302745
 20
-96.733249000000001
 30
0.0
 11
-10.309695
 21
-96.739632999999998
 31
0.0
  0
LINE
  5
1F9
  8
DETAIL
  6
CONTINUOUS
 62
     5
 10
-10.309695
 20
-96.739632999999998
 30
0.0
 11
-10.316831000000001
 21
-96.746063000000007
 31
0.0
  0
LINE
  5
1FA
  8
DETAIL
  6
CONTINUOUS
 62
     5
 10
-10.316831000000001
 20
-96.746063000000007
 30
0.0
 11
-10.324165000000001
 21
-96.752545000000012
 31
0.0
  0
LINE
  5
1FB
  8
DETAIL
  6
CONTINUOUS
 62
     5
 10
-10.324165000000001
 20
-96.752545000000012
 30
0.0
 11
-10.331690999999999
 21
-96.759065000000007
 31
0.0
  0
LINE
  5
1FC
  8
DETAIL
  6
CONTINUOUS
 62
     5
 10
-10.331690999999999
 20
-96.759065000000007
 30
0.0
 11
-10.339407
 21
-96.765614999999997
 31
0.0
  0
LINE
  5
1FD
  8
DETAIL
  6
CONTINUOUS
 62
     5
 10
-10.339407
 20
-96.765614999999997
 30
0.0
 11
-10.347305
 21
-96.772182000000001
 31
0.0
  0
LINE
  5
1FE
  8
DETAIL
  6
CONTINUOUS
 62
     5
 10
-10.347305
 20
-96.772182000000001
 30
0.0
 11
-10.355377000000001
 21
-96.778754000000006
 31
0.0
  0
LINE
  5
1FF
  8
DETAIL
  6
CONTINUOUS
 62
     5
 10
-10.355377000000001
 20
-96.778754000000006
 30
0.0
 11
-10.363614
 21
-96.785318000000004
 31
0.0
  0
LINE
  5
200
  8
DETAIL
  6
CONTINUOUS
 62
     5
 10
-10.363614
 20
-96.785318000000004
 30
0.0
 11
-10.372007999999999
 21
-96.791863000000006
 31
0.0
  0
LINE
  5
201
  8
DETAIL
  6
CONTINUOUS
 62
     5
 10
-10.372007999999999
 20
-96.791863000000006
 30
0.0
 11
-10.380552
 21
-96.798378999999997
 31
0.0
  0
LINE
  5
202
  8
DETAIL
  6
CONTINUOUS
 62
     5
 10
-10.380552
 20
-96.798378999999997
 30
0.0
 11
-10.389234
 21
-96.80485400000002
 31
0.0
  0
LINE
  5
203
  8
DETAIL
  6
CONTINUOUS
 62
     5
 10
-10.389234
 20
-96.80485400000002
 30
0.0
 11
-10.398047999999999
 21
-96.811278999999985
 31
0.0
  0
LINE
  5
204
  8
DETAIL
  6
CONTINUOUS
 62
     5
 10
-10.398047999999999
 20
-96.811278999999985
 30
0.0
 11
-10.406981
 21
-96.817642000000006
 31
0.0
  0
LINE
  5
205
  8
DETAIL
  6
CONTINUOUS
 62
     5
 10
-10.406981
 20
-96.817642000000006
 30
0.0
 11
-10.416024999999999
 21
-96.823936000000003
 31
0.0
  0
LINE
  5
206
  8
DETAIL
  6
CONTINUOUS
 62
     5
 10
-10.416024999999999
 20
-96.823936000000003
 30
0.0
 11
-10.425166000000001
 21
-96.830149000000006
 31
0.0
  0
LINE
  5
207
  8
DETAIL
  6
CONTINUOUS
 62
     5
 10
-10.425166000000001
 20
-96.830149000000006
 30
0.0
 11
-10.434405999999999
 21
-96.836280000000002
 31
0.0
  0
LINE
  5
208
  8
DETAIL
  6
CONTINUOUS
 62
     5
 10
-10.434405999999999
 20
-96.836280000000002
 30
0.0
 11
-10.443737
 21
-96.842324000000005
 31
0.0
  0
LINE
  5
209
  8
DETAIL
  6
CONTINUOUS
 62
     5
 10
-10.443737
 20
-96.842324000000005
 30
0.0
 11
-10.453161
 21
-96.848280000000017
 31
0.0
  0
LINE
  5
20A
  8
DETAIL
  6
CONTINUOUS
 62
     5
 10
-10.453161
 20
-96.848280000000017
 30
0.0
 11
-10.462681
 21
-96.854148999999992
 31
0.0
  0
LINE
  5
20B
  8
DETAIL
  6
CONTINUOUS
 62
     5
 10
-10.462681
 20
-96.854148999999992
 30
0.0
 11
-10.472294
 21
-96.859928000000011
 31
0.0
  0
LINE
  5
20C
  8
DETAIL
  6
CONTINUOUS
 62
     5
 10
-10.472294
 20
-96.859928000000011
 30
0.0
 11
-10.482002
 21
-96.865616000000003
 31
0.0
  0
LINE
  5
20D
  8
DETAIL
  6
CONTINUOUS
 62
     5
 10
-10.482002
 20
-96.865616000000003
 30
0.0
 11
-10.491804999999999
 21
-96.871213000000012
 31
0.0
  0
LINE
  5
20E
  8
DETAIL
  6
CONTINUOUS
 62
     5
 10
-10.491804999999999
 20
-96.871213000000012
 30
0.0
 11
-10.501702999999999
 21
-96.876716000000016
 31
0.0
  0
LINE
  5
20F
  8
DETAIL
  6
CONTINUOUS
 62
     5
 10
-10.501702999999999
 20
-96.876716000000016
 30
0.0
 11
-10.511695
 21
-96.882125000000002
 31
0.0
  0
LINE
  5
210
  8
DETAIL
  6
CONTINUOUS
 62
     5
 10
-10.511695
 20
-96.882125000000002
 30
0.0
 11
-10.521784
 21
-96.887438000000003
 31
0.0
  0
LINE
  5
211
  8
DETAIL
  6
CONTINUOUS
 62
     5
 10
-10.521784
 20
-96.887438000000003
 30
0.0
 11
-10.531967
 21
-96.892652999999996
 31
0.0
  0
LINE
  5
212
  8
DETAIL
  6
CONTINUOUS
 62
     5
 10
-10.531967
 20
-96.892652999999996
 30
0.0
 11
-10.542246
 21
-96.897769999999994
 31
0.0
  0
LINE
  5
213
  8
DETAIL
  6
CONTINUOUS
 62
     5
 10
-10.542246
 20
-96.897769999999994
 30
0.0
 11
-10.552621
 21
-96.902785999999992
 31
0.0
  0
LINE
  5
214
  8
DETAIL
  6
CONTINUOUS
 62
     5
 10
-10.552621
 20
-96.902785999999992
 30
0.0
 11
-10.563091999999999
 21
-96.907700000000006
 31
0.0
  0
LINE
  5
215
  8
DETAIL
  6
CONTINUOUS
 62
     5
 10
-10.563091999999999
 20
-96.907700000000006
 30
0.0
 11
-10.573658999999999
 21
-96.912510000000012
 31
0.0
  0
LINE
  5
216
  8
DETAIL
  6
CONTINUOUS
 62
     5
 10
-10.573658999999999
 20
-96.912510000000012
 30
0.0
 11
-10.584322
 21
-96.91721600000001
 31
0.0
  0
LINE
  5
217
  8
DETAIL
  6
CONTINUOUS
 62
     5
 10
-10.584322
 20
-96.91721600000001
 30
0.0
 11
-10.595081
 21
-96.921813999999998
 31
0.0
  0
LINE
  5
218
  8
DETAIL
  6
CONTINUOUS
 62
     5
 10
-10.595081
 20
-96.921813999999998
 30
0.0
 11
-10.605936
 21
-96.926303000000004
 31
0.0
  0
LINE
  5
219
  8
DETAIL
  6
CONTINUOUS
 62
     5
 10
-10.605936
 20
-96.926303000000004
 30
0.0
 11
-10.616887
 21
-96.930683000000002
 31
0.0
  0
LINE
  5
21A
  8
DETAIL
  6
CONTINUOUS
 62
     5
 10
-10.616887
 20
-96.930683000000002
 30
0.0
 11
-10.627935000000001
 21
-96.934950000000001
 31
0.0
  0
LINE
  5
21B
  8
DETAIL
  6
CONTINUOUS
 62
     5
 10
-10.627935000000001
 20
-96.934950000000001
 30
0.0
 11
-10.639078
 21
-96.939102000000005
 31
0.0
  0
LINE
  5
21C
  8
DETAIL
  6
CONTINUOUS
 62
     5
 10
-10.639078
 20
-96.939102000000005
 30
0.0
 11
-10.650318
 21
-96.943139000000002
 31
0.0
  0
LINE
  5
21D
  8
DETAIL
  6
CONTINUOUS
 62
     5
 10
-10.650318
 20
-96.943139000000002
 30
0.0
 11
-10.661654
 21
-96.947058000000013
 31
0.0
  0
LINE
  5
21E
  8
DETAIL
  6
CONTINUOUS
 62
     5
 10
-10.661654
 20
-96.947058000000013
 30
0.0
 11
-10.673085
 21
-96.950856000000002
 31
0.0
  0
LINE
  5
21F
  8
DETAIL
  6
CONTINUOUS
 62
     5
 10
-10.673085
 20
-96.950856000000002
 30
0.0
 11
-10.684612
 21
-96.954532000000015
 31
0.0
  0
LINE
  5
220
  8
DETAIL
  6
CONTINUOUS
 62
     5
 10
-10.684612
 20
-96.954532000000015
 30
0.0
 11
-10.696235
 21
-96.958084999999997
 31
0.0
  0
LINE
  5
221
  8
DETAIL
  6
CONTINUOUS
 62
     5
 10
-10.696235
 20
-96.958084999999997
 30
0.0
 11
-10.707953
 21
-96.961510000000004
 31
0.0
  0
LINE
  5
222
  8
DETAIL
  6
CONTINUOUS
 62
     5
 10
-10.707953
 20
-96.961510000000004
 30
0.0
 11
-10.719766
 21
-96.964807999999991
 31
0.0
  0
LINE
  5
223
  8
DETAIL
  6
CONTINUOUS
 62
     5
 10
-10.719766
 20
-96.964807999999991
 30
0.0
 11
-10.731674
 21
-96.967974000000012
 31
0.0
  0
LINE
  5
224
  8
DETAIL
  6
CONTINUOUS
 62
     5
 10
-10.731674
 20
-96.967974000000012
 30
0.0
 11
-10.743676000000001
 21
-96.971007
 31
0.0
  0
LINE
  5
225
  8
DETAIL
  6
CONTINUOUS
 62
     5
 10
-10.743676000000001
 20
-96.971007
 30
0.0
 11
-10.755772
 21
-96.973905000000002
 31
0.0
  0
LINE
  5
226
  8
DETAIL
  6
CONTINUOUS
 62
     5
 10
-10.755772
 20
-96.973905000000002
 30
0.0
 11
-10.767962000000001
 21
-96.976664999999997
 31
0.0
  0
LINE
  5
227
  8
DETAIL
  6
CONTINUOUS
 62
     5
 10
-10.767962000000001
 20
-96.976664999999997
 30
0.0
 11
-10.780244
 21
-96.979285000000004
 31
0.0
  0
LINE
  5
228
  8
DETAIL
  6
CONTINUOUS
 62
     5
 10
-10.780244
 20
-96.979285000000004
 30
0.0
 11
-10.792619999999999
 21
-96.981762000000003
 31
0.0
  0
LINE
  5
229
  8
DETAIL
  6
CONTINUOUS
 62
     5
 10
-10.792619999999999
 20
-96.981762000000003
 30
0.0
 11
-10.805087
 21
-96.984093999999999
 31
0.0
  0
LINE
  5
22A
  8
DETAIL
  6
CONTINUOUS
 62
     5
 10
-10.805087
 20
-96.984093999999999
 30
0.0
 11
-10.817646
 21
-96.986277999999999
 31
0.0
  0
LINE
  5
22B
  8
DETAIL
  6
CONTINUOUS
 62
     5
 10
-10.817646
 20
-96.986277999999999
 30
0.0
 11
-10.830295
 21
-96.988311999999993
 31
0.0
  0
LINE
  5
22C
  8
DETAIL
  6
CONTINUOUS
 62
     5
 10
-10.830295
 20
-96.988311999999993
 30
0.0
 11
-10.843035
 21
-96.990192000000022
 31
0.0
  0
LINE
  5
22D
  8
DETAIL
  6
CONTINUOUS
 62
     5
 10
-10.843035
 20
-96.990192000000022
 30
0.0
 11
-10.855864
 21
-96.991917000000001
 31
0.0
  0
LINE
  5
22E
  8
DETAIL
  6
CONTINUOUS
 62
     5
 10
-10.855864
 20
-96.991917000000001
 30
0.0
 11
-10.868781
 21
-96.993483999999995
 31
0.0
  0
LINE
  5
22F
  8
DETAIL
  6
CONTINUOUS
 62
     5
 10
-10.868781
 20
-96.993483999999995
 30
0.0
 11
-10.881785000000001
 21
-96.994889000000001
 31
0.0
  0
LINE
  5
230
  8
DETAIL
  6
CONTINUOUS
 62
     5
 10
-10.881785000000001
 20
-96.994889000000001
 30
0.0
 11
-10.894876
 21
-96.996130000000008
 31
0.0
  0
LINE
  5
231
  8
DETAIL
  6
CONTINUOUS
 62
     5
 10
-10.894876
 20
-96.996130000000008
 30
0.0
 11
-10.908052
 21
-96.997204000000025
 31
0.0
  0
LINE
  5
232
  8
DETAIL
  6
CONTINUOUS
 62
     5
 10
-10.908052
 20
-96.997204000000025
 30
0.0
 11
-10.921312
 21
-96.998108000000016
 31
0.0
  0
LINE
  5
233
  8
DETAIL
  6
CONTINUOUS
 62
     5
 10
-10.921312
 20
-96.998108000000016
 30
0.0
 11
-10.934656
 21
-96.998839000000004
 31
0.0
  0
LINE
  5
234
  8
DETAIL
  6
CONTINUOUS
 62
     5
 10
-10.934656
 20
-96.998839000000004
 30
0.0
 11
-10.948081
 21
-96.999393999999995
 31
0.0
  0
LINE
  5
235
  8
DETAIL
  6
CONTINUOUS
 62
     5
 10
-10.948081
 20
-96.999393999999995
 30
0.0
 11
-10.961587
 21
-96.999770999999996
 31
0.0
  0
LINE
  5
236
  8
DETAIL
  6
CONTINUOUS
 62
     5
 10
-10.961587
 20
-96.999770999999996
 30
0.0
 11
-10.975171
 21
-96.999965000000003
 31
0.0
  0
LINE
  5
237
  8
DETAIL
  6
CONTINUOUS
 62
     5
 10
-10.975171
 20
-96.999965000000003
 30
0.0
 11
-10.982697999999999
 21
-96.999993000000003
 31
0.0
  0
LINE
  5
238
  8
DETAIL
  6
CONTINUOUS
 62
     5
 10
-9.8863899999999987
 20
-90.491274000000004
 30
0.0
 11
-9.9829410000000003
 21
-96.022043999999994
 31
0.0
  0
LINE
  5
239
  8
DETAIL
  6
CONTINUOUS
 62
     5
 10
-12.017151
 20
-96.017445999999993
 30
0.0
 11
-12.11361
 21
-90.491274000000004
 31
0.0
  0
ARC
  5
23A
  8
DETAIL
  6
CONTINUOUS
 62
     5
 10
-12.613530000000001
 20
-90.5
 30
0.0
 40
0.5
 50
1.0
 51
90.0
  0
ARC
  5
23B
  8
DETAIL
  6
CONTINUOUS
 62
     5
 10
-9.3864710000000002
 20
-90.5
 30
0.0
 40
0.5
 50
90.0
 51
179.0
  0
LINE
  5
23C
  8
DETAIL
  6
CONTINUOUS
 62
     5
 10
-62.485799
 20
-35.576405999999999
 30
0.0
 11
-62.087478000000011
 21
-53.361108999999999
 31
0.0
  0
LINE
  5
23D
  8
DETAIL
  6
CONTINUOUS
 62
     5
 10
-54.17516899999999
 20
-82.0
 30
0.0
 11
-25.080815000000001
 21
-82.0
 31
0.0
  0
LINE
  5
23E
  8
DETAIL
  6
CONTINUOUS
 62
     5
 10
-53.499446999999989
 20
-70.741831000000005
 30
0.0
 11
-54.65408
 21
-70.761984999999996
 31
0.0
  0
LINE
  5
23F
  8
DETAIL
  6
CONTINUOUS
 62
     5
 10
-62.087478000000011
 20
-53.361108999999999
 30
0.0
 11
-61.529870999999993
 21
-71.141599999999997
 31
0.0
  0
LINE
  5
240
  8
DETAIL
  6
CONTINUOUS
 62
     5
 10
-55.783081999999993
 20
-88.753747000000004
 30
0.0
 11
-55.780929
 21
-88.782228000000003
 31
0.0
  0
LINE
  5
241
  8
DETAIL
  6
CONTINUOUS
 62
     5
 10
-55.784371999999991
 20
-88.724851000000001
 30
0.0
 11
-55.783081999999993
 21
-88.753747000000004
 31
0.0
  0
LINE
  5
242
  8
DETAIL
  6
CONTINUOUS
 62
     5
 10
-55.784810999999998
 20
-88.695401000000004
 30
0.0
 11
-55.784371999999991
 21
-88.724851000000001
 31
0.0
  0
LINE
  5
243
  8
DETAIL
  6
CONTINUOUS
 62
     5
 10
-57.5
 20
-88.500151999999986
 30
0.0
 11
-57.0
 21
-88.491425000000007
 31
0.0
  0
ARC
  5
244
  8
DETAIL
  6
CONTINUOUS
 62
     5
 10
-60.158641000000003
 20
-79.074255000000008
 30
0.0
 40
0.3
 50
180.0
 51
267.0
  0
ARC
  5
245
  8
DETAIL
  6
CONTINUOUS
 62
     5
 10
-60.079592000000012
 20
-81.078397999999979
 30
0.0
 40
0.3
 50
180.0
 51
267.0
  0
ARC
  5
246
  8
DETAIL
  6
CONTINUOUS
 62
     5
 10
-59.998564000000002
 20
-83.082643999999974
 30
0.0
 40
0.3
 50
180.0
 51
267.0
  0
ARC
  5
247
  8
DETAIL
  6
CONTINUOUS
 62
     5
 10
-59.916144999999993
 20
-85.072963999999985
 30
0.0
 40
0.3
 50
180.0
 51
267.0
  0
ARC
  5
248
  8
DETAIL
  6
CONTINUOUS
 62
     5
 10
-60.158641000000003
 20
-78.953744999999984
 30
0.0
 40
0.3
 50
93.000212000000005
 51
180.0
  0
ARC
  5
249
  8
DETAIL
  6
CONTINUOUS
 62
     5
 10
-60.079592000000012
 20
-80.949601999999999
 30
0.0
 40
0.3
 50
93.000111000000004
 51
180.0
  0
ARC
  5
24A
  8
DETAIL
  6
CONTINUOUS
 62
     5
 10
-59.998564000000002
 20
-82.945356000000004
 30
0.0
 40
0.3
 50
93.000264000000001
 51
180.0
  0
ARC
  5
24B
  8
DETAIL
  6
CONTINUOUS
 62
     5
 10
-59.916144999999993
 20
-84.927036000000001
 30
0.0
 40
0.3
 50
93.00041299999998
 51
180.0
  0
LINE
  5
24C
  8
DETAIL
  6
CONTINUOUS
 62
     5
 10
-60.458641
 20
-79.074255000000008
 30
0.0
 11
-60.458641
 21
-78.953744999999984
 31
0.0
  0
LINE
  5
24D
  8
DETAIL
  6
CONTINUOUS
 62
     5
 10
-60.379592000000002
 20
-81.078397999999979
 30
0.0
 11
-60.379592000000002
 21
-80.949601999999999
 31
0.0
  0
LINE
  5
24E
  8
DETAIL
  6
CONTINUOUS
 62
     5
 10
-60.298563999999992
 20
-83.082643999999974
 30
0.0
 11
-60.298563999999992
 21
-82.945356000000004
 31
0.0
  0
LINE
  5
24F
  8
DETAIL
  6
CONTINUOUS
 62
     5
 10
-60.216144999999997
 20
-85.072963999999985
 30
0.0
 11
-60.216144999999997
 21
-84.927036000000001
 31
0.0
  0
LINE
  5
250
  8
DETAIL
  6
CONTINUOUS
 62
     5
 10
-60.016492999999997
 20
-83.378516999999988
 30
0.0
 11
-60.014265000000002
 21
-83.382233000000014
 31
0.0
  0
LINE
  5
251
  8
DETAIL
  6
CONTINUOUS
 62
     5
 10
-60.174343000000007
 20
-78.654156
 30
0.0
 11
-57.5
 21
-78.513999999999996
 31
0.0
  0
LINE
  5
252
  8
DETAIL
  6
CONTINUOUS
 62
     5
 10
-60.095292999999998
 20
-80.650013999999985
 30
0.0
 11
-57.5
 21
-80.513999999999996
 31
0.0
  0
LINE
  5
253
  8
DETAIL
  6
CONTINUOUS
 62
     5
 10
-60.014266000000013
 20
-82.645767000000006
 30
0.0
 11
-57.5
 21
-82.513999999999996
 31
0.0
  0
LINE
  5
254
  8
DETAIL
  6
CONTINUOUS
 62
     5
 10
-59.931844999999988
 20
-84.627448000000015
 30
0.0
 11
-57.5
 21
-84.500000000000014
 31
0.0
  0
LINE
  5
255
  8
DETAIL
  6
CONTINUOUS
 62
     5
 10
-57.5
 20
-79.513999999999996
 30
0.0
 11
-60.174340999999998
 21
-79.373843999999991
 31
0.0
  0
LINE
  5
256
  8
DETAIL
  6
CONTINUOUS
 62
     5
 10
-57.5
 20
-81.513999999999996
 30
0.0
 11
-60.095292999999998
 21
-81.377985999999993
 31
0.0
  0
LINE
  5
257
  8
DETAIL
  6
CONTINUOUS
 62
     5
 10
-57.5
 20
-83.513999999999996
 30
0.0
 11
-60.014265000000002
 21
-83.382233000000014
 31
0.0
  0
LINE
  5
258
  8
DETAIL
  6
CONTINUOUS
 62
     5
 10
-57.5
 20
-85.5
 30
0.0
 11
-59.931844999999988
 21
-85.372551999999999
 31
0.0
  0
LINE
  5
259
  8
DETAIL
  6
CONTINUOUS
 62
     5
 10
-54.233313000000003
 20
-81.996301000000003
 30
0.0
 11
-54.304574000000002
 21
-81.982963999999996
 31
0.0
  0
LINE
  5
25A
  8
DETAIL
  6
CONTINUOUS
 62
     5
 10
-54.240609999999997
 20
-81.995699000000002
 30
0.0
 11
-54.17516899999999
 21
-82.0
 31
0.0
  0
LINE
  5
25B
  8
DETAIL
  6
CONTINUOUS
 62
     5
 10
-54.67516899999999
 20
-81.5
 30
0.0
 11
-54.672885000000001
 21
-81.547735000000003
 31
0.0
  0
LINE
  5
25C
  8
DETAIL
  6
CONTINUOUS
 62
     5
 10
-54.672885000000001
 20
-81.547735000000003
 30
0.0
 11
-54.662526
 21
-81.611728000000014
 31
0.0
  0
LINE
  5
25D
  8
DETAIL
  6
CONTINUOUS
 62
     5
 10
-54.662526
 20
-81.611728000000014
 30
0.0
 11
-54.643547999999988
 21
-81.674990000000008
 31
0.0
  0
LINE
  5
25E
  8
DETAIL
  6
CONTINUOUS
 62
     5
 10
-54.643547999999988
 20
-81.674990000000008
 30
0.0
 11
-54.615967000000012
 21
-81.736000999999987
 31
0.0
  0
LINE
  5
25F
  8
DETAIL
  6
CONTINUOUS
 62
     5
 10
-54.615967000000012
 20
-81.736000999999987
 30
0.0
 11
-54.579886999999999
 21
-81.793603000000004
 31
0.0
  0
LINE
  5
260
  8
DETAIL
  6
CONTINUOUS
 62
     5
 10
-54.579886999999999
 20
-81.793603000000004
 30
0.0
 11
-54.536099999999998
 21
-81.846018999999998
 31
0.0
  0
LINE
  5
261
  8
DETAIL
  6
CONTINUOUS
 62
     5
 10
-54.536099999999998
 20
-81.846018999999998
 30
0.0
 11
-54.485558999999988
 21
-81.891992000000002
 31
0.0
  0
LINE
  5
262
  8
DETAIL
  6
CONTINUOUS
 62
     5
 10
-54.485558999999988
 20
-81.891992000000002
 30
0.0
 11
-54.429501000000002
 21
-81.930481999999984
 31
0.0
  0
LINE
  5
263
  8
DETAIL
  6
CONTINUOUS
 62
     5
 10
-54.429501000000002
 20
-81.930481999999984
 30
0.0
 11
-54.368260999999997
 21
-81.961210999999992
 31
0.0
  0
LINE
  5
264
  8
DETAIL
  6
CONTINUOUS
 62
     5
 10
-54.292448
 20
-81.984775999999997
 30
0.0
 11
-54.368260999999997
 21
-81.961210999999992
 31
0.0
  0
LINE
  5
265
  8
DETAIL
  6
CONTINUOUS
 62
     5
 10
-54.573941000000012
 20
-70.760586000000004
 30
0.0
 11
-54.574078
 21
-70.773151999999996
 31
0.0
  0
LINE
  5
266
  8
DETAIL
  6
CONTINUOUS
 62
     5
 10
-54.67516899999999
 20
-70.762353000000004
 30
0.0
 11
-54.67516899999999
 21
-81.5
 31
0.0
  0
LINE
  5
267
  8
DETAIL
  6
CONTINUOUS
 62
     5
 10
-24.999673000000001
 20
-81.018816999999984
 30
0.0
 11
-53.008648999999998
 21
-80.534261000000015
 31
0.0
  0
LINE
  5
268
  8
DETAIL
  6
CONTINUOUS
 62
     5
 10
-53.008648999999998
 20
-78.965738999999985
 30
0.0
 11
-25.000001000000001
 21
-78.481188000000003
 31
0.0
  0
LINE
  5
269
  8
DETAIL
  6
CONTINUOUS
 62
     5
 10
-25.0
 20
-72.5
 30
0.0
 11
-53.202618000000001
 21
-72.644211999999996
 31
0.0
  0
LINE
  5
26A
  8
DETAIL
  6
CONTINUOUS
 62
     5
 10
-25.0
 20
-70.936377000000007
 30
0.0
 11
-53.202618000000001
 21
-70.834429999999983
 31
0.0
  0
LINE
  5
26B
  8
DETAIL
  6
CONTINUOUS
 62
     5
 10
-53.210018000000012
 20
-70.148696999999999
 30
0.0
 11
-25.0
 21
-69.206142
 31
0.0
  0
LINE
  5
26C
  8
DETAIL
  6
CONTINUOUS
 62
     5
 10
-48.613609999999987
 20
-88.508725999999996
 30
0.0
 11
-48.508575
 21
-82.491274000000004
 31
0.0
  0
ARC
  5
26D
  8
DETAIL
  6
CONTINUOUS
 62
     5
 10
-48.008651
 20
-82.5
 30
0.0
 40
0.5
 50
90.0
 51
179.0
  0
LINE
  5
26E
  8
DETAIL
  6
CONTINUOUS
 62
     5
 10
-53.008648999999998
 20
-80.534261000000015
 30
0.0
 11
-53.076261000000002
 21
-80.528485000000003
 31
0.0
  0
LINE
  5
26F
  8
DETAIL
  6
CONTINUOUS
 62
     5
 10
-53.076261000000002
 20
-80.528485000000003
 30
0.0
 11
-53.140037
 21
-80.514324000000016
 31
0.0
  0
LINE
  5
270
  8
DETAIL
  6
CONTINUOUS
 62
     5
 10
-53.140037
 20
-80.514324000000016
 30
0.0
 11
-53.200521999999999
 21
-80.492365000000007
 31
0.0
  0
LINE
  5
271
  8
DETAIL
  6
CONTINUOUS
 62
     5
 10
-53.200521999999999
 20
-80.492365000000007
 30
0.0
 11
-53.257451000000003
 21
-80.462959999999995
 31
0.0
  0
LINE
  5
272
  8
DETAIL
  6
CONTINUOUS
 62
     5
 10
-53.257451000000003
 20
-80.462959999999995
 30
0.0
 11
-53.309882000000002
 21
-80.426730000000006
 31
0.0
  0
LINE
  5
273
  8
DETAIL
  6
CONTINUOUS
 62
     5
 10
-53.309882000000002
 20
-80.426730000000006
 30
0.0
 11
-53.35734999999999
 21
-80.384050999999999
 31
0.0
  0
LINE
  5
274
  8
DETAIL
  6
CONTINUOUS
 62
     5
 10
-53.35734999999999
 20
-80.384050999999999
 30
0.0
 11
-53.398922999999989
 21
-80.335766000000007
 31
0.0
  0
LINE
  5
275
  8
DETAIL
  6
CONTINUOUS
 62
     5
 10
-53.398922999999989
 20
-80.335766000000007
 30
0.0
 11
-53.434083000000001
 21
-80.282472999999996
 31
0.0
  0
LINE
  5
276
  8
DETAIL
  6
CONTINUOUS
 62
     5
 10
-53.434083000000001
 20
-80.282472999999996
 30
0.0
 11
-53.462150000000001
 21
-80.225168000000011
 31
0.0
  0
LINE
  5
277
  8
DETAIL
  6
CONTINUOUS
 62
     5
 10
-53.462150000000001
 20
-80.225168000000011
 30
0.0
 11
-53.482817000000011
 21
-80.164287999999985
 31
0.0
  0
LINE
  5
278
  8
DETAIL
  6
CONTINUOUS
 62
     5
 10
-53.482817000000011
 20
-80.164287999999985
 30
0.0
 11
-53.495649
 21
-80.100154999999987
 31
0.0
  0
LINE
  5
279
  8
DETAIL
  6
CONTINUOUS
 62
     5
 10
-53.495649
 20
-80.100154999999987
 30
0.0
 11
-53.5
 21
-80.034334999999984
 31
0.0
  0
LINE
  5
27A
  8
DETAIL
  6
CONTINUOUS
 62
     5
 10
-53.008648999999998
 20
-78.965738999999985
 30
0.0
 11
-53.076261000000002
 21
-78.971514999999997
 31
0.0
  0
LINE
  5
27B
  8
DETAIL
  6
CONTINUOUS
 62
     5
 10
-53.076261000000002
 20
-78.971514999999997
 30
0.0
 11
-53.140037999999997
 21
-78.985675999999984
 31
0.0
  0
LINE
  5
27C
  8
DETAIL
  6
CONTINUOUS
 62
     5
 10
-53.140037999999997
 20
-78.985675999999984
 30
0.0
 11
-53.200521999999999
 21
-79.007634999999993
 31
0.0
  0
LINE
  5
27D
  8
DETAIL
  6
CONTINUOUS
 62
     5
 10
-53.200521999999999
 20
-79.007634999999993
 30
0.0
 11
-53.257451000000003
 21
-79.037040000000005
 31
0.0
  0
LINE
  5
27E
  8
DETAIL
  6
CONTINUOUS
 62
     5
 10
-53.257451000000003
 20
-79.037040000000005
 30
0.0
 11
-53.309882000000002
 21
-79.073269999999994
 31
0.0
  0
LINE
  5
27F
  8
DETAIL
  6
CONTINUOUS
 62
     5
 10
-53.309882000000002
 20
-79.073269999999994
 30
0.0
 11
-53.35734999999999
 21
-79.115949000000001
 31
0.0
  0
LINE
  5
280
  8
DETAIL
  6
CONTINUOUS
 62
     5
 10
-53.35734999999999
 20
-79.115949000000001
 30
0.0
 11
-53.398922999999989
 21
-79.164233999999993
 31
0.0
  0
LINE
  5
281
  8
DETAIL
  6
CONTINUOUS
 62
     5
 10
-53.398922999999989
 20
-79.164233999999993
 30
0.0
 11
-53.434083000000001
 21
-79.217527000000004
 31
0.0
  0
LINE
  5
282
  8
DETAIL
  6
CONTINUOUS
 62
     5
 10
-53.434083000000001
 20
-79.217527000000004
 30
0.0
 11
-53.462150000000001
 21
-79.274831999999989
 31
0.0
  0
LINE
  5
283
  8
DETAIL
  6
CONTINUOUS
 62
     5
 10
-53.462150000000001
 20
-79.274831999999989
 30
0.0
 11
-53.482817000000011
 21
-79.335712000000001
 31
0.0
  0
LINE
  5
284
  8
DETAIL
  6
CONTINUOUS
 62
     5
 10
-53.482817000000011
 20
-79.335712000000001
 30
0.0
 11
-53.495649
 21
-79.399844999999999
 31
0.0
  0
LINE
  5
285
  8
DETAIL
  6
CONTINUOUS
 62
     5
 10
-53.495649
 20
-79.399844999999999
 30
0.0
 11
-53.5
 21
-79.465665000000001
 31
0.0
  0
LINE
  5
286
  8
DETAIL
  6
CONTINUOUS
 62
     5
 10
-53.008648999999998
 20
-78.965738999999985
 30
0.0
 11
-53.008823
 21
-78.966177999999999
 31
0.0
  0
LINE
  5
287
  8
DETAIL
  6
CONTINUOUS
 62
     5
 10
-53.008823
 20
-78.966177999999999
 30
0.0
 11
-53.009053000000002
 21
-78.968423999999999
 31
0.0
  0
LINE
  5
288
  8
DETAIL
  6
CONTINUOUS
 62
     5
 10
-53.5
 20
-79.465665000000001
 30
0.0
 11
-53.5
 21
-80.034334999999984
 31
0.0
  0
LINE
  5
289
  8
DETAIL
  6
CONTINUOUS
 62
     5
 10
-53.5
 20
-72.225154000000003
 30
0.0
 11
-53.496091999999997
 21
-72.289664999999999
 31
0.0
  0
LINE
  5
28A
  8
DETAIL
  6
CONTINUOUS
 62
     5
 10
-53.496091999999997
 20
-72.289664999999999
 30
0.0
 11
-53.486808000000003
 21
-72.349354000000005
 31
0.0
  0
LINE
  5
28B
  8
DETAIL
  6
CONTINUOUS
 62
     5
 10
-53.486808000000003
 20
-72.349354000000005
 30
0.0
 11
-53.471809999999991
 21
-72.404343999999995
 31
0.0
  0
LINE
  5
28C
  8
DETAIL
  6
CONTINUOUS
 62
     5
 10
-53.471809999999991
 20
-72.404343999999995
 30
0.0
 11
-53.45211299999999
 21
-72.454269999999994
 31
0.0
  0
LINE
  5
28D
  8
DETAIL
  6
CONTINUOUS
 62
     5
 10
-53.45211299999999
 20
-72.454269999999994
 30
0.0
 11
-53.428440000000002
 21
-72.498908
 31
0.0
  0
LINE
  5
28E
  8
DETAIL
  6
CONTINUOUS
 62
     5
 10
-53.428440000000002
 20
-72.498908
 30
0.0
 11
-53.401336999999991
 21
-72.537959000000001
 31
0.0
  0
LINE
  5
28F
  8
DETAIL
  6
CONTINUOUS
 62
     5
 10
-53.401336999999991
 20
-72.537959000000001
 30
0.0
 11
-53.371324999999999
 21
-72.571108999999993
 31
0.0
  0
LINE
  5
290
  8
DETAIL
  6
CONTINUOUS
 62
     5
 10
-53.371324999999999
 20
-72.571108999999993
 30
0.0
 11
-53.339199000000001
 21
-72.598175999999995
 31
0.0
  0
LINE
  5
291
  8
DETAIL
  6
CONTINUOUS
 62
     5
 10
-53.339199000000001
 20
-72.598175999999995
 30
0.0
 11
-53.305782999999991
 21
-72.618762000000004
 31
0.0
  0
LINE
  5
292
  8
DETAIL
  6
CONTINUOUS
 62
     5
 10
-53.305782999999991
 20
-72.618762000000004
 30
0.0
 11
-53.271520999999993
 21
-72.633196999999996
 31
0.0
  0
LINE
  5
293
  8
DETAIL
  6
CONTINUOUS
 62
     5
 10
-53.271520999999993
 20
-72.633196999999996
 30
0.0
 11
-53.237221999999988
 21
-72.641705000000002
 31
0.0
  0
LINE
  5
294
  8
DETAIL
  6
CONTINUOUS
 62
     5
 10
-53.237221999999988
 20
-72.641705000000002
 30
0.0
 11
-53.202618000000001
 21
-72.644211999999996
 31
0.0
  0
LINE
  5
295
  8
DETAIL
  6
CONTINUOUS
 62
     5
 10
-53.5
 20
-70.448529000000008
 30
0.0
 11
-53.5
 21
-72.225154000000003
 31
0.0
  0
LINE
  5
296
  8
DETAIL
  6
CONTINUOUS
 62
     5
 10
-53.486659000000003
 20
-70.74681600000001
 30
0.0
 11
-53.496678000000003
 21
-70.728828000000007
 31
0.0
  0
LINE
  5
297
  8
DETAIL
  6
CONTINUOUS
 62
     5
 10
-53.496678000000003
 20
-70.728828000000007
 30
0.0
 11
-53.5
 21
-70.710171000000003
 31
0.0
  0
LINE
  5
298
  8
DETAIL
  6
CONTINUOUS
 62
     5
 10
-53.446852999999997
 20
-70.780785999999992
 30
0.0
 11
-53.469991
 21
-70.764343999999994
 31
0.0
  0
LINE
  5
299
  8
DETAIL
  6
CONTINUOUS
 62
     5
 10
-53.469991
 20
-70.764343999999994
 30
0.0
 11
-53.486659000000003
 21
-70.74681600000001
 31
0.0
  0
LINE
  5
29A
  8
DETAIL
  6
CONTINUOUS
 62
     5
 10
-53.382657999999999
 20
-70.808746999999997
 30
0.0
 11
-53.417572999999997
 21
-70.79571700000001
 31
0.0
  0
LINE
  5
29B
  8
DETAIL
  6
CONTINUOUS
 62
     5
 10
-53.417572999999997
 20
-70.79571700000001
 30
0.0
 11
-53.446852999999997
 21
-70.780785999999992
 31
0.0
  0
LINE
  5
29C
  8
DETAIL
  6
CONTINUOUS
 62
     5
 10
-53.342773999999999
 20
-70.819440999999998
 30
0.0
 11
-53.382657999999999
 21
-70.808746999999997
 31
0.0
  0
LINE
  5
29D
  8
DETAIL
  6
CONTINUOUS
 62
     5
 10
-53.202618000000001
 20
-70.834429999999983
 30
0.0
 11
-53.251663999999998
 21
-70.832447999999999
 31
0.0
  0
LINE
  5
29E
  8
DETAIL
  6
CONTINUOUS
 62
     5
 10
-53.251663999999998
 20
-70.832447999999999
 30
0.0
 11
-53.298774999999999
 21
-70.827506
 31
0.0
  0
LINE
  5
29F
  8
DETAIL
  6
CONTINUOUS
 62
     5
 10
-53.298774999999999
 20
-70.827506
 30
0.0
 11
-53.342773999999999
 21
-70.819440999999998
 31
0.0
  0
LINE
  5
2A0
  8
DETAIL
  6
CONTINUOUS
 62
     5
 10
-53.210018000000012
 20
-70.148696999999999
 30
0.0
 11
-53.256304000000007
 21
-70.153859999999995
 31
0.0
  0
LINE
  5
2A1
  8
DETAIL
  6
CONTINUOUS
 62
     5
 10
-53.256304000000007
 20
-70.153859999999995
 30
0.0
 11
-53.300783000000003
 21
-70.165965
 31
0.0
  0
LINE
  5
2A2
  8
DETAIL
  6
CONTINUOUS
 62
     5
 10
-53.300783000000003
 20
-70.165965
 30
0.0
 11
-53.342775000000003
 21
-70.184681999999995
 31
0.0
  0
LINE
  5
2A3
  8
DETAIL
  6
CONTINUOUS
 62
     5
 10
-53.342775000000003
 20
-70.184681999999995
 30
0.0
 11
-53.381390000000003
 21
-70.209578000000008
 31
0.0
  0
LINE
  5
2A4
  8
DETAIL
  6
CONTINUOUS
 62
     5
 10
-53.381390000000003
 20
-70.209578000000008
 30
0.0
 11
-53.415734999999991
 21
-70.240063000000006
 31
0.0
  0
LINE
  5
2A5
  8
DETAIL
  6
CONTINUOUS
 62
     5
 10
-53.415734999999991
 20
-70.240063000000006
 30
0.0
 11
-53.445048
 21
-70.275464999999997
 31
0.0
  0
LINE
  5
2A6
  8
DETAIL
  6
CONTINUOUS
 62
     5
 10
-53.445048
 20
-70.275464999999997
 30
0.0
 11
-53.468536999999998
 21
-70.314784000000003
 31
0.0
  0
LINE
  5
2A7
  8
DETAIL
  6
CONTINUOUS
 62
     5
 10
-53.468536999999998
 20
-70.314784000000003
 30
0.0
 11
-53.485804000000002
 21
-70.357336000000004
 31
0.0
  0
LINE
  5
2A8
  8
DETAIL
  6
CONTINUOUS
 62
     5
 10
-53.485804000000002
 20
-70.357336000000004
 30
0.0
 11
-53.496420999999998
 21
-70.402331000000004
 31
0.0
  0
LINE
  5
2A9
  8
DETAIL
  6
CONTINUOUS
 62
     5
 10
-53.496420999999998
 20
-70.402331000000004
 30
0.0
 11
-53.5
 21
-70.448529000000008
 31
0.0
  0
LINE
  5
2AA
  8
DETAIL
  6
CONTINUOUS
 62
     5
 10
-44.70641599999999
 20
-69.864574000000005
 30
0.0
 11
-45.47616699999999
 21
-69.878010000000003
 31
0.0
  0
LINE
  5
2AB
  8
DETAIL
  6
CONTINUOUS
 62
     5
 10
-45.491762999999999
 20
-69.890814000000006
 30
0.0
 11
-45.446415000000002
 21
-69.853584999999995
 31
0.0
  0
LINE
  5
2AC
  8
DETAIL
  6
CONTINUOUS
 62
     5
 10
-46.557833000000002
 20
-69.926434
 30
0.0
 11
-46.57797999999999
 21
-69.915654000000004
 31
0.0
  0
LINE
  5
2AD
  8
DETAIL
  6
CONTINUOUS
 62
     5
 10
-46.57797999999999
 20
-69.915654000000004
 30
0.0
 11
-46.653584999999993
 21
-69.853584999999995
 31
0.0
  0
LINE
  5
2AE
  8
DETAIL
  6
CONTINUOUS
 62
     5
 10
-25.089542000000002
 20
-81.5
 30
0.0
 11
-24.991302999999998
 21
-81.498255
 31
0.0
  0
LINE
  5
2AF
  8
DETAIL
  6
CONTINUOUS
 62
     5
 10
-24.999673000000001
 20
-81.018743000000001
 30
0.0
 11
-24.996828000000001
 21
-81.014818999999989
 31
0.0
  0
LINE
  5
2B0
  8
DETAIL
  6
CONTINUOUS
 62
     5
 10
-25.0
 20
-69.206142
 30
0.0
 11
-25.0
 21
-70.936377000000007
 31
0.0
  0
LINE
  5
2B1
  8
DETAIL
  6
CONTINUOUS
 62
     5
 10
-25.0
 20
-78.481188000000003
 30
0.0
 11
-25.0
 21
-81.017543000000003
 31
0.0
  0
LINE
  5
2B2
  8
DETAIL
  6
CONTINUOUS
 62
     5
 10
-25.0
 20
-78.481262000000001
 30
0.0
 11
-25.0
 21
-70.936377000000007
 31
0.0
  0
ARC
  5
2B3
  8
DETAIL
  6
CONTINUOUS
 62
     5
 10
-25.080815000000001
 20
-82.099999999999994
 30
0.0
 40
0.1
 50
0.9999870000000001
 51
90.0
  0
LINE
  5
2B4
  8
DETAIL
  6
CONTINUOUS
 62
     5
 10
-53.0
 20
-62.561093000000007
 30
0.0
 11
-43.0
 21
-62.735643000000003
 31
0.0
  0
LINE
  5
2B5
  8
DETAIL
  6
CONTINUOUS
 62
     5
 10
-52.5
 20
-52.569819999999993
 30
0.0
 11
-52.5
 21
-50.5
 31
0.0
  0
LINE
  5
2B6
  8
DETAIL
  6
CONTINUOUS
 62
     5
 10
-50.0
 20
-52.613457999999987
 30
0.0
 11
-50.0
 21
-50.5
 31
0.0
  0
LINE
  5
2B7
  8
DETAIL
  6
CONTINUOUS
 62
     5
 10
-48.899999999999999
 20
-47.0
 30
0.0
 11
-49.0
 21
-47.0
 31
0.0
  0
ARC
  5
2B8
  8
DETAIL
  6
CONTINUOUS
 62
     5
 10
-49.0
 20
-50.5
 30
0.0
 40
3.5
 50
90.0
 51
180.0
  0
LINE
  5
2B9
  8
DETAIL
  6
CONTINUOUS
 62
     5
 10
-49.0
 20
-47.0
 30
0.0
 11
-48.79999999999999
 21
-47.0
 31
0.0
  0
LINE
  5
2BA
  8
DETAIL
  6
CONTINUOUS
 62
     5
 10
-45.299999999999997
 20
-52.695496999999989
 30
0.0
 11
-45.299999999999997
 21
-50.5
 31
0.0
  0
LINE
  5
2BB
  8
DETAIL
  6
CONTINUOUS
 62
     5
 10
-46.79999999999999
 20
-52.669314
 30
0.0
 11
-46.79999999999999
 21
-50.5
 31
0.0
  0
ARC
  5
2BC
  8
DETAIL
  6
CONTINUOUS
 62
     5
 10
-48.79999999999999
 20
-50.5
 30
0.0
 40
3.5
 50
0.0
 51
90.0
  0
LINE
  5
2BD
  8
DETAIL
  6
CONTINUOUS
 62
     5
 10
-48.5
 20
-49.0
 30
0.0
 11
-48.299999999999997
 21
-49.0
 31
0.0
  0
ARC
  5
2BE
  8
DETAIL
  6
CONTINUOUS
 62
     5
 10
-48.299999999999997
 20
-50.5
 30
0.0
 40
1.5
 50
0.0
 51
90.0
  0
ARC
  5
2BF
  8
DETAIL
  6
CONTINUOUS
 62
     5
 10
-48.5
 20
-50.5
 30
0.0
 40
1.5
 50
90.0
 51
180.0
  0
LINE
  5
2C0
  8
DETAIL
  6
CONTINUOUS
 62
     5
 10
-50.0
 20
-50.5
 30
0.0
 11
-46.79999999999999
 21
-50.5
 31
0.0
  0
LINE
  5
2C1
  8
DETAIL
  6
CONTINUOUS
 62
     5
 10
-50.0
 20
-50.5
 30
0.0
 11
-46.79999999999999
 21
-50.5
 31
0.0
  0
ARC
  5
2C2
  8
DETAIL
  6
CONTINUOUS
 62
     5
 10
-48.5
 20
-50.5
 30
0.0
 40
1.5
 50
90.0
 51
180.0
  0
ARC
  5
2C3
  8
DETAIL
  6
CONTINUOUS
 62
     5
 10
-48.299999999999997
 20
-50.5
 30
0.0
 40
1.5
 50
0.0
 51
90.0
  0
LINE
  5
2C4
  8
DETAIL
  6
CONTINUOUS
 62
     5
 10
-48.5
 20
-49.0
 30
0.0
 11
-48.299999999999997
 21
-49.0
 31
0.0
  0
ARC
  5
2C5
  8
DETAIL
  6
CONTINUOUS
 62
     5
 10
-48.79999999999999
 20
-50.5
 30
0.0
 40
3.5
 50
0.0
 51
90.0
  0
LINE
  5
2C6
  8
DETAIL
  6
CONTINUOUS
 62
     5
 10
-46.79999999999999
 20
-58.565536999999999
 30
0.0
 11
-46.79999999999999
 21
-50.5
 31
0.0
  0
ARC
  5
2C7
  8
DETAIL
  6
CONTINUOUS
 62
     5
 10
-44.79999999999999
 20
-58.565536999999999
 30
0.0
 40
2.0
 50
180.0
 51
229.16778299999999
  0
ARC
  5
2C8
  8
DETAIL
  6
CONTINUOUS
 62
     5
 10
-48.200000000000003
 20
-62.5
 30
0.0
 40
3.2000000000000002
 50
356.40549499999997
 51
49.167783
  0
ARC
  5
2C9
  8
DETAIL
  6
CONTINUOUS
 62
     5
 10
-44.79999999999999
 20
-58.565536999999999
 30
0.0
 40
0.5
 50
180.0
 51
229.16778299999999
  0
LINE
  5
2CA
  8
DETAIL
  6
CONTINUOUS
 62
     5
 10
-45.299999999999997
 20
-58.565536999999999
 30
0.0
 11
-45.299999999999997
 21
-50.5
 31
0.0
  0
ARC
  5
2CB
  8
DETAIL
  6
CONTINUOUS
 62
     5
 10
-48.200000000000003
 20
-62.5
 30
0.0
 40
4.7000000000000002
 50
357.23385300000001
 51
49.167783
  0
LINE
  5
2CC
  8
DETAIL
  6
CONTINUOUS
 62
     5
 10
-49.0
 20
-47.0
 30
0.0
 11
-48.79999999999999
 21
-47.0
 31
0.0
  0
LINE
  5
2CD
  8
DETAIL
  6
CONTINUOUS
 62
     5
 10
-50.0
 20
-62.613457999999987
 30
0.0
 11
-50.0
 21
-50.5
 31
0.0
  0
ARC
  5
2CE
  8
DETAIL
  6
CONTINUOUS
 62
     5
 10
-49.0
 20
-50.5
 30
0.0
 40
3.5
 50
90.0
 51
180.0
  0
LINE
  5
2CF
  8
DETAIL
  6
CONTINUOUS
 62
     5
 10
-48.899999999999999
 20
-47.0
 30
0.0
 11
-49.0
 21
-47.0
 31
0.0
  0
LINE
  5
2D0
  8
DETAIL
  6
CONTINUOUS
 62
     5
 10
-52.5
 20
-62.569819999999993
 30
0.0
 11
-52.5
 21
-50.5
 31
0.0
  0
LINE
  5
2D1
  8
DETAIL
  6
CONTINUOUS
 62
     5
 10
-62.724803999999999
 20
-17.788864
 30
0.0
 11
-62.485799
 21
-35.576405999999999
 31
0.0
  0
LINE
  5
2D2
  8
DETAIL
  6
CONTINUOUS
 62
     5
 10
-46.251696000000003
 20
-7.321038999999999
 30
0.0
 11
-53.0
 21
-7.4388309999999986
 31
0.0
  0
LINE
  5
2D3
  8
DETAIL
  6
CONTINUOUS
 62
     5
 10
-53.0
 20
-3.561169
 30
0.0
 11
-46.251690000000004
 21
-3.6789610000000001
 31
0.0
  0
LINE
  5
2D4
  8
DETAIL
  6
CONTINUOUS
 62
     5
 10
-43.0
 20
-10.264357
 30
0.0
 11
-53.0
 21
-10.438907
 31
0.0
  0
LINE
  5
2D5
  8
DETAIL
  6
CONTINUOUS
 62
     5
 10
-46.138271000000003
 20
-7.0135069999999997
 30
0.0
 11
-46.138271000000003
 21
-3.9864660000000001
 31
0.0
  0
LINE
  5
2D6
  8
DETAIL
  6
CONTINUOUS
 62
     5
 10
-46.227919
 20
-7.2949489999999999
 30
0.0
 11
-46.251696000000003
 21
-7.321038999999999
 31
0.0
  0
LINE
  5
2D7
  8
DETAIL
  6
CONTINUOUS
 62
     5
 10
-46.20641599999999
 20
-7.2651199999999987
 30
0.0
 11
-46.227919
 21
-7.2949489999999999
 31
0.0
  0
LINE
  5
2D8
  8
DETAIL
  6
CONTINUOUS
 62
     5
 10
-46.186968
 20
-7.2314619999999987
 30
0.0
 11
-46.20641599999999
 21
-7.2651199999999987
 31
0.0
  0
LINE
  5
2D9
  8
DETAIL
  6
CONTINUOUS
 62
     5
 10
-46.170229999999989
 20
-7.194242
 30
0.0
 11
-46.186968
 21
-7.2314619999999987
 31
0.0
  0
LINE
  5
2DA
  8
DETAIL
  6
CONTINUOUS
 62
     5
 10
-46.156692
 20
-7.1536210000000002
 30
0.0
 11
-46.170229999999989
 21
-7.194242
 31
0.0
  0
LINE
  5
2DB
  8
DETAIL
  6
CONTINUOUS
 62
     5
 10
-46.146633000000001
 20
-7.1098259999999991
 30
0.0
 11
-46.156692
 21
-7.1536210000000002
 31
0.0
  0
LINE
  5
2DC
  8
DETAIL
  6
CONTINUOUS
 62
     5
 10
-46.140546999999991
 20
-7.0631690000000003
 30
0.0
 11
-46.146633000000001
 21
-7.1098259999999991
 31
0.0
  0
LINE
  5
2DD
  8
DETAIL
  6
CONTINUOUS
 62
     5
 10
-46.138271000000003
 20
-7.0135449999999988
 30
0.0
 11
-46.140546999999991
 21
-7.0631690000000003
 31
0.0
  0
LINE
  5
2DE
  8
DETAIL
  6
CONTINUOUS
 62
     5
 10
-46.140551000000002
 20
-3.936726999999999
 30
0.0
 11
-46.138271000000003
 21
-3.986438999999999
 31
0.0
  0
LINE
  5
2DF
  8
DETAIL
  6
CONTINUOUS
 62
     5
 10
-46.146672999999993
 20
-3.8899529999999989
 30
0.0
 11
-46.140551000000002
 21
-3.936726999999999
 31
0.0
  0
LINE
  5
2E0
  8
DETAIL
  6
CONTINUOUS
 62
     5
 10
-46.15681099999999
 20
-3.845987
 30
0.0
 11
-46.146672999999993
 21
-3.8899529999999989
 31
0.0
  0
LINE
  5
2E1
  8
DETAIL
  6
CONTINUOUS
 62
     5
 10
-46.170442000000001
 20
-3.8052179999999991
 30
0.0
 11
-46.15681099999999
 21
-3.845987
 31
0.0
  0
LINE
  5
2E2
  8
DETAIL
  6
CONTINUOUS
 62
     5
 10
-46.187297999999991
 20
-3.7679230000000001
 30
0.0
 11
-46.170442000000001
 21
-3.8052179999999991
 31
0.0
  0
LINE
  5
2E3
  8
DETAIL
  6
CONTINUOUS
 62
     5
 10
-46.206795
 20
-3.7343029999999988
 30
0.0
 11
-46.187297999999991
 21
-3.7679230000000001
 31
0.0
  0
LINE
  5
2E4
  8
DETAIL
  6
CONTINUOUS
 62
     5
 10
-46.228173999999989
 20
-3.704685
 30
0.0
 11
-46.206795
 21
-3.7343029999999988
 31
0.0
  0
LINE
  5
2E5
  8
DETAIL
  6
CONTINUOUS
 62
     5
 10
-46.251690000000004
 20
-3.6789610000000001
 30
0.0
 11
-46.228173999999989
 21
-3.704685
 31
0.0
  0
ARC
  5
2E6
  8
DETAIL
  6
CONTINUOUS
 62
     5
 10
-38.0
 20
-5.7000000000000002
 30
0.0
 40
0.8
 50
180.0
 51
0.0
  0
LINE
  5
2E7
  8
DETAIL
  6
CONTINUOUS
 62
     5
 10
-60.813020999999999
 20
88.916403000000003
 30
0.0
 11
-61.529866000000013
 21
71.141741999999994
 31
0.0
  0
LINE
  5
2E8
  8
DETAIL
  6
CONTINUOUS
 62
     5
 10
-53.0
 20
83.511257999999998
 30
0.0
 11
-53.0
 21
88.947481999999994
 31
0.0
  0
LINE
  5
2E9
  8
DETAIL
  6
CONTINUOUS
 62
     5
 10
-62.087471999999998
 20
53.361343000000012
 30
0.0
 11
-62.485793999999991
 21
35.576673
 31
0.0
  0
LINE
  5
2EA
  8
DETAIL
  6
CONTINUOUS
 62
     5
 10
-62.485793999999991
 20
35.576673
 30
0.0
 11
-62.724801999999997
 21
17.789135000000002
 31
0.0
  0
LINE
  5
2EB
  8
DETAIL
  6
CONTINUOUS
 62
     5
 10
-62.724801999999997
 20
17.789135000000002
 30
0.0
 11
-62.804473999999992
 21
0.000138
 31
0.0
  0
LINE
  5
2EC
  8
DETAIL
  6
CONTINUOUS
 62
     5
 10
-43.0
 20
-0.7356430000000001
 30
0.0
 11
-53.0
 21
-0.5610930000000001
 31
0.0
  0
ARC
  5
2ED
  8
DETAIL
  6
CONTINUOUS
 62
     5
 10
-38.0
 20
12.699999999999999
 30
0.0
 40
0.8
 50
0.0
 51
180.0
  0
LINE
  5
2EE
  8
DETAIL
  6
CONTINUOUS
 62
     5
 10
-25.0
 20
77.244371000000001
 30
0.0
 11
-54.183894999999993
 21
77.753777999999997
 31
0.0
  0
LINE
  5
2EF
  8
DETAIL
  6
CONTINUOUS
 62
     5
 10
-25.0
 20
84.0
 30
0.0
 11
-54.038725999999997
 21
83.493127000000001
 31
0.0
  0
LINE
  5
2F0
  8
DETAIL
  6
CONTINUOUS
 62
     5
 10
-61.529866000000013
 20
71.141741999999994
 30
0.0
 11
-62.087471999999998
 21
53.361343000000012
 31
0.0
  0
LINE
  5
2F1
  8
DETAIL
  6
CONTINUOUS
 62
     5
 10
-54.675168000000014
 20
82.490746000000001
 30
0.0
 11
-54.675019999999989
 21
82.516043000000025
 31
0.0
  0
LINE
  5
2F2
  8
DETAIL
  6
CONTINUOUS
 62
     5
 10
-54.675019999999989
 20
82.516043000000025
 30
0.0
 11
-54.671123000000001
 21
82.622926000000007
 31
0.0
  0
LINE
  5
2F3
  8
DETAIL
  6
CONTINUOUS
 62
     5
 10
-54.671123000000001
 20
82.622926000000007
 30
0.0
 11
-54.662213999999999
 21
82.725206999999983
 31
0.0
  0
LINE
  5
2F4
  8
DETAIL
  6
CONTINUOUS
 62
     5
 10
-54.662213999999999
 20
82.725206999999983
 30
0.0
 11
-54.648681999999987
 21
82.821489999999997
 31
0.0
  0
LINE
  5
2F5
  8
DETAIL
  6
CONTINUOUS
 62
     5
 10
-54.648681999999987
 20
82.821489999999997
 30
0.0
 11
-54.630796999999987
 21
82.911263000000005
 31
0.0
  0
LINE
  5
2F6
  8
DETAIL
  6
CONTINUOUS
 62
     5
 10
-54.630796999999987
 20
82.911263000000005
 30
0.0
 11
-54.608573
 21
82.99470500000001
 31
0.0
  0
LINE
  5
2F7
  8
DETAIL
  6
CONTINUOUS
 62
     5
 10
-54.608573
 20
82.99470500000001
 30
0.0
 11
-54.581687000000002
 21
83.072469999999996
 31
0.0
  0
LINE
  5
2F8
  8
DETAIL
  6
CONTINUOUS
 62
     5
 10
-54.581687000000002
 20
83.072469999999996
 30
0.0
 11
-54.549416000000001
 21
83.145374000000004
 31
0.0
  0
LINE
  5
2F9
  8
DETAIL
  6
CONTINUOUS
 62
     5
 10
-54.549416000000001
 20
83.145374000000004
 30
0.0
 11
-54.510402999999997
 21
83.214487000000005
 31
0.0
  0
LINE
  5
2FA
  8
DETAIL
  6
CONTINUOUS
 62
     5
 10
-54.510402999999997
 20
83.214487000000005
 30
0.0
 11
-54.464151999999999
 21
83.278641000000007
 31
0.0
  0
LINE
  5
2FB
  8
DETAIL
  6
CONTINUOUS
 62
     5
 10
-54.464151999999999
 20
83.278641000000007
 30
0.0
 11
-54.410469999999997
 21
83.336654999999993
 31
0.0
  0
LINE
  5
2FC
  8
DETAIL
  6
CONTINUOUS
 62
     5
 10
-54.410469999999997
 20
83.336654999999993
 30
0.0
 11
-54.349795999999998
 21
83.387104000000008
 31
0.0
  0
LINE
  5
2FD
  8
DETAIL
  6
CONTINUOUS
 62
     5
 10
-54.349795999999998
 20
83.387104000000008
 30
0.0
 11
-54.283695999999992
 21
83.428372999999993
 31
0.0
  0
LINE
  5
2FE
  8
DETAIL
  6
CONTINUOUS
 62
     5
 10
-54.283695999999992
 20
83.428372999999993
 30
0.0
 11
-54.213265
 21
83.459854000000007
 31
0.0
  0
LINE
  5
2FF
  8
DETAIL
  6
CONTINUOUS
 62
     5
 10
-54.213265
 20
83.459854000000007
 30
0.0
 11
-54.140293000000007
 21
83.480986000000001
 31
0.0
  0
LINE
  5
300
  8
DETAIL
  6
CONTINUOUS
 62
     5
 10
-54.67516899999999
 20
82.490746000000001
 30
0.0
 11
-54.67516899999999
 21
78.253702000000004
 31
0.0
  0
LINE
  5
301
  8
DETAIL
  6
CONTINUOUS
 62
     5
 10
-54.184530000000002
 20
77.755226000000008
 30
0.0
 11
-54.183894999999993
 21
77.753777999999997
 31
0.0
  0
LINE
  5
302
  8
DETAIL
  6
CONTINUOUS
 62
     5
 10
-54.183894999999993
 20
77.753777999999997
 30
0.0
 11
-54.249815000000012
 21
77.759304999999998
 31
0.0
  0
LINE
  5
303
  8
DETAIL
  6
CONTINUOUS
 62
     5
 10
-54.249815000000012
 20
77.759304999999998
 30
0.0
 11
-54.310869999999987
 21
77.772469000000001
 31
0.0
  0
LINE
  5
304
  8
DETAIL
  6
CONTINUOUS
 62
     5
 10
-54.310869999999987
 20
77.772469000000001
 30
0.0
 11
-54.367213
 21
77.792054000000007
 31
0.0
  0
LINE
  5
305
  8
DETAIL
  6
CONTINUOUS
 62
     5
 10
-54.367213
 20
77.792054000000007
 30
0.0
 11
-54.419668000000009
 21
77.817559000000003
 31
0.0
  0
LINE
  5
306
  8
DETAIL
  6
CONTINUOUS
 62
     5
 10
-54.419668000000009
 20
77.817559000000003
 30
0.0
 11
-54.468206000000002
 21
77.848573000000002
 31
0.0
  0
LINE
  5
307
  8
DETAIL
  6
CONTINUOUS
 62
     5
 10
-54.468206000000002
 20
77.848573000000002
 30
0.0
 11
-54.512906000000001
 21
77.885009999999994
 31
0.0
  0
LINE
  5
308
  8
DETAIL
  6
CONTINUOUS
 62
     5
 10
-54.512906000000001
 20
77.885009999999994
 30
0.0
 11
-54.553787
 21
77.927132
 31
0.0
  0
LINE
  5
309
  8
DETAIL
  6
CONTINUOUS
 62
     5
 10
-54.553787
 20
77.927132
 30
0.0
 11
-54.589556000000009
 21
77.973910000000004
 31
0.0
  0
LINE
  5
30A
  8
DETAIL
  6
CONTINUOUS
 62
     5
 10
-54.589556000000009
 20
77.973910000000004
 30
0.0
 11
-54.619059
 21
78.023568000000012
 31
0.0
  0
LINE
  5
30B
  8
DETAIL
  6
CONTINUOUS
 62
     5
 10
-54.619059
 20
78.023568000000012
 30
0.0
 11
-54.642814000000001
 21
78.076758999999996
 31
0.0
  0
LINE
  5
30C
  8
DETAIL
  6
CONTINUOUS
 62
     5
 10
-54.642814000000001
 20
78.076758999999996
 30
0.0
 11
-54.660614000000002
 21
78.133937000000003
 31
0.0
  0
LINE
  5
30D
  8
DETAIL
  6
CONTINUOUS
 62
     5
 10
-54.660614000000002
 20
78.133937000000003
 30
0.0
 11
-54.671678999999997
 21
78.194727
 31
0.0
  0
LINE
  5
30E
  8
DETAIL
  6
CONTINUOUS
 62
     5
 10
-54.671678999999997
 20
78.194727
 30
0.0
 11
-54.67516899999999
 21
78.253702000000004
 31
0.0
  0
LINE
  5
30F
  8
DETAIL
  6
CONTINUOUS
 62
     5
 10
-54.038823999999998
 20
83.493093999999999
 30
0.0
 11
-54.051839000000001
 21
83.492630999999989
 31
0.0
  0
LINE
  5
310
  8
DETAIL
  6
CONTINUOUS
 62
     5
 10
-54.140293000000007
 20
83.480986000000001
 30
0.0
 11
-54.066339999999997
 21
83.491724000000005
 31
0.0
  0
LINE
  5
311
  8
DETAIL
  6
CONTINUOUS
 62
     5
 10
-54.066339999999997
 20
83.491724000000005
 30
0.0
 11
-54.049514000000002
 21
83.492737000000005
 31
0.0
  0
LINE
  5
312
  8
DETAIL
  6
CONTINUOUS
 62
     5
 10
-52.5
 20
61.161902000000012
 30
0.0
 11
-52.5
 21
77.724384999999984
 31
0.0
  0
LINE
  5
313
  8
DETAIL
  6
CONTINUOUS
 62
     5
 10
-52.5
 20
57.069819999999993
 30
0.0
 11
-53.0
 21
57.061093000000007
 31
0.0
  0
LINE
  5
314
  8
DETAIL
  6
CONTINUOUS
 62
     5
 10
-43.0
 20
54.0
 30
0.0
 11
-50.5
 21
54.0
 31
0.0
  0
LINE
  5
315
  8
DETAIL
  6
CONTINUOUS
 62
     5
 10
-50.0
 20
59.0
 30
0.0
 11
-50.0
 21
60.626916000000001
 31
0.0
  0
LINE
  5
316
  8
DETAIL
  6
CONTINUOUS
 62
     5
 10
-47.799999999999997
 20
59.5
 30
0.0
 11
-47.799999999999997
 21
60.588515000000001
 31
0.0
  0
LINE
  5
317
  8
DETAIL
  6
CONTINUOUS
 62
     5
 10
-52.5
 20
56.0
 30
0.0
 11
-52.5
 21
61.161902000000012
 31
0.0
  0
LINE
  5
318
  8
DETAIL
  6
CONTINUOUS
 62
     5
 10
-45.299999999999997
 20
59.5
 30
0.0
 11
-45.299999999999997
 21
60.544877
 31
0.0
  0
LINE
  5
319
  8
DETAIL
  6
CONTINUOUS
 62
     5
 10
-43.0
 20
57.0
 30
0.0
 11
-48.0
 21
57.0
 31
0.0
  0
ARC
  5
31A
  8
DETAIL
  6
CONTINUOUS
 62
     5
 10
-48.0
 20
59.0
 30
0.0
 40
2.0
 50
180.0
 51
270.0
  0
ARC
  5
31B
  8
DETAIL
  6
CONTINUOUS
 62
     5
 10
-50.5
 20
56.0
 30
0.0
 40
2.0
 50
180.0
 51
270.0
  0
LINE
  5
31C
  8
DETAIL
  6
CONTINUOUS
 62
     5
 10
-45.799999999999997
 20
59.0
 30
0.0
 11
-47.29999999999999
 21
59.0
 31
0.0
  0
ARC
  5
31D
  8
DETAIL
  6
CONTINUOUS
 62
     5
 10
-45.799999999999997
 20
59.5
 30
0.0
 40
0.5
 50
270.0
 51
0.0
  0
ARC
  5
31E
  8
DETAIL
  6
CONTINUOUS
 62
     5
 10
-47.29999999999999
 20
59.5
 30
0.0
 40
0.5
 50
180.0
 51
270.0
  0
ARC
  5
31F
  8
DETAIL
  6
CONTINUOUS
 62
     5
 10
-52.0
 20
61.161902000000012
 30
0.0
 40
0.5
 50
180.0
 51
269.0
  0
LINE
  5
320
  8
DETAIL
  6
CONTINUOUS
 62
     5
 10
-52.009349
 20
60.663368000000013
 30
0.0
 11
-52.008726000000003
 21
60.661978000000012
 31
0.0
  0
LINE
  5
321
  8
DETAIL
  6
CONTINUOUS
 62
     5
 10
-43.0
 20
60.504730000000002
 30
0.0
 11
-52.008726000000003
 21
60.661978000000012
 31
0.0
  0
LINE
  5
322
  8
DETAIL
  6
CONTINUOUS
 62
     5
 10
-45.702173999999992
 20
59.009646999999987
 30
0.0
 11
-45.799923999999997
 21
59.0
 31
0.0
  0
LINE
  5
323
  8
DETAIL
  6
CONTINUOUS
 62
     5
 10
-25.0
 20
76.935642999999999
 30
0.0
 11
-42.635034999999988
 21
77.243464000000003
 31
0.0
  0
LINE
  5
324
  8
DETAIL
  6
CONTINUOUS
 62
     5
 10
-53.0
 20
66.938907
 30
0.0
 11
-52.5
 21
66.930180000000007
 31
0.0
  0
LINE
  5
325
  8
DETAIL
  6
CONTINUOUS
 62
     5
 10
-43.0
 20
76.882671999999999
 30
0.0
 11
-42.998671999999999
 21
76.914059999999992
 31
0.0
  0
LINE
  5
326
  8
DETAIL
  6
CONTINUOUS
 62
     5
 10
-42.998671999999999
 20
76.914059999999992
 30
0.0
 11
-42.991039000000001
 21
76.964084
 31
0.0
  0
LINE
  5
327
  8
DETAIL
  6
CONTINUOUS
 62
     5
 10
-42.991039000000001
 20
76.964084
 30
0.0
 11
-42.97508599999999
 21
77.016993999999997
 31
0.0
  0
LINE
  5
328
  8
DETAIL
  6
CONTINUOUS
 62
     5
 10
-42.97508599999999
 20
77.016993999999997
 30
0.0
 11
-42.94989799999999
 21
77.06944
 31
0.0
  0
LINE
  5
329
  8
DETAIL
  6
CONTINUOUS
 62
     5
 10
-42.94989799999999
 20
77.06944
 30
0.0
 11
-42.915360999999997
 21
77.118493000000001
 31
0.0
  0
LINE
  5
32A
  8
DETAIL
  6
CONTINUOUS
 62
     5
 10
-42.211427999999998
 20
77.152966000000006
 30
0.0
 11
-42.21320399999999
 21
77.084733
 31
0.0
  0
LINE
  5
32B
  8
DETAIL
  6
CONTINUOUS
 62
     5
 10
-42.21320399999999
 20
77.084733
 30
0.0
 11
-42.213962000000002
 21
77.047370000000001
 31
0.0
  0
LINE
  5
32C
  8
DETAIL
  6
CONTINUOUS
 62
     5
 10
-42.206980999999992
 20
77.23599200000001
 30
0.0
 11
-42.207737999999992
 21
77.232431000000005
 31
0.0
  0
LINE
  5
32D
  8
DETAIL
  6
CONTINUOUS
 62
     5
 10
-42.207737999999992
 20
77.232431000000005
 30
0.0
 11
-42.208592999999993
 21
77.221853999999993
 31
0.0
  0
LINE
  5
32E
  8
DETAIL
  6
CONTINUOUS
 62
     5
 10
-42.208592999999993
 20
77.221853999999993
 30
0.0
 11
-42.209515000000003
 21
77.204638000000003
 31
0.0
  0
LINE
  5
32F
  8
DETAIL
  6
CONTINUOUS
 62
     5
 10
-42.209515000000003
 20
77.204638000000003
 30
0.0
 11
-42.210470999999998
 21
77.181398000000002
 31
0.0
  0
LINE
  5
330
  8
DETAIL
  6
CONTINUOUS
 62
     5
 10
-42.210470999999998
 20
77.181398000000002
 30
0.0
 11
-42.211427999999998
 21
77.152966000000006
 31
0.0
  0
LINE
  5
331
  8
DETAIL
  6
CONTINUOUS
 62
     5
 10
-42.915360999999997
 20
77.118493000000001
 30
0.0
 11
-42.87169999999999
 21
77.161965000000009
 31
0.0
  0
LINE
  5
332
  8
DETAIL
  6
CONTINUOUS
 62
     5
 10
-42.87169999999999
 20
77.161965000000009
 30
0.0
 11
-42.819951000000003
 21
77.197630000000004
 31
0.0
  0
LINE
  5
333
  8
DETAIL
  6
CONTINUOUS
 62
     5
 10
-42.819951000000003
 20
77.197630000000004
 30
0.0
 11
-42.761840999999997
 21
77.223708999999999
 31
0.0
  0
LINE
  5
334
  8
DETAIL
  6
CONTINUOUS
 62
     5
 10
-42.761840999999997
 20
77.223708999999999
 30
0.0
 11
-42.699553000000002
 21
77.239102000000003
 31
0.0
  0
LINE
  5
335
  8
DETAIL
  6
CONTINUOUS
 62
     5
 10
-42.699553000000002
 20
77.239102000000003
 30
0.0
 11
-42.635565999999997
 21
77.24346899999999
 31
0.0
  0
LINE
  5
336
  8
DETAIL
  6
CONTINUOUS
 62
     5
 10
-37.0
 20
77.453831999999991
 30
0.0
 11
-37.0
 21
77.145104000000003
 31
0.0
  0
LINE
  5
337
  8
DETAIL
  6
CONTINUOUS
 62
     5
 10
-37.20000000000001
 20
77.457323000000002
 30
0.0
 11
-37.20000000000001
 21
77.148595
 31
0.0
  0
LINE
  5
338
  8
DETAIL
  6
CONTINUOUS
 62
     5
 10
-37.700000000000003
 20
77.466049999999996
 30
0.0
 11
-37.700000000000003
 21
77.157323000000005
 31
0.0
  0
LINE
  5
339
  8
DETAIL
  6
CONTINUOUS
 62
     5
 10
-39.700000000000003
 20
77.500959999999992
 30
0.0
 11
-39.700000000000003
 21
77.192233000000002
 31
0.0
  0
LINE
  5
33A
  8
DETAIL
  6
CONTINUOUS
 62
     5
 10
-40.200000000000003
 20
77.509687999999997
 30
0.0
 11
-40.200000000000003
 21
77.200959999999995
 31
0.0
  0
LINE
  5
33B
  8
DETAIL
  6
CONTINUOUS
 62
     5
 10
-24.508725999999999
 20
89.572198999999998
 30
0.0
 11
-0.5087260000000001
 21
89.991119999999995
 31
0.0
  0
LINE
  5
33C
  8
DETAIL
  6
CONTINUOUS
 62
     5
 10
-53.982548000000001
 20
89.947330000000008
 30
0.0
 11
-57.0
 21
90.0
 31
0.0
  0
ARC
  5
33D
  8
DETAIL
  6
CONTINUOUS
 62
     5
 10
-65.059556999999998
 20
88.628651999999988
 30
0.0
 40
1.0
 50
93.0
 51
177.49152100000001
  0
LINE
  5
33E
  8
DETAIL
  6
CONTINUOUS
 62
     5
 10
-55.784370999999993
 20
88.724862999999999
 30
0.0
 11
-55.784810999999998
 21
88.695401000000004
 31
0.0
  0
LINE
  5
33F
  8
DETAIL
  6
CONTINUOUS
 62
     5
 10
-55.783081000000003
 20
88.753764000000004
 30
0.0
 11
-55.784370999999993
 21
88.724862999999999
 31
0.0
  0
LINE
  5
340
  8
DETAIL
  6
CONTINUOUS
 62
     5
 10
-55.780928000000003
 20
88.782243000000008
 30
0.0
 11
-55.783081000000003
 21
88.753764000000004
 31
0.0
  0
LINE
  5
341
  8
DETAIL
  6
CONTINUOUS
 62
     5
 10
-55.777947999999988
 20
88.809888999999998
 30
0.0
 11
-55.780928000000003
 21
88.782243000000008
 31
0.0
  0
LINE
  5
342
  8
DETAIL
  6
CONTINUOUS
 62
     5
 10
-55.774158999999997
 20
88.836421000000016
 30
0.0
 11
-55.777947999999988
 21
88.809888999999998
 31
0.0
  0
LINE
  5
343
  8
DETAIL
  6
CONTINUOUS
 62
     5
 10
-55.769605000000013
 20
88.861599999999996
 30
0.0
 11
-55.774158999999997
 21
88.836421000000016
 31
0.0
  0
LINE
  5
344
  8
DETAIL
  6
CONTINUOUS
 62
     5
 10
-55.764318999999993
 20
88.885160999999997
 30
0.0
 11
-55.769605000000013
 21
88.861599999999996
 31
0.0
  0
LINE
  5
345
  8
DETAIL
  6
CONTINUOUS
 62
     5
 10
-55.758361000000001
 20
88.906899999999993
 30
0.0
 11
-55.764318999999993
 21
88.885160999999997
 31
0.0
  0
LINE
  5
346
  8
DETAIL
  6
CONTINUOUS
 62
     5
 10
-55.751778999999999
 20
88.926575999999983
 30
0.0
 11
-55.758361000000001
 21
88.906899999999993
 31
0.0
  0
LINE
  5
347
  8
DETAIL
  6
CONTINUOUS
 62
     5
 10
-55.744645999999989
 20
88.944026000000008
 30
0.0
 11
-55.751778999999999
 21
88.926575999999983
 31
0.0
  0
LINE
  5
348
  8
DETAIL
  6
CONTINUOUS
 62
     5
 10
-55.737025000000003
 20
88.959042000000025
 30
0.0
 11
-55.744645999999989
 21
88.944026000000008
 31
0.0
  0
LINE
  5
349
  8
DETAIL
  6
CONTINUOUS
 62
     5
 10
-55.728993999999993
 20
88.971517000000006
 30
0.0
 11
-55.737025000000003
 21
88.959042000000025
 31
0.0
  0
LINE
  5
34A
  8
DETAIL
  6
CONTINUOUS
 62
     5
 10
-55.720626000000003
 20
88.981294000000005
 30
0.0
 11
-55.728993999999993
 21
88.971517000000006
 31
0.0
  0
LINE
  5
34B
  8
DETAIL
  6
CONTINUOUS
 62
     5
 10
-55.71200799999999
 20
88.988316999999995
 30
0.0
 11
-55.720626000000003
 21
88.981294000000005
 31
0.0
  0
LINE
  5
34C
  8
DETAIL
  6
CONTINUOUS
 62
     5
 10
-55.703263
 20
88.992463999999998
 30
0.0
 11
-55.71200799999999
 21
88.988316999999995
 31
0.0
  0
LINE
  5
34D
  8
DETAIL
  6
CONTINUOUS
 62
     5
 10
-55.69435099999999
 20
88.993775999999997
 30
0.0
 11
-55.703263
 21
88.992463999999998
 31
0.0
  0
LINE
  5
34E
  8
DETAIL
  6
CONTINUOUS
 62
     5
 10
-60.113063000000011
 20
89.857528999999985
 30
0.0
 11
-60.030574999999999
 21
89.867248000000004
 31
0.0
  0
LINE
  5
34F
  8
DETAIL
  6
CONTINUOUS
 62
     5
 10
-60.019569999999987
 20
89.867955000000009
 30
0.0
 11
-60.030574999999999
 21
89.867246999999992
 31
0.0
  0
LINE
  5
350
  8
DETAIL
  6
CONTINUOUS
 62
     5
 10
-65.111893000000009
 20
89.627281999999994
 30
0.0
 11
-57.5
 21
90.0
 31
0.0
  0
LINE
  5
351
  8
DETAIL
  6
CONTINUOUS
 62
     5
 10
-57.5
 20
89.500000000000014
 30
0.0
 11
-57.0
 21
89.491271999999995
 31
0.0
  0
LINE
  5
352
  8
DETAIL
  6
CONTINUOUS
 62
     5
 10
-57.5
 20
88.500151999999986
 30
0.0
 11
-57.0
 21
88.491425000000007
 31
0.0
  0
LINE
  5
353
  8
DETAIL
  6
CONTINUOUS
 62
     5
 10
-55.700086999999989
 20
89.104551999999984
 30
0.0
 11
-55.69435099999999
 21
88.993775999999997
 31
0.0
  0
LINE
  5
354
  8
DETAIL
  6
CONTINUOUS
 62
     5
 10
-55.717542000000002
 20
89.213964000000004
 30
0.0
 11
-55.700086999999989
 21
89.104551999999984
 31
0.0
  0
LINE
  5
355
  8
DETAIL
  6
CONTINUOUS
 62
     5
 10
-55.746502
 20
89.320666000000003
 30
0.0
 11
-55.717542000000002
 21
89.213964000000004
 31
0.0
  0
LINE
  5
356
  8
DETAIL
  6
CONTINUOUS
 62
     5
 10
-55.786610000000003
 20
89.423344
 30
0.0
 11
-55.746502
 21
89.320666000000003
 31
0.0
  0
LINE
  5
357
  8
DETAIL
  6
CONTINUOUS
 62
     5
 10
-55.837373999999997
 20
89.520735000000002
 30
0.0
 11
-55.786610000000003
 21
89.423344
 31
0.0
  0
LINE
  5
358
  8
DETAIL
  6
CONTINUOUS
 62
     5
 10
-55.898167000000001
 20
89.611638999999997
 30
0.0
 11
-55.837373999999997
 21
89.520735000000002
 31
0.0
  0
LINE
  5
359
  8
DETAIL
  6
CONTINUOUS
 62
     5
 10
-55.968241999999996
 20
89.694936999999996
 30
0.0
 11
-55.898167000000001
 21
89.611638999999997
 31
0.0
  0
LINE
  5
35A
  8
DETAIL
  6
CONTINUOUS
 62
     5
 10
-56.046735999999989
 20
89.769604999999999
 30
0.0
 11
-55.968241999999996
 21
89.694936999999996
 31
0.0
  0
LINE
  5
35B
  8
DETAIL
  6
CONTINUOUS
 62
     5
 10
-56.132682999999993
 20
89.834721999999985
 30
0.0
 11
-56.046735999999989
 21
89.769604999999999
 31
0.0
  0
LINE
  5
35C
  8
DETAIL
  6
CONTINUOUS
 62
     5
 10
-56.225025000000002
 20
89.889488000000014
 30
0.0
 11
-56.132682999999993
 21
89.834721999999985
 31
0.0
  0
LINE
  5
35D
  8
DETAIL
  6
CONTINUOUS
 62
     5
 10
-56.322623999999998
 20
89.933227999999986
 30
0.0
 11
-56.225025000000002
 21
89.889488000000014
 31
0.0
  0
LINE
  5
35E
  8
DETAIL
  6
CONTINUOUS
 62
     5
 10
-56.424281000000001
 20
89.965403000000009
 30
0.0
 11
-56.322623999999998
 21
89.933227999999986
 31
0.0
  0
LINE
  5
35F
  8
DETAIL
  6
CONTINUOUS
 62
     5
 10
-56.528742999999999
 20
89.985618000000002
 30
0.0
 11
-56.424281000000001
 21
89.965403000000009
 31
0.0
  0
LINE
  5
360
  8
DETAIL
  6
CONTINUOUS
 62
     5
 10
-60.19379
 20
89.839982999999989
 30
0.0
 11
-60.113063000000011
 21
89.857528999999985
 31
0.0
  0
LINE
  5
361
  8
DETAIL
  6
CONTINUOUS
 62
     5
 10
-60.272044999999991
 20
89.814703000000009
 30
0.0
 11
-60.19379
 21
89.839982999999989
 31
0.0
  0
LINE
  5
362
  8
DETAIL
  6
CONTINUOUS
 62
     5
 10
-60.347289000000011
 20
89.781798999999978
 30
0.0
 11
-60.272044999999991
 21
89.814703000000009
 31
0.0
  0
LINE
  5
363
  8
DETAIL
  6
CONTINUOUS
 62
     5
 10
-60.418944999999987
 20
89.741418999999993
 30
0.0
 11
-60.347289000000011
 21
89.781798999999978
 31
0.0
  0
LINE
  5
364
  8
DETAIL
  6
CONTINUOUS
 62
     5
 10
-60.486409999999992
 20
89.693780000000004
 30
0.0
 11
-60.418944999999987
 21
89.741418999999993
 31
0.0
  0
LINE
  5
365
  8
DETAIL
  6
CONTINUOUS
 62
     5
 10
-60.549094999999987
 20
89.639146999999994
 30
0.0
 11
-60.486409999999992
 21
89.693780000000004
 31
0.0
  0
LINE
  5
366
  8
DETAIL
  6
CONTINUOUS
 62
     5
 10
-60.606429000000013
 20
89.577853000000005
 30
0.0
 11
-60.549094999999987
 21
89.639146999999994
 31
0.0
  0
LINE
  5
367
  8
DETAIL
  6
CONTINUOUS
 62
     5
 10
-60.657870999999993
 20
89.510257999999993
 30
0.0
 11
-60.606429000000013
 21
89.577853000000005
 31
0.0
  0
LINE
  5
368
  8
DETAIL
  6
CONTINUOUS
 62
     5
 10
-60.702829999999999
 20
89.436891000000003
 30
0.0
 11
-60.657870999999993
 21
89.510257999999993
 31
0.0
  0
LINE
  5
369
  8
DETAIL
  6
CONTINUOUS
 62
     5
 10
-60.740790000000011
 20
89.358276000000004
 30
0.0
 11
-60.702829999999999
 21
89.436891000000003
 31
0.0
  0
LINE
  5
36A
  8
DETAIL
  6
CONTINUOUS
 62
     5
 10
-60.771271999999989
 20
89.275238000000016
 30
0.0
 11
-60.740790000000011
 21
89.358276000000004
 31
0.0
  0
LINE
  5
36B
  8
DETAIL
  6
CONTINUOUS
 62
     5
 10
-60.793926999999996
 20
89.188651000000007
 30
0.0
 11
-60.771271999999989
 21
89.275238000000016
 31
0.0
  0
LINE
  5
36C
  8
DETAIL
  6
CONTINUOUS
 62
     5
 10
-60.808506000000008
 20
89.099370999999977
 30
0.0
 11
-60.793926999999996
 21
89.188651000000007
 31
0.0
  0
LINE
  5
36D
  8
DETAIL
  6
CONTINUOUS
 62
     5
 10
-60.814906000000008
 20
89.008375999999998
 30
0.0
 11
-60.808506000000008
 21
89.099370999999977
 31
0.0
  0
LINE
  5
36E
  8
DETAIL
  6
CONTINUOUS
 62
     5
 10
-60.813020999999999
 20
88.916403000000003
 30
0.0
 11
-60.814906000000008
 21
89.008375999999998
 31
0.0
  0
ARC
  5
36F
  8
DETAIL
  6
CONTINUOUS
 62
     5
 10
-54.0
 20
88.947481999999994
 30
0.0
 40
1.0
 50
0.0
 51
89.0
  0
LINE
  5
370
  8
DETAIL
  6
CONTINUOUS
 62
     5
 10
-53.311965000000001
 20
89.029465000000002
 30
0.0
 11
-53.00382299999999
 21
89.034842999999995
 31
0.0
  0
LINE
  5
371
  8
DETAIL
  6
CONTINUOUS
 62
     5
 10
-53.0
 20
87.965090000000004
 30
0.0
 11
-53.308856000000013
 21
87.970481000000007
 31
0.0
  0
LINE
  5
372
  8
DETAIL
  6
CONTINUOUS
 62
     5
 10
-53.311014999999998
 20
89.016592000000003
 30
0.0
 11
-53.311965000000001
 21
89.029465000000002
 31
0.0
  0
LINE
  5
373
  8
DETAIL
  6
CONTINUOUS
 62
     5
 10
-53.310237999999998
 20
89.003713000000005
 30
0.0
 11
-53.311014999999998
 21
89.016592000000003
 31
0.0
  0
LINE
  5
374
  8
DETAIL
  6
CONTINUOUS
 62
     5
 10
-53.309632999999998
 20
88.990825000000001
 30
0.0
 11
-53.310237999999998
 21
89.003713000000005
 31
0.0
  0
LINE
  5
375
  8
DETAIL
  6
CONTINUOUS
 62
     5
 10
-53.309201000000002
 20
88.977931999999996
 30
0.0
 11
-53.309632999999998
 21
88.990825000000001
 31
0.0
  0
LINE
  5
376
  8
DETAIL
  6
CONTINUOUS
 62
     5
 10
-53.308942000000002
 20
88.965035999999998
 30
0.0
 11
-53.309201000000002
 21
88.977931999999996
 31
0.0
  0
LINE
  5
377
  8
DETAIL
  6
CONTINUOUS
 62
     5
 10
-53.308856000000013
 20
88.952136999999993
 30
0.0
 11
-53.308942000000002
 21
88.965035999999998
 31
0.0
  0
LINE
  5
378
  8
DETAIL
  6
CONTINUOUS
 62
     5
 10
-53.308856000000013
 20
87.970481000000007
 30
0.0
 11
-53.308856000000013
 21
88.952136999999993
 31
0.0
  0
ARC
  5
379
  8
DETAIL
  6
CONTINUOUS
 62
     5
 10
-24.5
 20
89.072265999999985
 30
0.0
 40
0.5
 50
90.999981999999974
 51
179.998988
  0
ARC
  5
37A
  8
DETAIL
  6
CONTINUOUS
 62
     5
 10
-0.5
 20
89.491187999999994
 30
0.0
 40
0.5
 50
0.000895
 51
90.999984000000026
  0
ARC
  5
37B
  8
DETAIL
  6
CONTINUOUS
 62
     5
 10
-2.0
 20
93.004134999999991
 30
0.0
 40
2.0
 50
0.0
 51
89.0
  0
LINE
  5
37C
  8
DETAIL
  6
CONTINUOUS
 62
     5
 10
-3.0
 20
94.495636000000005
 30
0.0
 11
-3.0
 21
92.917468999999997
 31
0.0
  0
LINE
  5
37D
  8
DETAIL
  6
CONTINUOUS
 62
     5
 10
-1.9650949999999989
 20
95.003831000000005
 30
0.0
 11
-2.0
 21
95.004439999999988
 31
0.0
  0
LINE
  5
37E
  8
DETAIL
  6
CONTINUOUS
 62
     5
 10
-2.0
 20
95.004439999999988
 30
0.0
 11
-2.5087259999999989
 21
94.995559999999998
 31
0.0
  0
ARC
  5
37F
  8
DETAIL
  6
CONTINUOUS
 62
     5
 10
-2.5
 20
94.495626999999985
 30
0.0
 40
0.5
 50
90.999981000000005
 51
179.99892199999999
  0
ARC
  5
380
  8
DETAIL
  6
CONTINUOUS
 62
     5
 10
-6.0930339999999994
 20
92.795961000000005
 30
0.0
 40
3.0954209999999991
 50
291.36861299999998
 51
2.250515
  0
LINE
  5
381
  8
DETAIL
  6
DASHED
 62
     5
 10
-57.5
 20
-80.000000999999983
 30
0.0
 11
-57.5
 21
99.999999000000003
 31
0.0
  0
ARC
  5
382
  8
DETAIL
  6
DASHED
 62
     5
 10
1957.999998
 20
9.9999990000000007
 30
0.0
 40
2026.0
 50
177.49152100000001
 51
182.50847899999999
  0
ARC
  5
383
  8
DETAIL
  6
DASHED
 62
     5
 10
-65.059556999999998
 20
-78.628653
 30
0.0
 40
1.0
 50
182.50847899999999
 51
267.0
  0
LINE
  5
384
  8
DETAIL
  6
DASHED
 62
     5
 10
-65.111893000000009
 20
-79.627281999999994
 30
0.0
 11
-57.5
 21
-80.000000999999983
 31
0.0
  0
ARC
  5
385
  8
DETAIL
  6
DASHED
 62
     5
 10
-65.059556999999998
 20
98.628651000000005
 30
0.0
 40
1.0
 50
93.0
 51
177.49152100000001
  0
LINE
  5
386
  8
DETAIL
  6
DASHED
 62
     5
 10
-65.111893000000009
 20
99.627281000000011
 30
0.0
 11
-57.5
 21
99.999999000000003
 31
0.0
  0
LINE
  5
387
  8
OUTLINE
  6
CONTINUOUS
 62
     3
 10
-57.0
 20
90.0
 30
0.0
 11
-57.0
 21
89.491271999999995
 31
0.0
  0
ARC
  5
388
  8
OUTLINE
  6
CONTINUOUS
 62
     3
 10
1957.999998
 20
0.0
 30
0.0
 40
2026.0
 50
177.49152100000001
 51
182.50847899999999
  0
LINE
  5
389
  8
OUTLINE
  6
CONTINUOUS
 62
     3
 10
-25.0
 20
89.072275000000005
 30
0.0
 11
-25.0
 21
-69.204798999999994
 31
0.0
  0
LINE
  5
38A
  8
OUTLINE
  6
CONTINUOUS
 62
     3
 10
0.0
 20
-89.500000000000014
 30
0.0
 11
0.0
 21
89.491196000000016
 31
0.0
  0
ARC
  5
38B
  8
OUTLINE
  6
CONTINUOUS
 62
     3
 10
-65.059556999999998
 20
-88.628651999999988
 30
0.0
 40
1.0
 50
182.50847899999999
 51
267.0
  0
LINE
  5
38C
  8
OUTLINE
  6
CONTINUOUS
 62
     3
 10
-53.0
 20
-82.0
 30
0.0
 11
-53.0
 21
-88.947481999999994
 31
0.0
  0
LINE
  5
38D
  8
OUTLINE
  6
CONTINUOUS
 62
     3
 10
-24.851479999999999
 20
-89.508725999999996
 30
0.0
 11
-24.999673000000001
 21
-81.018743000000001
 31
0.0
  0
LINE
  5
38E
  8
OUTLINE
  6
CONTINUOUS
 62
     3
 10
-24.351555999999999
 20
-90.0
 30
0.0
 11
-0.5
 21
-90.0
 31
0.0
  0
LINE
  5
38F
  8
OUTLINE
  6
CONTINUOUS
 62
     3
 10
-53.982548000000001
 20
-89.947330000000008
 30
0.0
 11
-57.0
 21
-90.0
 31
0.0
  0
LINE
  5
390
  8
OUTLINE
  6
CONTINUOUS
 62
     3
 10
-57.5
 20
-89.500000000000014
 30
0.0
 11
-57.0
 21
-89.491271999999995
 31
0.0
  0
LINE
  5
391
  8
OUTLINE
  6
CONTINUOUS
 62
     3
 10
-57.0
 20
-90.0
 30
0.0
 11
-54.67516899999999
 21
-89.959419999999994
 31
0.0
  0
LINE
  5
392
  8
OUTLINE
  6
CONTINUOUS
 62
     3
 10
-65.111893000000009
 20
-89.627281999999994
 30
0.0
 11
-57.5
 21
-90.0
 31
0.0
  0
ARC
  5
393
  8
OUTLINE
  6
CONTINUOUS
 62
     3
 10
-54.0
 20
-88.947481999999994
 30
0.0
 40
1.0
 50
271.0
 51
0.0
  0
ARC
  5
394
  8
OUTLINE
  6
CONTINUOUS
 62
     3
 10
-24.351555999999999
 20
-89.499992000000006
 30
0.0
 40
0.5
 50
181.000933
 51
270.0
  0
ARC
  5
395
  8
OUTLINE
  6
CONTINUOUS
 62
     3
 10
-0.5
 20
-89.500000000000014
 30
0.0
 40
0.5
 50
270.0
 51
0.0
  0
LINE
  5
396
  8
OUTLINE
  6
CONTINUOUS
 62
     3
 10
-53.0
 20
-82.0
 30
0.0
 11
-25.080815000000001
 21
-82.0
 31
0.0
  0
LINE
  5
397
  8
OUTLINE
  6
CONTINUOUS
 62
     3
 10
-25.089542000000002
 20
-81.5
 30
0.0
 11
-24.991302999999998
 21
-81.498255
 31
0.0
  0
LINE
  5
398
  8
OUTLINE
  6
CONTINUOUS
 62
     3
 10
-24.999673000000001
 20
-81.018743000000001
 30
0.0
 11
-24.996828000000001
 21
-81.014818999999989
 31
0.0
  0
LINE
  5
399
  8
OUTLINE
  6
CONTINUOUS
 62
     3
 10
-25.0
 20
-69.206142
 30
0.0
 11
-25.0
 21
-70.936377000000007
 31
0.0
  0
LINE
  5
39A
  8
OUTLINE
  6
CONTINUOUS
 62
     3
 10
-25.0
 20
-78.481188000000003
 30
0.0
 11
-25.0
 21
-81.017543000000003
 31
0.0
  0
LINE
  5
39B
  8
OUTLINE
  6
CONTINUOUS
 62
     3
 10
-25.0
 20
-78.481262000000001
 30
0.0
 11
-25.0
 21
-70.936377000000007
 31
0.0
  0
ARC
  5
39C
  8
OUTLINE
  6
CONTINUOUS
 62
     3
 10
-25.080815000000001
 20
-82.099999999999994
 30
0.0
 40
0.1
 50
0.9999870000000001
 51
90.0
  0
LINE
  5
39D
  8
OUTLINE
  6
CONTINUOUS
 62
     3
 10
-53.0
 20
83.511257999999998
 30
0.0
 11
-53.0
 21
88.947481999999994
 31
0.0
  0
LINE
  5
39E
  8
OUTLINE
  6
CONTINUOUS
 62
     3
 10
-25.0
 20
84.0
 30
0.0
 11
-53.0
 21
83.511257999999998
 31
0.0
  0
LINE
  5
39F
  8
OUTLINE
  6
CONTINUOUS
 62
     3
 10
-24.508725999999999
 20
89.572198999999998
 30
0.0
 11
-0.5087260000000001
 21
89.991119999999995
 31
0.0
  0
LINE
  5
3A0
  8
OUTLINE
  6
CONTINUOUS
 62
     3
 10
-53.982548000000001
 20
89.947330000000008
 30
0.0
 11
-57.0
 21
90.0
 31
0.0
  0
ARC
  5
3A1
  8
OUTLINE
  6
CONTINUOUS
 62
     3
 10
-65.059556999999998
 20
88.628651999999988
 30
0.0
 40
1.0
 50
93.0
 51
177.49152100000001
  0
LINE
  5
3A2
  8
OUTLINE
  6
CONTINUOUS
 62
     3
 10
-65.111893000000009
 20
89.627281999999994
 30
0.0
 11
-57.5
 21
90.0
 31
0.0
  0
LINE
  5
3A3
  8
OUTLINE
  6
CONTINUOUS
 62
     3
 10
-57.5
 20
89.500000000000014
 30
0.0
 11
-57.0
 21
89.491271999999995
 31
0.0
  0
ARC
  5
3A4
  8
OUTLINE
  6
CONTINUOUS
 62
     3
 10
-54.0
 20
88.947481999999994
 30
0.0
 40
1.0
 50
0.0
 51
89.0
  0
ARC
  5
3A5
  8
OUTLINE
  6
CONTINUOUS
 62
     3
 10
-24.5
 20
89.072265999999985
 30
0.0
 40
0.5
 50
90.999981999999974
 51
179.998988
  0
ARC
  5
3A6
  8
OUTLINE
  6
CONTINUOUS
 62
     3
 10
-0.5
 20
89.491187999999994
 30
0.0
 40
0.5
 50
0.000895
 51
90.999984000000026
  0
LINE
  5
3A7
  8
OUTLINE
  6
CONTINUOUS
 62
     3
 10
-57.5
 20
89.500000000000014
 30
0.0
 11
-57.5
 21
90.0
 31
0.0
  0
LINE
  5
3A8
  8
OUTLINE
  6
CONTINUOUS
 62
     3
 39
50.0
 10
-57.5
 20
-90.0
 30
0.0
 11
-57.5
 21
-89.500000000000014
 31
0.0
  0
LINE
  5
3A9
  8
OUTLINE
  6
CONTINUOUS
 62
     3
 39
50.0
 10
-57.0
 20
-90.0
 30
0.0
 11
-57.0
 21
-89.491271999999995
 31
0.0
  0
LINE
  5
3AA
  8
DETAIL
  6
CONTINUOUS
 62
     5
 10
65.0
 20
-48.699998999999991
 30
0.0
 11
65.0
 21
48.700001
 31
0.0
  0
LINE
  5
3AB
  8
DETAIL
  6
CONTINUOUS
 62
     5
 39
49.999109999999988
 10
65.0
 20
48.700001
 30
0.0
 11
-0.000001
 21
48.700000000000003
 31
0.0
  0
LINE
  5
3AC
  8
DETAIL
  6
CONTINUOUS
 62
     5
 39
49.999109999999988
 10
65.0
 20
-48.699998999999991
 30
0.0
 11
0.0
 21
-48.700001
 31
0.0
  0
LINE
  5
3AD
  8
OUTLINE
  6
CONTINUOUS
 62
     3
 10
65.0
 20
-48.699998000000001
 30
0.0
 11
65.0
 21
48.700001999999998
 31
0.0
  0
LINE
  5
3AE
  8
OUTLINE
  6
CONTINUOUS
 62
     3
 39
49.999109999999988
 10
65.0
 20
48.700001999999998
 30
0.0
 11
-0.000001
 21
48.700001
 31
0.0
  0
LINE
  5
3AF
  8
OUTLINE
  6
CONTINUOUS
 62
     3
 39
49.999109999999988
 10
65.0
 20
-48.699998000000001
 30
0.0
 11
0.0
 21
-48.700000000000003
 31
0.0
  0
LINE
  5
3B0
  8
NOTE
  6
CONTINUOUS
 62
     4
 10
0.0
 20
-20.0
 30
0.0
 11
0.0
 21
20.0
 31
0.0
  0
LINE
  5
3B1
  8
NOTE
  6
CONTINUOUS
 62
     4
 10
-20.0
 20
0.0
 30
0.0
 11
20.0
 21
0.0
 31
0.0
  0
LINE
  5
3B2
  8
NOTE
  6
CONTINUOUS
 62
     4
 10
0.000001
 20
-85.0
 30
0.0
 11
0.000001
 21
-45.0
 31
0.0
  0
LINE
  5
3B3
  8
NOTE
  6
CONTINUOUS
 62
     4
 10
-19.999998999999999
 20
-65.0
 30
0.0
 11
20.000001000000001
 21
-65.0
 31
0.0
  0
LINE
  5
3B4
  8
SIZE
  6
CONTINUOUS
 62
    30
 10
85.0
 20
-48.699998999999991
 30
0.0
 11
557.19678899999985
 21
-48.699998999999991
 31
0.0
  0
LINE
  5
3B5
  8
SIZE
  6
CONTINUOUS
 62
    30
 10
85.0
 20
48.700001999999998
 30
0.0
 11
557.19678899999985
 21
48.700001999999998
 31
0.0
  0
LINE
  5
3B6
  8
SIZE
  6
CONTINUOUS
 62
    30
 10
537.19678899999985
 20
36.700001999999998
 30
0.0
 11
537.19678899999985
 21
-36.699998999999998
 31
0.0
  0
LINE
  5
3B7
  8
SIZE
  6
CONTINUOUS
 62
    30
 10
537.19678899999985
 20
-48.699998999999991
 30
0.0
 11
537.19678899999985
 21
-341.44673499999999
 31
0.0
  0
CIRCLE
  5
3B8
  8
SIZE
  6
CONTINUOUS
 62
    30
 10
537.19678899999985
 20
48.700001999999998
 30
0.0
 40
6.0
  0
LINE
  5
3B9
  8
SIZE
  6
CONTINUOUS
 62
    30
 10
537.19678899999985
 20
48.700001999999998
 30
0.0
 11
537.19678899999985
 21
36.700001999999998
 31
0.0
  0
CIRCLE
  5
3BA
  8
SIZE
  6
CONTINUOUS
 62
    30
 10
537.19678899999985
 20
-48.699998999999991
 30
0.0
 40
6.0
  0
LINE
  5
3BB
  8
SIZE
  6
CONTINUOUS
 62
    30
 10
537.19678899999985
 20
-48.699998999999991
 30
0.0
 11
537.19678899999985
 21
-36.699998999999998
 31
0.0
  0
TEXT
  5
3BC
  8
SIZE
  6
CONTINUOUS
 62
    30
 10
512.19678899999985
 20
-330.7095921428571
 30
0.0
 40
64.0
  1
φ97.4
 50
90.0
 41
0.9
 72
     1
 11
512.19678899999985
 21
-201.246735
 31
0.0
  0
POINT
  5
3BD
  8
DEFPOINTS
  6
CONTINUOUS
 62
    30
 10
65.0
 20
-48.699998999999991
 30
0.0
  0
POINT
  5
3BE
  8
DEFPOINTS
  6
CONTINUOUS
 62
    30
 10
65.0
 20
48.700001999999998
 30
0.0
  0
POINT
  5
3BF
  8
DEFPOINTS
  6
CONTINUOUS
 62
    30
 10
537.19678899999985
 20
48.700001999999998
 30
0.0
  0
LINE
  5
3C0
  8
SIZE
  6
CONTINUOUS
 62
    30
 10
-44.351556000000002
 20
-89.999992000000006
 30
0.0
 11
-321.46788600000002
 21
-89.999992000000006
 31
0.0
  0
LINE
  5
3C1
  8
SIZE
  6
CONTINUOUS
 62
    30
 10
-20.511704999999999
 20
90.0
 30
0.0
 11
-321.46788600000002
 21
90.0
 31
0.0
  0
LINE
  5
3C2
  8
SIZE
  6
CONTINUOUS
 62
    30
 10
-301.46788600000002
 20
-101.99999200000001
 30
0.0
 11
-301.46788600000002
 21
-113.99999200000001
 31
0.0
  0
LINE
  5
3C3
  8
SIZE
  6
CONTINUOUS
 62
    30
 10
-301.46788600000002
 20
102.0
 30
0.0
 11
-301.46788600000002
 21
114.0
 31
0.0
  0
LINE
  5
3C4
  8
SIZE
  6
CONTINUOUS
 62
    30
 10
-301.46788600000002
 20
-89.999992000000006
 30
0.0
 11
-301.46788600000002
 21
90.0
 31
0.0
  0
CIRCLE
  5
3C5
  8
SIZE
  6
CONTINUOUS
 62
    30
 10
-301.46788600000002
 20
-89.999992000000006
 30
0.0
 40
6.0
  0
LINE
  5
3C6
  8
SIZE
  6
CONTINUOUS
 62
    30
 10
-301.46788600000002
 20
-89.999992000000006
 30
0.0
 11
-301.46788600000002
 21
-101.99999200000001
 31
0.0
  0
CIRCLE
  5
3C7
  8
SIZE
  6
CONTINUOUS
 62
    30
 10
-301.46788600000002
 20
90.0
 30
0.0
 40
6.0
  0
LINE
  5
3C8
  8
SIZE
  6
CONTINUOUS
 62
    30
 10
-301.46788600000002
 20
90.0
 30
0.0
 11
-301.46788600000002
 21
102.0
 31
0.0
  0
TEXT
  5
3C9
  8
SIZE
  6
CONTINUOUS
 62
    30
 10
-326.46788600000002
 20
-68.571424571428551
 30
0.0
 40
64.0
  1
180
 50
90.0
 41
0.9
 72
     1
 11
-326.46788600000002
 21
0.000004
 31
0.0
  0
POINT
  5
3CA
  8
DEFPOINTS
  6
CONTINUOUS
 62
    30
 10
-24.351555999999999
 20
-89.999992000000006
 30
0.0
  0
POINT
  5
3CB
  8
DEFPOINTS
  6
CONTINUOUS
 62
    30
 10
-0.511705
 20
90.0
 30
0.0
  0
POINT
  5
3CC
  8
DEFPOINTS
  6
CONTINUOUS
 62
    30
 10
-301.46788600000002
 20
90.0
 30
0.0
  0
LINE
  5
3CD
  8
SIZE
  6
CONTINUOUS
 62
    30
 10
-126.583313
 20
-0.000001
 30
0.0
 11
-189.26894799999999
 21
-0.000001
 31
0.0
  0
LINE
  5
3CE
  8
SIZE
  6
CONTINUOUS
 62
    30
 10
-77.5
 20
99.999999000000003
 30
0.0
 11
-189.26894799999999
 21
99.999999000000003
 31
0.0
  0
LINE
  5
3CF
  8
SIZE
  6
CONTINUOUS
 62
    30
 10
-169.26894799999999
 20
11.999999000000001
 30
0.0
 11
-169.26894799999999
 21
87.999999000000017
 31
0.0
  0
LINE
  5
3D0
  8
SIZE
  6
CONTINUOUS
 62
    30
 10
-169.26894799999999
 20
99.999999000000003
 30
0.0
 11
-169.26894799999999
 21
429.16601800000001
 31
0.0
  0
CIRCLE
  5
3D1
  8
SIZE
  6
CONTINUOUS
 62
    30
 10
-169.26894799999999
 20
-0.000001
 30
0.0
 40
6.0
  0
LINE
  5
3D2
  8
SIZE
  6
CONTINUOUS
 62
    30
 10
-169.26894799999999
 20
-0.000001
 30
0.0
 11
-169.26894799999999
 21
11.999999000000001
 31
0.0
  0
CIRCLE
  5
3D3
  8
SIZE
  6
CONTINUOUS
 62
    30
 10
-169.26894799999999
 20
99.999999000000003
 30
0.0
 40
6.0
  0
LINE
  5
3D4
  8
SIZE
  6
CONTINUOUS
 62
    30
 10
-169.26894799999999
 20
99.999999000000003
 30
0.0
 11
-169.26894799999999
 21
87.999999000000017
 31
0.0
  0
TEXT
  5
3D5
  8
SIZE
  6
CONTINUOUS
 62
    30
 10
-211.03085300000001
 20
192.96601799999999
 30
0.0
 40
64.0
  1
(100)
 50
90.0
 41
0.9
 72
     1
 11
-211.03085300000001
 21
298.56601799999999
 31
0.0
  0
POINT
  5
3D6
  8
DEFPOINTS
  6
CONTINUOUS
 62
    30
 10
-106.583313
 20
-0.000001
 30
0.0
  0
POINT
  5
3D7
  8
DEFPOINTS
  6
CONTINUOUS
 62
    30
 10
-57.5
 20
99.999999000000003
 30
0.0
  0
POINT
  5
3D8
  8
DEFPOINTS
  6
CONTINUOUS
 62
    30
 10
-169.26894799999999
 20
99.999999000000003
 30
0.0
  0
LINE
  5
3D9
  8
SIZE
  6
CONTINUOUS
 62
    30
 10
40.000000999999997
 20
-65.0
 30
0.0
 11
425.21176099999991
 21
-65.0
 31
0.0
  0
LINE
  5
3DA
  8
SIZE
  6
CONTINUOUS
 62
    30
 10
126.08331099999999
 20
0.000001
 30
0.0
 11
425.21176099999991
 21
0.000001
 31
0.0
  0
LINE
  5
3DB
  8
SIZE
  6
CONTINUOUS
 62
    30
 10
405.21176099999991
 20
12.000000999999999
 30
0.0
 11
405.21176099999991
 21
24.000001000000001
 31
0.0
  0
LINE
  5
3DC
  8
SIZE
  6
CONTINUOUS
 62
    30
 10
405.21176099999991
 20
-77.0
 30
0.0
 11
405.21176099999991
 21
-306.31428599999998
 31
0.0
  0
LINE
  5
3DD
  8
SIZE
  6
CONTINUOUS
 62
    30
 10
405.21176099999991
 20
0.000001
 30
0.0
 11
405.21176099999991
 21
-65.0
 31
0.0
  0
CIRCLE
  5
3DE
  8
SIZE
  6
CONTINUOUS
 62
    30
 10
405.21176099999991
 20
0.000001
 30
0.0
 40
6.0
  0
LINE
  5
3DF
  8
SIZE
  6
CONTINUOUS
 62
    30
 10
405.21176099999991
 20
0.000001
 30
0.0
 11
405.21176099999991
 21
12.000000999999999
 31
0.0
  0
CIRCLE
  5
3E0
  8
SIZE
  6
CONTINUOUS
 62
    30
 10
405.21176099999991
 20
-65.0
 30
0.0
 40
6.0
  0
LINE
  5
3E1
  8
SIZE
  6
CONTINUOUS
 62
    30
 10
405.21176099999991
 20
-65.0
 30
0.0
 11
405.21176099999991
 21
-77.0
 31
0.0
  0
TEXT
  5
3E2
  8
SIZE
  6
CONTINUOUS
 62
    30
 10
363.44985600000001
 20
-281.31428585714292
 30
0.0
 40
64.0
  1
(65)
 50
90.0
 41
0.9
 72
     1
 11
363.44985600000001
 21
-197.65714299999999
 31
0.0
  0
POINT
  5
3E3
  8
DEFPOINTS
  6
CONTINUOUS
 62
    30
 10
20.000001000000001
 20
-65.0
 30
0.0
  0
POINT
  5
3E4
  8
DEFPOINTS
  6
CONTINUOUS
 62
    30
 10
106.08331099999999
 20
0.000001
 30
0.0
  0
POINT
  5
3E5
  8
DEFPOINTS
  6
CONTINUOUS
 62
    30
 10
405.21176099999991
 20
0.000001
 30
0.0
  0
LINE
  5
3E6
  8
SIZE
  6
CONTINUOUS
 62
    30
 10
17.745636999999999
 20
95.0
 30
0.0
 11
97.241609000000011
 21
95.0
 31
0.0
  0
LINE
  5
3E7
  8
SIZE
  6
CONTINUOUS
 62
    30
 10
19.488295000000001
 20
90.0
 30
0.0
 11
97.241609000000011
 21
90.0
 31
0.0
  0
LINE
  5
3E8
  8
SIZE
  6
CONTINUOUS
 62
    30
 10
77.241608999999997
 20
78.0
 30
0.0
 11
77.241608999999997
 21
66.0
 31
0.0
  0
LINE
  5
3E9
  8
SIZE
  6
CONTINUOUS
 62
    30
 10
77.241608999999997
 20
107.0
 30
0.0
 11
77.241608999999997
 21
207.40000000000001
 31
0.0
  0
LINE
  5
3EA
  8
SIZE
  6
CONTINUOUS
 62
    30
 10
77.241608999999997
 20
90.0
 30
0.0
 11
77.241608999999997
 21
95.0
 31
0.0
  0
CIRCLE
  5
3EB
  8
SIZE
  6
CONTINUOUS
 62
    30
 10
77.241608999999997
 20
90.0
 30
0.0
 40
6.0
  0
LINE
  5
3EC
  8
SIZE
  6
CONTINUOUS
 62
    30
 10
77.241608999999997
 20
90.0
 30
0.0
 11
77.241608999999997
 21
78.0
 31
0.0
  0
CIRCLE
  5
3ED
  8
SIZE
  6
CONTINUOUS
 62
    30
 10
77.241608999999997
 20
95.0
 30
0.0
 40
6.0
  0
LINE
  5
3EE
  8
SIZE
  6
CONTINUOUS
 62
    30
 10
77.241608999999997
 20
95.0
 30
0.0
 11
77.241608999999997
 21
107.0
 31
0.0
  0
TEXT
  5
3EF
  8
SIZE
  6
CONTINUOUS
 62
    30
 10
52.241609000000011
 20
144.0
 30
0.0
 40
64.0
  1
5
 50
90.0
 41
0.9
 72
     1
 11
52.241609000000011
 21
163.19999999999999
 31
0.0
  0
POINT
  5
3F0
  8
DEFPOINTS
  6
CONTINUOUS
 62
    30
 10
-2.2543630000000001
 20
95.0
 30
0.0
  0
POINT
  5
3F1
  8
DEFPOINTS
  6
CONTINUOUS
 62
    30
 10
-0.511705
 20
90.0
 30
0.0
  0
POINT
  5
3F2
  8
DEFPOINTS
  6
CONTINUOUS
 62
    30
 10
77.241608999999997
 20
90.0
 30
0.0
  0
TEXT
  5
3F3
  8
NOTE
  6
CONTINUOUS
 62
     4
 10
139.51774900000001
 20
-163.088066
 30
0.0
 40
64.0
  1
EL
 41
0.9
  0
LINE
  5
3F4
  8
NOTE
  6
CONTINUOUS
 62
     4
 39
50.0
 10
230.411146
 20
-172.43285900000001
 30
0.0
 11
131.525702
 21
-172.43285900000001
 31
0.0
  0
LINE
  5
3F5
  8
NOTE
  6
CONTINUOUS
 62
     4
 39
50.0
 10
131.525702
 20
-172.43285900000001
 30
0.0
 11
0.000001
 21
-64.999999000000003
 31
0.0
  0
LINE
  5
3F6
  8
NOTE
  6
CONTINUOUS
 62
     4
 10
36.604531999999999
 20
-81.127841000000004
 30
0.0
 11
-0.000013
 21
-64.999999000000003
 31
0.0
  0
LINE
  5
3F7
  8
NOTE
  6
CONTINUOUS
 62
     4
 10
-0.000013
 20
-64.999999000000003
 30
0.0
 11
23.636531000000002
 21
-97.269393000000008
 31
0.0
  0
LINE
  5
3F8
  8
NOTE
  6
CONTINUOUS
 62
     4
 10
240.619427
 20
158.371151
 30
0.0
 11
0.0
 21
-0.004402
 31
0.0
  0
LINE
  5
3F9
  8
NOTE
  6
CONTINUOUS
 62
     4
 10
240.619427
 20
158.371151
 30
0.0
 11
620.023279
 21
158.371151
 31
0.0
  0
LINE
  5
3FA
  8
NOTE
  6
CONTINUOUS
 62
     4
 10
26.169322000000001
 20
30.247312999999998
 30
0.0
 11
-0.000001
 21
-0.004406
 31
0.0
  0
LINE
  5
3FB
  8
NOTE
  6
CONTINUOUS
 62
     4
 10
-0.000001
 20
-0.004406
 30
0.0
 11
37.789158
 21
13.109688999999999
 31
0.0
  0
TEXT
  5
3FC
  8
NOTE
  6
CONTINUOUS
 62
     4
 10
266.27813800000001
 20
173.34821299999999
 30
0.0
 40
64.0
  1
2-5×15
 41
0.9
  0
LINE
  5
3FD
  8
SIZE
  6
CONTINUOUS
 62
    30
 10
-31.082042000000001
 20
-97.0
 30
0.0
 11
-321.46788600000002
 21
-97.0
 31
0.0
  0
LINE
  5
3FE
  8
SIZE
  6
CONTINUOUS
 62
    30
 10
-44.351556000000002
 20
-90.0
 30
0.0
 11
-321.46788600000002
 21
-90.0
 31
0.0
  0
LINE
  5
3FF
  8
SIZE
  6
CONTINUOUS
 62
    30
 10
-301.46788600000002
 20
-78.0
 30
0.0
 11
-301.46788600000002
 21
-66.0
 31
0.0
  0
LINE
  5
400
  8
SIZE
  6
CONTINUOUS
 62
    30
 10
-301.46788600000002
 20
-109.0
 30
0.0
 11
-301.46788600000002
 21
-209.40000000000001
 31
0.0
  0
LINE
  5
401
  8
SIZE
  6
CONTINUOUS
 62
    30
 10
-301.46788600000002
 20
-90.0
 30
0.0
 11
-301.46788600000002
 21
-97.0
 31
0.0
  0
CIRCLE
  5
402
  8
SIZE
  6
CONTINUOUS
 62
    30
 10
-301.46788600000002
 20
-90.0
 30
0.0
 40
6.0
  0
LINE
  5
403
  8
SIZE
  6
CONTINUOUS
 62
    30
 10
-301.46788600000002
 20
-90.0
 30
0.0
 11
-301.46788600000002
 21
-78.0
 31
0.0
  0
CIRCLE
  5
404
  8
SIZE
  6
CONTINUOUS
 62
    30
 10
-301.46788600000002
 20
-97.0
 30
0.0
 40
6.0
  0
LINE
  5
405
  8
SIZE
  6
CONTINUOUS
 62
    30
 10
-301.46788600000002
 20
-97.0
 30
0.0
 11
-301.46788600000002
 21
-109.0
 31
0.0
  0
TEXT
  5
406
  8
SIZE
  6
CONTINUOUS
 62
    30
 10
-326.46788600000002
 20
-184.40000000000001
 30
0.0
 40
64.0
  1
7
 50
90.0
 41
0.9
 72
     1
 11
-326.46788600000002
 21
-165.19999999999999
 31
0.0
  0
POINT
  5
407
  8
DEFPOINTS
  6
CONTINUOUS
 62
    30
 10
-11.082042
 20
-97.0
 30
0.0
  0
POINT
  5
408
  8
DEFPOINTS
  6
CONTINUOUS
 62
    30
 10
-24.351555999999999
 20
-90.0
 30
0.0
  0
POINT
  5
409
  8
DEFPOINTS
  6
CONTINUOUS
 62
    30
 10
-301.46788600000002
 20
-90.0
 30
0.0
  0
TEXT
  5
40A
  8
NOTE
  6
CONTINUOUS
 62
     4
 10
-86.986175000000003
 20
116.341047
 30
0.0
 40
64.0
  1
（シャッター閉時）
 50
90.0
 41
0.9
  0
LINE
  5
40B
  8
SIZE
  6
CONTINUOUS
 62
    30
 10
-0.000004
 20
-143.18535600000001
 30
0.0
 11
-0.000004
 21
-377.34008599999999
 31
0.0
  0
LINE
  5
40C
  8
SIZE
  6
CONTINUOUS
 62
    30
 10
65.0
 20
-68.699999000000005
 30
0.0
 11
65.0
 21
-377.34008599999999
 31
0.0
  0
LINE
  5
40D
  8
SIZE
  6
CONTINUOUS
 62
    30
 10
-12.000004000000001
 20
-357.34008599999999
 30
0.0
 11
-24.000004000000001
 21
-357.34008599999999
 31
0.0
  0
LINE
  5
40E
  8
SIZE
  6
CONTINUOUS
 62
    30
 10
77.0
 20
-357.34008599999999
 30
0.0
 11
232.25714300000001
 21
-357.34008599999999
 31
0.0
  0
LINE
  5
40F
  8
SIZE
  6
CONTINUOUS
 62
    30
 10
-0.000004
 20
-357.34008599999999
 30
0.0
 11
65.0
 21
-357.34008599999999
 31
0.0
  0
CIRCLE
  5
410
  8
SIZE
  6
CONTINUOUS
 62
    30
 10
-0.000004
 20
-357.34008599999999
 30
0.0
 40
6.0
  0
LINE
  5
411
  8
SIZE
  6
CONTINUOUS
 62
    30
 10
-0.000004
 20
-357.34008599999999
 30
0.0
 11
-12.000004000000001
 21
-357.34008599999999
 31
0.0
  0
CIRCLE
  5
412
  8
SIZE
  6
CONTINUOUS
 62
    30
 10
65.0
 20
-357.34008599999999
 30
0.0
 40
6.0
  0
LINE
  5
413
  8
SIZE
  6
CONTINUOUS
 62
    30
 10
65.0
 20
-357.34008599999999
 30
0.0
 11
77.0
 21
-357.34008599999999
 31
0.0
  0
TEXT
  5
414
  8
SIZE
  6
CONTINUOUS
 62
    30
 10
114.0000005714286
 20
-332.34008599999999
 30
0.0
 40
64.0
  1
65
 41
0.9
 72
     1
 11
160.62857199999999
 21
-332.34008599999999
 31
0.0
  0
POINT
  5
415
  8
DEFPOINTS
  6
CONTINUOUS
 62
    30
 10
-0.000004
 20
-123.185356
 30
0.0
  0
POINT
  5
416
  8
DEFPOINTS
  6
CONTINUOUS
 62
    30
 10
65.0
 20
-48.699998999999991
 30
0.0
  0
POINT
  5
417
  8
DEFPOINTS
  6
CONTINUOUS
 62
    30
 10
65.0
 20
-357.34008599999999
 30
0.0
  0
LINE
  5
418
  8
SIZE
  6
CONTINUOUS
 62
    30
 10
-0.000004
 20
-143.18535600000001
 30
0.0
 11
-0.000004
 21
-377.34008599999999
 31
0.0
  0
LINE
  5
419
  8
SIZE
  6
CONTINUOUS
 62
    30
 10
-68.000001999999995
 20
-20.0
 30
0.0
 11
-68.000001999999995
 21
-377.34008599999999
 31
0.0
  0
LINE
  5
41A
  8
SIZE
  6
CONTINUOUS
 62
    30
 10
11.999995999999999
 20
-357.34008599999999
 30
0.0
 11
23.999995999999999
 21
-357.34008599999999
 31
0.0
  0
LINE
  5
41B
  8
SIZE
  6
CONTINUOUS
 62
    30
 10
-80.000001999999995
 20
-357.34008599999999
 30
0.0
 11
-259.25714499999998
 21
-357.34008599999999
 31
0.0
  0
LINE
  5
41C
  8
SIZE
  6
CONTINUOUS
 62
    30
 10
-0.000004
 20
-357.34008599999999
 30
0.0
 11
-68.000001999999995
 21
-357.34008599999999
 31
0.0
  0
CIRCLE
  5
41D
  8
SIZE
  6
CONTINUOUS
 62
    30
 10
-0.000004
 20
-357.34008599999999
 30
0.0
 40
6.0
  0
LINE
  5
41E
  8
SIZE
  6
CONTINUOUS
 62
    30
 10
-0.000004
 20
-357.34008599999999
 30
0.0
 11
11.999995999999999
 21
-357.34008599999999
 31
0.0
  0
CIRCLE
  5
41F
  8
SIZE
  6
CONTINUOUS
 62
    30
 10
-68.000001999999995
 20
-357.34008599999999
 30
0.0
 40
6.0
  0
LINE
  5
420
  8
SIZE
  6
CONTINUOUS
 62
    30
 10
-68.000001999999995
 20
-357.34008599999999
 30
0.0
 11
-80.000001999999995
 21
-357.34008599999999
 31
0.0
  0
TEXT
  5
421
  8
SIZE
  6
CONTINUOUS
 62
    30
 10
-234.25714542857139
 20
-332.34008599999999
 30
0.0
 40
64.0
  1
68
 41
0.9
 72
     1
 11
-187.62857399999999
 21
-332.34008599999999
 31
0.0
  0
POINT
  5
422
  8
DEFPOINTS
  6
CONTINUOUS
 62
    30
 10
-0.000004
 20
-123.185356
 30
0.0
  0
POINT
  5
423
  8
DEFPOINTS
  6
CONTINUOUS
 62
    30
 10
-68.000001999999995
 20
0.0
 30
0.0
  0
POINT
  5
424
  8
DEFPOINTS
  6
CONTINUOUS
 62
    30
 10
-68.000001999999995
 20
-357.34008599999999
 30
0.0
  0
TEXT
  5
465
  8
ETC
  6
CONTINUOUS
 62
    61
 10
488.04455299942481
 20
518.87890255822799
 30
0.0
 40
40.0
  1
V-08PQF3
 41
0.9
  0
TEXT
  5
466
  8
ETC
  6
CONTINUOUS
 62
    61
 10
488.04455299942481
 20
455.79977055822798
 30
0.0
 40
40.0
  1
V-08PQF3-BE
 41
0.9
  0
TEXT
  5
467
  8
ETC
  6
CONTINUOUS
 62
    61
 10
488.04455299942481
 20
392.2018034367008
 30
0.0
 40
40.0
  1
V-08PQF3-CK
 41
0.9
  0
TEXT
  5
468
  8
ETC
  6
CONTINUOUS
 62
    61
 10
488.04455299942481
 20
329.1226714367009
 30
0.0
 40
40.0
  1
V-08PQF3-T
 41
0.9
  0
TEXT
  5
469
  8
ETC
  6
CONTINUOUS
 62
    61
 10
488.04455299942481
 20
266.68800214233079
 30
0.0
 40
40.0
  1
V-08PQF3-BE-T
 41
0.9
  0
ENDSEC
  0
EOF
