  0
SECTION
  2
HEADER
  9
$ACADVER
  1
AC1009
  9
$INSBASE
 10
0.0
 20
0.0
 30
0.0
  9
$EXTMIN
 10
-588.21713299999999
 20
-254.357392
 30
0.0
  9
$EXTMAX
 10
1036.972405857143
 20
659.68007000000011
 30
50.0
  9
$LIMMIN
 10
-2970.0
 20
-2100.0
  9
$LIMMAX
 10
2970.0
 20
2100.0
  9
$ORTHOMODE
 70
     1
  9
$REGENMODE
 70
     1
  9
$FILLMODE
 70
     1
  9
$QTEXTMODE
 70
     0
  9
$MIRRTEXT
 70
     0
  9
$DRAGMODE
 70
     2
  9
$LTSCALE
 40
5.0
  9
$OSMODE
 70
    37
  9
$ATTMODE
 70
     1
  9
$TEXTSIZE
 40
64.0
  9
$TRACEWID
 40
0.05
  9
$TEXTSTYLE
  7
STANDARD
  9
$CLAYER
  8
SIZE
  9
$CELTYPE
  6
CONTINUOUS
  9
$CECOLOR
 62
     7
  9
$DIMSCALE
 40
1.0
  9
$DIMASZ
 40
12.0
  9
$DIMEXO
 40
20.0
  9
$DIMDLI
 40
200.0
  9
$DIMRND
 40
0.0
  9
$DIMDLE
 40
0.0
  9
$DIMEXE
 40
20.0
  9
$DIMTP
 40
0.0
  9
$DIMTM
 40
0.0
  9
$DIMTXT
 40
64.0
  9
$DIMCEN
 40
0.09
  9
$DIMTSZ
 40
0.0
  9
$DIMTOL
 70
     0
  9
$DIMLIM
 70
     0
  9
$DIMTIH
 70
     0
  9
$DIMTOH
 70
     0
  9
$DIMSE1
 70
     0
  9
$DIMSE2
 70
     0
  9
$DIMTAD
 70
     1
  9
$DIMZIN
 70
     8
  9
$DIMBLK
  1
DOT1
  9
$DIMASO
 70
     1
  9
$DIMSHO
 70
     0
  9
$DIMPOST
  1

  9
$DIMAPOST
  1

  9
$DIMALT
 70
     0
  9
$DIMALTD
 70
     2
  9
$DIMALTF
 40
25.399999999999999
  9
$DIMLFAC
 40
1.0
  9
$DIMTOFL
 70
     1
  9
$DIMTVP
 40
0.0
  9
$DIMTIX
 70
     1
  9
$DIMSOXD
 70
     0
  9
$DIMSAH
 70
     1
  9
$DIMBLK1
  1
ORIGIN
  9
$DIMBLK2
  1
ORIGIN
  9
$DIMSTYLE
  2
STANDARD
  9
$DIMCLRD
 70
     7
  9
$DIMCLRE
 70
     7
  9
$DIMCLRT
 70
     7
  9
$DIMTFAC
 40
1.0
  9
$DIMGAP
 40
25.0
  9
$LUNITS
 70
     2
  9
$LUPREC
 70
     4
  9
$SKETCHINC
 40
0.1
  9
$FILLETRAD
 40
3.0
  9
$AUNITS
 70
     1
  9
$AUPREC
 70
     3
  9
$MENU
  1
ACAD
  9
$ELEVATION
 40
0.0
  9
$PELEVATION
 40
0.0
  9
$THICKNESS
 40
50.0
  9
$LIMCHECK
 70
     0
  9
$BLIPMODE
 70
     0
  9
$CHAMFERA
 40
0.0
  9
$CHAMFERB
 40
0.0
  9
$SKPOLY
 70
     0
  9
$TDCREATE
 40
2453019.6230103709
  9
$TDUPDATE
 40
2454921.6504146531
  9
$TDINDWG
 40
1.7089648610999999
  9
$TDUSRTIMER
 40
1.7089648610999999
  9
$USRTIMER
 70
     1
  9
$ANGBASE
 50
0.0
  9
$ANGDIR
 70
     0
  9
$PDMODE
 70
     3
  9
$PDSIZE
 40
-2.0
  9
$PLINEWID
 40
0.0
  9
$COORDS
 70
     0
  9
$SPLFRAME
 70
     0
  9
$SPLINETYPE
 70
     6
  9
$SPLINESEGS
 70
     8
  9
$ATTDIA
 70
     0
  9
$ATTREQ
 70
     1
  9
$HANDLING
 70
     1
  9
$HANDSEED
  5
3E7
  9
$SURFTAB1
 70
     6
  9
$SURFTAB2
 70
     6
  9
$SURFTYPE
 70
     6
  9
$SURFU
 70
     6
  9
$SURFV
 70
     6
  9
$UCSNAME
  2

  9
$UCSORG
 10
0.0
 20
0.0
 30
0.0
  9
$UCSXDIR
 10
1.0
 20
0.0
 30
0.0
  9
$UCSYDIR
 10
0.0
 20
1.0
 30
0.0
  9
$PUCSNAME
  2

  9
$PUCSORG
 10
0.0
 20
0.0
 30
0.0
  9
$PUCSXDIR
 10
1.0
 20
0.0
 30
0.0
  9
$PUCSYDIR
 10
0.0
 20
1.0
 30
0.0
  9
$USERI1
 70
     0
  9
$USERI2
 70
     0
  9
$USERI3
 70
     0
  9
$USERI4
 70
     0
  9
$USERI5
 70
     0
  9
$USERR1
 40
20.0
  9
$USERR2
 40
0.0
  9
$USERR3
 40
0.0
  9
$USERR4
 40
0.0
  9
$USERR5
 40
0.0
  9
$WORLDVIEW
 70
     1
  9
$SHADEDGE
 70
     3
  9
$SHADEDIF
 70
    70
  9
$TILEMODE
 70
     1
  9
$MAXACTVP
 70
    48
  9
$PLIMCHECK
 70
     0
  9
$PEXTMIN
 10
-1.0000000000000000E+020
 20
-1.0000000000000000E+020
 30
-1.0000000000000000E+020
  9
$PEXTMAX
 10
1.0000000000000000E+020
 20
1.0000000000000000E+020
 30
1.0000000000000000E+020
  9
$PLIMMIN
 10
0.0
 20
0.0
  9
$PLIMMAX
 10
12.0
 20
9.0
  9
$UNITMODE
 70
     0
  9
$VISRETAIN
 70
     0
  9
$PLINEGEN
 70
     0
  9
$PSLTSCALE
 70
     0
  0
ENDSEC
  0
SECTION
  2
TABLES
  0
TABLE
  2
VPORT
 70
     1
  0
VPORT
  2
*ACTIVE
 70
     0
 10
0.0
 20
0.0
 11
1.0
 21
1.0
 12
271.61647413316842
 22
166.64221626000889
 13
0.0
 23
0.0
 14
1.0
 24
1.0
 15
0.0
 25
0.0
 16
0.0
 26
0.0
 36
1.0
 17
0.0
 27
0.0
 37
0.0
 40
1389.738819618507
 41
1.3098995695839311
 42
50.0
 43
0.0
 44
0.0
 50
0.0
 51
0.0
 71
     0
 72
  1000
 73
     1
 74
     0
 75
     0
 76
     0
 77
     0
 78
     0
  0
ENDTAB
  0
TABLE
  2
LTYPE
 70
     2
  0
LTYPE
  2
CONTINUOUS
 70
     0
  3
実線
 72
    65
 73
     0
 40
0.0
  0
LTYPE
  2
DASHDOT
 70
     0
  3
____ _ ____ _ ____ _ ____ _ ____ _ ____ _ ____
 72
    65
 73
     4
 40
5.5
 49
4.0
 49
-0.6
 49
0.3
 49
-0.6
  0
ENDTAB
  0
TABLE
  2
LAYER
 70
     9
  0
LAYER
  2
0
 70
     0
 62
     7
  6
CONTINUOUS
  0
LAYER
  2
SIZE
 70
     0
 62
    30
  6
CONTINUOUS
  0
LAYER
  2
BASIS
 70
     0
 62
     6
  6
DASHDOT
  0
LAYER
  2
OUTLINE
 70
     0
 62
     3
  6
CONTINUOUS
  0
LAYER
  2
DETAIL
 70
     0
 62
     5
  6
CONTINUOUS
  0
LAYER
  2
ARRANGE
 70
     0
 62
     1
  6
CONTINUOUS
  0
LAYER
  2
DEFPOINTS
 70
     0
 62
     7
  6
CONTINUOUS
  0
LAYER
  2
ETC
 70
     0
 62
    61
  6
CONTINUOUS
  0
LAYER
  2
NOTE
 70
     0
 62
     4
  6
CONTINUOUS
  0
ENDTAB
  0
TABLE
  2
STYLE
 70
     2
  0
STYLE
  2
STANDARD
 70
     0
 40
64.0
 41
0.9
 50
0.0
 71
     0
 42
64.0
  3
SIMPLEX.shx
  4
BIGFONT.shx
  0
STYLE
  2
ANNOTATIVE
 70
     0
 40
0.0
 41
1.0
 50
0.0
 71
     0
 42
0.2
  3
txt
  4

  0
ENDTAB
  0
TABLE
  2
VIEW
 70
     1
  0
VIEW
  2
ALL
 70
     0
 40
4282.6198079999986
 10
0.0
 20
41.309903999999989
 41
5940.0
 11
0.0
 21
0.0
 31
1.0
 12
0.0
 22
0.0
 32
0.0
 42
50.0
 43
0.0
 44
0.0
 50
0.0
 71
     0
  0
ENDTAB
  0
TABLE
  2
UCS
 70
     0
  0
ENDTAB
  0
TABLE
  2
APPID
 70
    17
  0
APPID
  2
ACAD
 70
     0
  0
APPID
  2
ACADANNOTATIVE
 70
     0
  0
APPID
  2
ACAD_MLEADERVER
 70
     0
  0
APPID
  2
AUTOCAD_POSTSCRIPT_FIGURE
 70
     0
  0
APPID
  2
ACAD_EXEMPT_FROM_CAD_STANDARDS
 70
     0
  0
APPID
  2
ACAD_PSEXT
 70
     0
  0
APPID
  2
ACAUTHENVIRON
 70
     0
  0
APPID
  2
GENIUS_GENOENT_13
 70
     0
  0
APPID
  2
GENIUS_GENCFG_13
 70
     0
  0
APPID
  2
GENIUS_GENCFG0_13
 70
     0
  0
APPID
  2
GENIUS_GENCFG1_13
 70
     0
  0
APPID
  2
GENIUS_GENCFG2_13
 70
     0
  0
APPID
  2
GENIUS_GENCFG3_13
 70
     0
  0
APPID
  2
GENIUS_GENCFG4_13
 70
     0
  0
APPID
  2
GENIUS_GEVCFG0_13
 70
     0
  0
APPID
  2
CONTENTBLOCKDESCRIPTION
 70
     0
  0
APPID
  2
CONTENTBLOCKICON
 70
     0
  0
ENDTAB
  0
TABLE
  2
DIMSTYLE
 70
     2
  0
DIMSTYLE
  2
STANDARD
 70
     0
  3

  4

  5

  6

  7

 40
1.0
 41
0.18
 42
0.0625
 43
0.38
 44
0.18
 45
0.0
 46
0.0
 47
0.0
 48
0.0
140
0.18
141
0.09
142
0.0
143
25.399999999999999
144
1.0
145
0.0
146
1.0
147
0.09
 71
     0
 72
     0
 73
     1
 74
     1
 75
     0
 76
     0
 77
     0
 78
     0
170
     0
171
     2
172
     0
173
     0
174
     0
175
     0
176
     7
177
     7
178
     7
  0
DIMSTYLE
  2
ANNOTATIVE
 70
     0
  3

  4

  5

  6

  7

 40
1.0
 41
0.18
 42
0.0625
 43
0.38
 44
0.18
 45
0.0
 46
0.0
 47
0.0
 48
0.0
140
0.18
141
0.09
142
0.0
143
25.399999999999999
144
1.0
145
0.0
146
1.0
147
0.09
 71
     0
 72
     0
 73
     1
 74
     1
 75
     0
 76
     0
 77
     0
 78
     0
170
     0
171
     2
172
     0
173
     0
174
     0
175
     0
176
     0
177
     0
178
     0
  0
ENDTAB
  0
ENDSEC
  0
SECTION
  2
BLOCKS
  0
BLOCK
  8
0
  2
$MODEL_SPACE
 70
     0
 10
0.0
 20
0.0
 30
0.0
  3
$MODEL_SPACE
  1

  0
ENDBLK
  5
76
  8
0
  0
BLOCK
 67
     1
  8
0
  2
$PAPER_SPACE
 70
     0
 10
0.0
 20
0.0
 30
0.0
  3
$PAPER_SPACE
  1

  0
ENDBLK
  5
72
 67
     1
  8
0
  0
BLOCK
  8
0
  2
DOT1
 70
     0
 10
0.0
 20
0.0
 30
0.0
  3
DOT1
  1

  0
CIRCLE
  5
96
  8
SIZE
  6
CONTINUOUS
 62
     7
 10
0.0
 20
0.0
 30
0.0
 40
3.0
  0
ENDBLK
  5
97
  8
0
  0
BLOCK
  8
0
  2
_ORIGIN
 70
     0
 10
0.0
 20
0.0
 30
0.0
  3
_ORIGIN
  1

  0
CIRCLE
  5
9A
  8
0
  6
CONTINUOUS
 62
     7
 10
0.0
 20
0.0
 30
0.0
 40
0.5
  0
LINE
  5
9B
  8
0
  6
CONTINUOUS
 62
     7
 10
0.0
 20
0.0
 30
0.0
 11
-1.0
 21
0.0
 31
0.0
  0
ENDBLK
  5
9C
  8
0
  0
ENDSEC
  0
SECTION
  2
ENTITIES
  0
POINT
  5
9D
  8
ARRANGE
  6
CONTINUOUS
 62
     1
 10
0.0
 20
0.0
 30
0.0
 39
49.999109999999988
  0
CIRCLE
  5
9E
  8
ARRANGE
  6
CONTINUOUS
 62
     1
 39
24.999555000000001
 10
0.0
 20
0.0
 30
0.0
 40
19.999644
  0
LINE
  5
9F
  8
BASIS
  6
DASHDOT
 62
     6
 39
49.999109999999988
 10
-0.000004
 20
-83.397781999999992
 30
0.0
 11
0.0
 21
85.780758999999989
 31
0.0
  0
TEXT
  5
A0
  8
ETC
  6
CONTINUOUS
 62
    61
 10
488.11929400000002
 20
619.68006999999989
 30
0.0
 40
40.0
  1
V-08PQFF3_6
 41
0.9
  0
TEXT
  5
A1
  8
ETC
  6
CONTINUOUS
 62
    61
 10
482.69344999999998
 20
559.6099539999999
 30
0.0
 40
40.0
  1
換気扇
 41
0.9
  0
LINE
  5
A3
  8
BASIS
  6
DASHDOT
 62
     6
 39
49.999109999999988
 10
106.08331099999999
 20
0.000001
 30
0.0
 11
-106.08331099999999
 21
-0.000001
 31
0.0
  0
TEXT
  5
A5
  8
NOTE
  6
CONTINUOUS
 62
     4
 10
129.45330999999999
 20
159.00124
 30
0.0
 40
64.0
  1
EL
 41
0.9
  0
LINE
  5
A6
  8
NOTE
  6
CONTINUOUS
 62
     4
 39
50.0
 10
216.107156
 20
144.89520999999999
 30
0.0
 11
125.093784
 21
144.89520999999999
 31
0.0
  0
LINE
  5
A7
  8
NOTE
  6
CONTINUOUS
 62
     4
 39
50.0
 10
125.093784
 20
144.89520999999999
 30
0.0
 11
62.0
 21
0.0
 31
0.0
  0
LINE
  5
A8
  8
NOTE
  6
CONTINUOUS
 62
     4
 10
68.503085999999996
 20
39.467832999999999
 30
0.0
 11
62.0
 21
0.0
 31
0.0
  0
LINE
  5
A9
  8
NOTE
  6
CONTINUOUS
 62
     4
 10
62.0
 20
0.0
 30
0.0
 11
87.365754999999993
 21
30.928602999999999
 31
0.0
  0
LINE
  5
AA
  8
NOTE
  6
CONTINUOUS
 62
     4
 10
-208.81327999999999
 20
151.47529900000001
 30
0.0
 11
-80.000000999999983
 21
0.000001
 31
0.0
  0
LINE
  5
AB
  8
NOTE
  6
CONTINUOUS
 62
     4
 10
-588.21713299999999
 20
151.47529900000001
 30
0.0
 11
-208.81327999999999
 21
151.47529900000001
 31
0.0
  0
LINE
  5
AC
  8
NOTE
  6
CONTINUOUS
 62
     4
 10
-112.91064299999999
 20
22.735209000000001
 30
0.0
 11
-80.000000999999983
 21
0.000001
 31
0.0
  0
LINE
  5
AD
  8
NOTE
  6
CONTINUOUS
 62
     4
 10
-80.000000999999983
 20
0.000001
 30
0.0
 11
-97.133848
 21
36.144589000000011
 31
0.0
  0
TEXT
  5
AE
  8
NOTE
  6
CONTINUOUS
 62
     4
 10
-562.55842099999995
 20
158.90550500000001
 30
0.0
 40
64.0
  1
2-5×15
 41
0.9
  0
LINE
  5
AF
  8
DETAIL
  6
CONTINUOUS
 62
     5
 10
-44.199995999999992
 20
-16.5
 30
0.0
 11
-23.799996
 21
-16.5
 31
0.0
  0
LINE
  5
B0
  8
DETAIL
  6
CONTINUOUS
 62
     5
 10
-23.799996
 20
-1.5
 30
0.0
 11
-44.199995999999992
 21
-1.5
 31
0.0
  0
LINE
  5
B1
  8
DETAIL
  6
CONTINUOUS
 62
     5
 10
-26.999995999999999
 20
-4.25
 30
0.0
 11
-40.999996000000003
 21
-4.25
 31
0.0
  0
LINE
  5
B2
  8
DETAIL
  6
CONTINUOUS
 62
     5
 10
-26.999995999999999
 20
-13.75
 30
0.0
 11
-40.999996000000003
 21
-13.75
 31
0.0
  0
LINE
  5
B3
  8
DETAIL
  6
CONTINUOUS
 62
     5
 10
-22.999995999999999
 20
-1.0
 30
0.0
 11
-67.999995999999996
 21
-1.0
 31
0.0
  0
LINE
  5
B4
  8
DETAIL
  6
CONTINUOUS
 62
     5
 10
82.514700000000005
 20
-48.480898000000003
 30
0.0
 11
-82.485299999999995
 21
-48.480898000000003
 31
0.0
  0
LINE
  5
B5
  8
DETAIL
  6
CONTINUOUS
 62
     5
 10
82.514705000000006
 20
-25.980898
 30
0.0
 11
-82.485294999999994
 21
-25.980898
 31
0.0
  0
LINE
  5
B6
  8
DETAIL
  6
CONTINUOUS
 62
     5
 10
-80.0
 20
-53.5
 30
0.0
 11
80.0
 21
-53.5
 31
0.0
  0
LINE
  5
B7
  8
DETAIL
  6
CONTINUOUS
 62
     5
 10
-90.0
 20
-57.5
 30
0.0
 11
90.0
 21
-57.5
 31
0.0
  0
LINE
  5
B8
  8
DETAIL
  6
CONTINUOUS
 62
     5
 10
-90.400000000000006
 20
-58.0
 30
0.0
 11
90.400000000000006
 21
-58.0
 31
0.0
  0
LINE
  5
B9
  8
DETAIL
  6
CONTINUOUS
 62
     5
 10
-74.837721999999999
 20
-68.0
 30
0.0
 11
74.837721999999999
 21
-68.0
 31
0.0
  0
LINE
  5
BA
  8
DETAIL
  6
CONTINUOUS
 62
     5
 10
-74.837721999999999
 20
-66.058595999999994
 30
0.0
 11
74.837721999999999
 21
-66.058595999999994
 31
0.0
  0
LINE
  5
BB
  8
DETAIL
  6
CONTINUOUS
 62
     5
 10
-78.00041800000001
 20
-52.146447000000002
 30
0.0
 11
77.331650999999994
 21
-52.146447000000002
 31
0.0
  0
LINE
  5
BC
  8
DETAIL
  6
CONTINUOUS
 62
     5
 10
-79.667066000000005
 20
-53.0
 30
0.0
 11
79.667066000000005
 21
-53.0
 31
0.0
  0
LINE
  5
BD
  8
DETAIL
  6
CONTINUOUS
 62
     5
 10
-66.999995999999996
 20
-16.5
 30
0.0
 11
-23.999995999999999
 21
-16.5
 31
0.0
  0
LINE
  5
BE
  8
DETAIL
  6
CONTINUOUS
 62
     5
 10
87.566468
 20
-24.980898
 30
0.0
 11
-87.498508999999999
 21
-24.980830000000001
 31
0.0
  0
LINE
  5
BF
  8
DETAIL
  6
CONTINUOUS
 62
     5
 10
-84.485299999999995
 20
-49.008575
 30
0.0
 11
84.514700000000005
 21
-49.008575
 31
0.0
  0
LINE
  5
C0
  8
DETAIL
  6
CONTINUOUS
 62
     5
 10
84.514705000000006
 20
-24.980898
 30
0.0
 11
-84.485294999999994
 21
-24.980898
 31
0.0
  0
LINE
  5
C1
  8
DETAIL
  6
CONTINUOUS
 62
     5
 10
-89.991116000000005
 20
-0.5087260000000001
 30
0.0
 11
-89.563618999999989
 21
-25.0
 31
0.0
  0
LINE
  5
C2
  8
DETAIL
  6
CONTINUOUS
 62
     5
 10
-46.799996
 20
-1.5
 30
0.0
 11
-67.199995999999999
 21
-1.5
 31
0.0
  0
LINE
  5
C3
  8
DETAIL
  6
CONTINUOUS
 62
     5
 10
-67.199995999999999
 20
-16.5
 30
0.0
 11
-46.799996
 21
-16.5
 31
0.0
  0
LINE
  5
C4
  8
DETAIL
  6
CONTINUOUS
 62
     5
 10
-89.491191999999998
 20
0.0
 30
0.0
 11
-21.999995999999999
 21
0.0
 31
0.0
  0
LINE
  5
C5
  8
DETAIL
  6
CONTINUOUS
 62
     5
 10
-67.199995999999999
 20
-1.5
 30
0.0
 11
-46.799996
 21
-1.5
 31
0.0
  0
ARC
  5
C6
  8
DETAIL
  6
CONTINUOUS
 62
     5
 10
-89.491191999999998
 20
-0.5
 30
0.0
 40
0.5
 50
90.0
 51
181.0
  0
LINE
  5
C7
  8
DETAIL
  6
CONTINUOUS
 62
     5
 10
-67.499995999999996
 20
-1.8
 30
0.0
 11
-67.499995999999996
 21
-16.199999999999999
 31
0.0
  0
ARC
  5
C8
  8
DETAIL
  6
CONTINUOUS
 62
     5
 10
-67.199995999999999
 20
-1.8
 30
0.0
 40
0.3
 50
90.0
 51
180.0
  0
ARC
  5
C9
  8
DETAIL
  6
CONTINUOUS
 62
     5
 10
-67.199995999999999
 20
-16.199999999999999
 30
0.0
 40
0.3
 50
180.0
 51
270.0
  0
LINE
  5
CA
  8
DETAIL
  6
CONTINUOUS
 62
     5
 10
-67.999995999999996
 20
-1.0
 30
0.0
 11
-67.999995999999996
 21
-15.5
 31
0.0
  0
ARC
  5
CB
  8
DETAIL
  6
CONTINUOUS
 62
     5
 10
-68.999995999999996
 20
-1.0
 30
0.0
 40
1.0
 50
0.0
 51
89.992718999999994
  0
ARC
  5
CC
  8
DETAIL
  6
CONTINUOUS
 62
     5
 10
-66.999995999999996
 20
-15.5
 30
0.0
 40
1.0
 50
180.0
 51
270.0
  0
LINE
  5
CD
  8
DETAIL
  6
CONTINUOUS
 62
     5
 10
-49.999996000000003
 20
-13.75
 30
0.0
 11
-63.999996000000003
 21
-13.75
 31
0.0
  0
LINE
  5
CE
  8
DETAIL
  6
CONTINUOUS
 62
     5
 10
-63.999996000000003
 20
-4.25
 30
0.0
 11
-63.999996000000003
 21
-13.75
 31
0.0
  0
LINE
  5
CF
  8
DETAIL
  6
CONTINUOUS
 62
     5
 10
-60.258038999999997
 20
-4.25
 30
0.0
 11
-60.258038999999997
 21
-13.75
 31
0.0
  0
LINE
  5
D0
  8
DETAIL
  6
CONTINUOUS
 62
     5
 10
-49.999996000000003
 20
-4.25
 30
0.0
 11
-49.999996000000003
 21
-13.75
 31
0.0
  0
LINE
  5
D1
  8
DETAIL
  6
CONTINUOUS
 62
     5
 10
-49.999996000000003
 20
-4.25
 30
0.0
 11
-63.999996000000003
 21
-4.25
 31
0.0
  0
LINE
  5
D2
  8
DETAIL
  6
CONTINUOUS
 62
     5
 10
-46.499996000000003
 20
-16.199999999999999
 30
0.0
 11
-46.499996000000003
 21
-1.8
 31
0.0
  0
ARC
  5
D3
  8
DETAIL
  6
CONTINUOUS
 62
     5
 10
-46.799996
 20
-1.8
 30
0.0
 40
0.3
 50
0.0
 51
90.0
  0
ARC
  5
D4
  8
DETAIL
  6
CONTINUOUS
 62
     5
 10
-46.799996
 20
-16.199999999999999
 30
0.0
 40
0.3
 50
270.0
 51
0.0
  0
ARC
  5
D5
  8
DETAIL
  6
CONTINUOUS
 62
     5
 10
-44.199995999999992
 20
-16.199999999999999
 30
0.0
 40
0.3
 50
180.0
 51
270.0
  0
ARC
  5
D6
  8
DETAIL
  6
CONTINUOUS
 62
     5
 10
-44.199995999999992
 20
-1.8
 30
0.0
 40
0.3
 50
90.0
 51
180.0
  0
LINE
  5
D7
  8
DETAIL
  6
CONTINUOUS
 62
     5
 10
-44.499996000000003
 20
-1.8
 30
0.0
 11
-44.499996000000003
 21
-16.199999999999999
 31
0.0
  0
LINE
  5
D8
  8
DETAIL
  6
CONTINUOUS
 62
     5
 10
-30.712551999999999
 20
-4.25
 30
0.0
 11
-30.712551999999999
 21
-13.75
 31
0.0
  0
LINE
  5
D9
  8
DETAIL
  6
CONTINUOUS
 62
     5
 10
-40.999996000000003
 20
-4.25
 30
0.0
 11
-40.999996000000003
 21
-13.75
 31
0.0
  0
LINE
  5
DA
  8
DETAIL
  6
CONTINUOUS
 62
     5
 10
-89.190898000000004
 20
-61.313020999999999
 30
0.0
 11
-75.153949999999995
 21
-66.007328999999999
 31
0.0
  0
LINE
  5
DB
  8
DETAIL
  6
CONTINUOUS
 62
     5
 10
-89.768977000000007
 20
-62.408174000000002
 30
0.0
 11
-89.844924000000006
 21
-60.959029999999998
 31
0.0
  0
LINE
  5
DC
  8
DETAIL
  6
CONTINUOUS
 62
     5
 10
-82.991498000000007
 20
-49.008575
 30
0.0
 11
-34.008502
 21
-49.008575
 31
0.0
  0
LINE
  5
DD
  8
DETAIL
  6
CONTINUOUS
 62
     5
 10
-83.491425000000007
 20
-51.0
 30
0.0
 11
-33.508575
 21
-51.0
 31
0.0
  0
LINE
  5
DE
  8
DETAIL
  6
CONTINUOUS
 62
     5
 10
-83.485294999999994
 20
-26.980898
 30
0.0
 11
-83.485299999999995
 21
-47.480897999999989
 31
0.0
  0
LINE
  5
DF
  8
DETAIL
  6
CONTINUOUS
 62
     5
 10
-89.563618999999989
 20
-25.0
 30
0.0
 11
-89.317503000000002
 21
-53.702618000000008
 31
0.0
  0
LINE
  5
E0
  8
DETAIL
  6
CONTINUOUS
 62
     5
 10
-87.998432999999991
 20
-25.089541000000001
 30
0.0
 11
-87.490593000000004
 21
-54.683894999999993
 31
0.0
  0
LINE
  5
E1
  8
DETAIL
  6
CONTINUOUS
 62
     5
 10
-84.485294999999994
 20
-24.980898
 30
0.0
 11
-84.485299999999995
 21
-49.008575
 31
0.0
  0
ARC
  5
E2
  8
DETAIL
  6
CONTINUOUS
 62
     5
 10
-89.999995999999996
 20
-37.700000000000003
 30
0.0
 40
0.5
 50
90.0
 51
180.0
  0
ARC
  5
E3
  8
DETAIL
  6
CONTINUOUS
 62
     5
 10
-89.999995999999996
 20
-38.299999999999997
 30
0.0
 40
0.5
 50
180.0
 51
270.0
  0
LINE
  5
E4
  8
DETAIL
  6
CONTINUOUS
 62
     5
 10
-89.999995999999996
 20
-38.799999999999997
 30
0.0
 11
-89.443188000000006
 21
-38.799999999999997
 31
0.0
  0
LINE
  5
E5
  8
DETAIL
  6
CONTINUOUS
 62
     5
 10
-89.457150999999996
 20
-37.20000000000001
 30
0.0
 11
-89.999995999999996
 21
-37.20000000000001
 31
0.0
  0
LINE
  5
E6
  8
DETAIL
  6
CONTINUOUS
 62
     5
 10
-90.499995999999996
 20
-38.299999999999997
 30
0.0
 11
-90.499995999999996
 21
-37.700000000000003
 31
0.0
  0
LINE
  5
E7
  8
DETAIL
  6
CONTINUOUS
 62
     5
 10
-88.098416999999984
 20
-24.991302999999998
 30
0.0
 11
-88.098265999999995
 21
-24.999970000000001
 31
0.0
  0
LINE
  5
E8
  8
DETAIL
  6
CONTINUOUS
 62
     5
 10
-87.998432999999991
 20
-25.089542000000002
 30
0.0
 11
-88.000647999999984
 21
-25.070285999999999
 31
0.0
  0
LINE
  5
E9
  8
DETAIL
  6
CONTINUOUS
 62
     5
 10
-88.000623000000004
 20
-25.078688
 30
0.0
 11
-88.006538000000006
 21
-25.051818999999998
 31
0.0
  0
LINE
  5
EA
  8
DETAIL
  6
CONTINUOUS
 62
     5
 10
-88.006538000000006
 20
-25.051818999999998
 30
0.0
 11
-88.015881000000007
 21
-25.034835000000001
 31
0.0
  0
LINE
  5
EB
  8
DETAIL
  6
CONTINUOUS
 62
     5
 10
-88.015881000000007
 20
-25.034835000000001
 30
0.0
 11
-88.028326000000007
 21
-25.019973
 31
0.0
  0
LINE
  5
EC
  8
DETAIL
  6
CONTINUOUS
 62
     5
 10
-88.028326000000007
 20
-25.019973
 30
0.0
 11
-88.043406000000004
 21
-25.007791000000001
 31
0.0
  0
LINE
  5
ED
  8
DETAIL
  6
CONTINUOUS
 62
     5
 10
-88.043406000000004
 20
-25.007791000000001
 30
0.0
 11
-88.060552000000015
 21
-24.99874800000001
 31
0.0
  0
LINE
  5
EE
  8
DETAIL
  6
CONTINUOUS
 62
     5
 10
-88.060552000000015
 20
-24.99874800000001
 30
0.0
 11
-88.079121999999998
 21
-24.993182000000001
 31
0.0
  0
LINE
  5
EF
  8
DETAIL
  6
CONTINUOUS
 62
     5
 10
-88.079121999999998
 20
-24.993182000000001
 30
0.0
 11
-88.098416999999984
 21
-24.991302999999998
 31
0.0
  0
LINE
  5
F0
  8
DETAIL
  6
CONTINUOUS
 62
     5
 10
-88.098265999999995
 20
-24.999970000000001
 30
0.0
 11
-89.072275000000005
 21
-24.999673000000001
 31
0.0
  0
LINE
  5
F1
  8
DETAIL
  6
CONTINUOUS
 62
     5
 10
-87.498508999999999
 20
-24.980830000000001
 30
0.0
 11
-87.697115999999994
 21
-24.981421000000001
 31
0.0
  0
LINE
  5
F2
  8
DETAIL
  6
CONTINUOUS
 62
     5
 10
-87.697115999999994
 20
-24.981421000000001
 30
0.0
 11
-87.817968999999991
 21
-24.982437999999998
 31
0.0
  0
LINE
  5
F3
  8
DETAIL
  6
CONTINUOUS
 62
     5
 10
-87.995283999999984
 20
-25.088370999999999
 30
0.0
 11
-87.998432999999991
 21
-25.089541000000001
 31
0.0
  0
LINE
  5
F4
  8
DETAIL
  6
CONTINUOUS
 62
     5
 10
-87.817968999999991
 20
-24.982437999999998
 30
0.0
 11
-87.922770999999983
 21
-24.983898
 31
0.0
  0
LINE
  5
F5
  8
DETAIL
  6
CONTINUOUS
 62
     5
 10
-87.922770999999983
 20
-24.983898
 30
0.0
 11
-87.967543000000006
 21
-24.984772
 31
0.0
  0
LINE
  5
F6
  8
DETAIL
  6
CONTINUOUS
 62
     5
 10
-87.967543000000006
 20
-24.984772
 30
0.0
 11
-88.006375000000006
 21
-24.985728000000002
 31
0.0
  0
LINE
  5
F7
  8
DETAIL
  6
CONTINUOUS
 62
     5
 10
-88.006375000000006
 20
-24.985728000000002
 30
0.0
 11
-88.038903000000005
 21
-24.986753
 31
0.0
  0
LINE
  5
F8
  8
DETAIL
  6
CONTINUOUS
 62
     5
 10
-88.038903000000005
 20
-24.986753
 30
0.0
 11
-88.064612999999994
 21
-24.987836000000001
 31
0.0
  0
LINE
  5
F9
  8
DETAIL
  6
CONTINUOUS
 62
     5
 10
-88.064612999999994
 20
-24.987836000000001
 30
0.0
 11
-88.083293999999995
 21
-24.988962999999998
 31
0.0
  0
LINE
  5
FA
  8
DETAIL
  6
CONTINUOUS
 62
     5
 10
-88.083293999999995
 20
-24.988962999999998
 30
0.0
 11
-88.094514000000004
 21
-24.990117000000001
 31
0.0
  0
LINE
  5
FB
  8
DETAIL
  6
CONTINUOUS
 62
     5
 10
-88.094514000000004
 20
-24.990117000000001
 30
0.0
 11
-88.098416999999984
 21
-24.991302999999998
 31
0.0
  0
LINE
  5
FC
  8
DETAIL
  6
CONTINUOUS
 62
     5
 10
-88.098265999999995
 20
-24.999970000000001
 30
0.0
 11
-88.078636000000003
 21
-25.001974000000001
 31
0.0
  0
LINE
  5
FD
  8
DETAIL
  6
CONTINUOUS
 62
     5
 10
-88.078636000000003
 20
-25.001974000000001
 30
0.0
 11
-88.060412000000014
 21
-25.007426000000009
 31
0.0
  0
LINE
  5
FE
  8
DETAIL
  6
CONTINUOUS
 62
     5
 10
-88.060412000000014
 20
-25.007426000000009
 30
0.0
 11
-88.043293999999975
 21
-25.016521999999998
 31
0.0
  0
LINE
  5
FF
  8
DETAIL
  6
CONTINUOUS
 62
     5
 10
-88.043293999999975
 20
-25.016521999999998
 30
0.0
 11
-88.028182999999999
 21
-25.028670999999999
 31
0.0
  0
LINE
  5
100
  8
DETAIL
  6
CONTINUOUS
 62
     5
 10
-88.028182999999999
 20
-25.028670999999999
 30
0.0
 11
-88.015777999999997
 21
-25.043576999999999
 31
0.0
  0
LINE
  5
101
  8
DETAIL
  6
CONTINUOUS
 62
     5
 10
-88.015777999999997
 20
-25.043576999999999
 30
0.0
 11
-88.006387999999987
 21
-25.060545999999999
 31
0.0
  0
LINE
  5
102
  8
DETAIL
  6
CONTINUOUS
 62
     5
 10
-89.072275000000005
 20
-24.999673000000001
 30
0.0
 11
-89.127193000000005
 21
-24.996828000000001
 31
0.0
  0
LINE
  5
103
  8
DETAIL
  6
CONTINUOUS
 62
     5
 10
-89.127193000000005
 20
-24.996828000000001
 30
0.0
 11
-89.182586999999998
 21
-24.987594000000001
 31
0.0
  0
LINE
  5
104
  8
DETAIL
  6
CONTINUOUS
 62
     5
 10
-89.182586999999998
 20
-24.987594000000001
 30
0.0
 11
-89.237666999999988
 21
-24.972013
 31
0.0
  0
LINE
  5
105
  8
DETAIL
  6
CONTINUOUS
 62
     5
 10
-89.237666999999988
 20
-24.972013
 30
0.0
 11
-89.291623999999999
 21
-24.949914
 31
0.0
  0
LINE
  5
106
  8
DETAIL
  6
CONTINUOUS
 62
     5
 10
-89.291623999999999
 20
-24.949914
 30
0.0
 11
-89.343706000000012
 21
-24.920916999999999
 31
0.0
  0
LINE
  5
107
  8
DETAIL
  6
CONTINUOUS
 62
     5
 10
-89.343706000000012
 20
-24.920916999999999
 30
0.0
 11
-89.392533
 21
-24.8857
 31
0.0
  0
LINE
  5
108
  8
DETAIL
  6
CONTINUOUS
 62
     5
 10
-89.392533
 20
-24.8857
 30
0.0
 11
-89.437370000000001
 21
-24.843865999999998
 31
0.0
  0
LINE
  5
109
  8
DETAIL
  6
CONTINUOUS
 62
     5
 10
-89.437370000000001
 20
-24.843865999999998
 30
0.0
 11
-89.475942000000003
 21
-24.798286000000001
 31
0.0
  0
LINE
  5
10A
  8
DETAIL
  6
CONTINUOUS
 62
     5
 10
-89.475942000000003
 20
-24.798286000000001
 30
0.0
 11
-89.506854000000004
 21
-24.751177999999999
 31
0.0
  0
LINE
  5
10B
  8
DETAIL
  6
CONTINUOUS
 62
     5
 10
-89.506854000000004
 20
-24.751177999999999
 30
0.0
 11
-89.530807999999993
 21
-24.704193
 31
0.0
  0
LINE
  5
10C
  8
DETAIL
  6
CONTINUOUS
 62
     5
 10
-89.530807999999993
 20
-24.704193
 30
0.0
 11
-89.548711999999995
 21
-24.661425999999999
 31
0.0
  0
LINE
  5
10D
  8
DETAIL
  6
CONTINUOUS
 62
     5
 10
-89.548711999999995
 20
-24.661425999999999
 30
0.0
 11
-89.559674000000001
 21
-24.617750000000001
 31
0.0
  0
LINE
  5
10E
  8
DETAIL
  6
CONTINUOUS
 62
     5
 10
-89.559674000000001
 20
-24.617750000000001
 30
0.0
 11
-89.564949999999996
 21
-24.568943000000001
 31
0.0
  0
LINE
  5
10F
  8
DETAIL
  6
CONTINUOUS
 62
     5
 10
-89.564949999999996
 20
-24.568943000000001
 30
0.0
 11
-89.567274999999995
 21
-24.516455000000001
 31
0.0
  0
ARC
  5
110
  8
DETAIL
  6
CONTINUOUS
 62
     5
 10
-82.485294999999994
 20
-26.980898
 30
0.0
 40
1.0
 50
90.0
 51
180.0
  0
LINE
  5
111
  8
DETAIL
  6
CONTINUOUS
 62
     5
 10
-89.282702999999984
 20
-56.284810999999998
 30
0.0
 11
-80.0
 21
-53.5
 31
0.0
  0
LINE
  5
112
  8
DETAIL
  6
CONTINUOUS
 62
     5
 10
-86.846988999999994
 20
-55.15408
 30
0.0
 11
-79.000431000000006
 21
-52.799999999999997
 31
0.0
  0
ARC
  5
113
  8
DETAIL
  6
CONTINUOUS
 62
     5
 10
-88.995350999999985
 20
-57.242635999999997
 30
0.0
 40
1.0
 50
106.69949199999991
 51
179.00007500000001
  0
LINE
  5
114
  8
DETAIL
  6
CONTINUOUS
 62
     5
 10
-90.0
 20
-57.5
 30
0.0
 11
-89.995203000000004
 21
-57.225184999999989
 31
0.0
  0
LINE
  5
115
  8
DETAIL
  6
CONTINUOUS
 62
     5
 10
-89.500000000000014
 20
-58.0
 30
0.0
 11
-89.491271999999995
 21
-57.5
 31
0.0
  0
LINE
  5
116
  8
DETAIL
  6
CONTINUOUS
 62
     5
 10
-88.500151999999986
 20
-58.0
 30
0.0
 11
-88.491425000000007
 21
-57.5
 31
0.0
  0
LINE
  5
117
  8
DETAIL
  6
CONTINUOUS
 62
     5
 10
-90.0
 20
-58.0
 30
0.0
 11
-89.865137000000004
 21
-60.573343000000001
 31
0.0
  0
LINE
  5
118
  8
DETAIL
  6
CONTINUOUS
 62
     5
 10
-90.400000000000006
 20
-58.0
 30
0.0
 11
-90.259844000000001
 21
-60.674340999999998
 31
0.0
  0
LINE
  5
119
  8
DETAIL
  6
CONTINUOUS
 62
     5
 10
-89.536117000000004
 20
-61.119731999999992
 30
0.0
 11
-89.607519999999994
 21
-61.051332999999993
 31
0.0
  0
LINE
  5
11A
  8
DETAIL
  6
CONTINUOUS
 62
     5
 10
-89.457871999999995
 20
-61.180787000000002
 30
0.0
 11
-89.536117000000004
 21
-61.119731999999992
 31
0.0
  0
LINE
  5
11B
  8
DETAIL
  6
CONTINUOUS
 62
     5
 10
-89.373621999999997
 20
-61.233750999999998
 30
0.0
 11
-89.457871999999995
 21
-61.180787000000002
 31
0.0
  0
LINE
  5
11C
  8
DETAIL
  6
CONTINUOUS
 62
     5
 10
-89.284349000000006
 20
-61.277977
 30
0.0
 11
-89.373621999999997
 21
-61.233750999999998
 31
0.0
  0
LINE
  5
11D
  8
DETAIL
  6
CONTINUOUS
 62
     5
 10
-89.190898000000004
 20
-61.313020999999999
 30
0.0
 11
-89.284349000000006
 21
-61.277977
 31
0.0
  0
LINE
  5
11E
  8
DETAIL
  6
CONTINUOUS
 62
     5
 10
-89.872594999999976
 20
-60.431027
 30
0.0
 11
-89.872012999999995
 21
-60.440300999999998
 31
0.0
  0
ARC
  5
11F
  8
DETAIL
  6
CONTINUOUS
 62
     5
 10
-89.960255000000004
 20
-60.658641000000003
 30
0.0
 40
0.3
 50
183.0
 51
270.0
  0
ARC
  5
120
  8
DETAIL
  6
CONTINUOUS
 62
     5
 10
-89.964398000000003
 20
-60.579591999999998
 30
0.0
 40
0.3
 50
183.0
 51
270.0
  0
ARC
  5
121
  8
DETAIL
  6
CONTINUOUS
 62
     5
 10
-89.968643999999983
 20
-60.498564000000002
 30
0.0
 40
0.3
 50
183.0
 51
270.0
  0
ARC
  5
122
  8
DETAIL
  6
CONTINUOUS
 62
     5
 10
-89.972964000000005
 20
-60.416144999999993
 30
0.0
 40
0.3
 50
183.0
 51
270.0
  0
LINE
  5
123
  8
DETAIL
  6
CONTINUOUS
 62
     5
 10
-89.836888999999999
 20
-60.958641
 30
0.0
 11
-89.960255000000004
 21
-60.958641
 31
0.0
  0
LINE
  5
124
  8
DETAIL
  6
CONTINUOUS
 62
     5
 10
-89.840790999999996
 20
-60.879592000000002
 30
0.0
 11
-89.964398000000003
 21
-60.879592000000002
 31
0.0
  0
LINE
  5
125
  8
DETAIL
  6
CONTINUOUS
 62
     5
 10
-89.844785999999999
 20
-60.798563999999999
 30
0.0
 11
-89.968643999999983
 21
-60.798563999999999
 31
0.0
  0
LINE
  5
126
  8
DETAIL
  6
CONTINUOUS
 62
     5
 10
-89.848844999999983
 20
-60.71614499999999
 30
0.0
 11
-89.972964000000005
 21
-60.71614499999999
 31
0.0
  0
LINE
  5
127
  8
DETAIL
  6
CONTINUOUS
 62
     5
 10
-89.841471999999996
 20
-60.629902000000001
 30
0.0
 11
-89.861417000000003
 21
-60.535741999999999
 31
0.0
  0
LINE
  5
128
  8
DETAIL
  6
CONTINUOUS
 62
     5
 10
-89.812336000000016
 20
-60.721815999999997
 30
0.0
 11
-89.841471999999996
 21
-60.629902000000001
 31
0.0
  0
LINE
  5
129
  8
DETAIL
  6
CONTINUOUS
 62
     5
 10
-89.774135999999999
 20
-60.81074499999999
 30
0.0
 11
-89.812336000000016
 21
-60.721815999999997
 31
0.0
  0
LINE
  5
12A
  8
DETAIL
  6
CONTINUOUS
 62
     5
 10
-89.727032999999992
 20
-60.895935999999999
 30
0.0
 11
-89.774135999999999
 21
-60.81074499999999
 31
0.0
  0
LINE
  5
12B
  8
DETAIL
  6
CONTINUOUS
 62
     5
 10
-89.671366000000006
 20
-60.976416999999998
 30
0.0
 11
-89.727032999999992
 21
-60.895935999999999
 31
0.0
  0
LINE
  5
12C
  8
DETAIL
  6
CONTINUOUS
 62
     5
 10
-89.607519999999994
 20
-61.051332999999993
 30
0.0
 11
-89.671366000000006
 21
-60.976416999999998
 31
0.0
  0
LINE
  5
12D
  8
DETAIL
  6
CONTINUOUS
 62
     5
 10
-89.844973999999993
 20
-60.901978999999997
 30
0.0
 11
-89.847545999999994
 21
-60.879592000000002
 31
0.0
  0
LINE
  5
12E
  8
DETAIL
  6
CONTINUOUS
 62
     5
 10
-89.842299999999994
 20
-60.921931999999998
 30
0.0
 11
-89.844973999999993
 21
-60.901978999999997
 31
0.0
  0
LINE
  5
12F
  8
DETAIL
  6
CONTINUOUS
 62
     5
 10
-89.839967000000001
 20
-60.937938000000003
 30
0.0
 11
-89.842299999999994
 21
-60.921931999999998
 31
0.0
  0
LINE
  5
130
  8
DETAIL
  6
CONTINUOUS
 62
     5
 10
-89.838149000000001
 20
-60.949491000000002
 30
0.0
 11
-89.839967000000001
 21
-60.937938000000003
 31
0.0
  0
LINE
  5
131
  8
DETAIL
  6
CONTINUOUS
 62
     5
 10
-89.837158000000002
 20
-60.956366000000003
 30
0.0
 11
-89.838149000000001
 21
-60.949491000000002
 31
0.0
  0
LINE
  5
132
  8
DETAIL
  6
CONTINUOUS
 62
     5
 10
-89.836888999999999
 20
-60.958641
 30
0.0
 11
-89.837158000000002
 21
-60.956366000000003
 31
0.0
  0
LINE
  5
133
  8
DETAIL
  6
CONTINUOUS
 62
     5
 10
-89.849080000000001
 20
-60.821956000000007
 30
0.0
 11
-89.851788999999997
 21
-60.798563999999999
 31
0.0
  0
LINE
  5
134
  8
DETAIL
  6
CONTINUOUS
 62
     5
 10
-89.846339
 20
-60.842238999999999
 30
0.0
 11
-89.849080000000001
 21
-60.821956000000007
 31
0.0
  0
LINE
  5
135
  8
DETAIL
  6
CONTINUOUS
 62
     5
 10
-89.843945999999988
 20
-60.858519999999999
 30
0.0
 11
-89.846339
 21
-60.842238999999999
 31
0.0
  0
LINE
  5
136
  8
DETAIL
  6
CONTINUOUS
 62
     5
 10
-89.842078999999984
 20
-60.870277000000002
 30
0.0
 11
-89.843945999999988
 21
-60.858519999999999
 31
0.0
  0
LINE
  5
137
  8
DETAIL
  6
CONTINUOUS
 62
     5
 10
-89.841063999999989
 20
-60.877276000000002
 30
0.0
 11
-89.842078999999984
 21
-60.870277000000002
 31
0.0
  0
LINE
  5
138
  8
DETAIL
  6
CONTINUOUS
 62
     5
 10
-89.840790999999996
 20
-60.879592000000002
 30
0.0
 11
-89.841063999999989
 21
-60.877276000000002
 31
0.0
  0
LINE
  5
139
  8
DETAIL
  6
CONTINUOUS
 62
     5
 10
-89.853288000000006
 20
-60.739927999999999
 30
0.0
 11
-89.856063999999989
 21
-60.71614499999999
 31
0.0
  0
LINE
  5
13A
  8
DETAIL
  6
CONTINUOUS
 62
     5
 10
-89.850478000000024
 20
-60.760550000000002
 30
0.0
 11
-89.853288000000006
 21
-60.739927999999999
 31
0.0
  0
LINE
  5
13B
  8
DETAIL
  6
CONTINUOUS
 62
     5
 10
-89.848020000000005
 20
-60.777112000000002
 30
0.0
 11
-89.850478000000024
 21
-60.760550000000002
 31
0.0
  0
LINE
  5
13C
  8
DETAIL
  6
CONTINUOUS
 62
     5
 10
-89.846103999999997
 20
-60.789079000000001
 30
0.0
 11
-89.848020000000005
 21
-60.777112000000002
 31
0.0
  0
LINE
  5
13D
  8
DETAIL
  6
CONTINUOUS
 62
     5
 10
-89.845062999999996
 20
-60.796205
 30
0.0
 11
-89.846103999999997
 21
-60.789079000000001
 31
0.0
  0
LINE
  5
13E
  8
DETAIL
  6
CONTINUOUS
 62
     5
 10
-89.844785999999999
 20
-60.798563999999999
 30
0.0
 11
-89.845062999999996
 21
-60.796205
 31
0.0
  0
LINE
  5
13F
  8
DETAIL
  6
CONTINUOUS
 62
     5
 10
-89.862943000000001
 20
-60.603918999999991
 30
0.0
 11
-89.865137000000004
 21
-60.573343000000001
 31
0.0
  0
LINE
  5
140
  8
DETAIL
  6
CONTINUOUS
 62
     5
 10
-89.860469999999992
 20
-60.631807999999992
 30
0.0
 11
-89.862943000000001
 21
-60.603918999999991
 31
0.0
  0
LINE
  5
141
  8
DETAIL
  6
CONTINUOUS
 62
     5
 10
-89.857566000000006
 20
-60.656492000000007
 30
0.0
 11
-89.860469999999992
 21
-60.631807999999992
 31
0.0
  0
LINE
  5
142
  8
DETAIL
  6
CONTINUOUS
 62
     5
 10
-89.854684000000006
 20
-60.677456000000006
 30
0.0
 11
-89.857566000000006
 21
-60.656492000000007
 31
0.0
  0
LINE
  5
143
  8
DETAIL
  6
CONTINUOUS
 62
     5
 10
-89.852161999999993
 20
-60.694305999999997
 30
0.0
 11
-89.854684000000006
 21
-60.677456000000006
 31
0.0
  0
LINE
  5
144
  8
DETAIL
  6
CONTINUOUS
 62
     5
 10
-89.850193999999973
 20
-60.706485999999998
 30
0.0
 11
-89.852161999999993
 21
-60.694305999999997
 31
0.0
  0
LINE
  5
145
  8
DETAIL
  6
CONTINUOUS
 62
     5
 10
-89.849126999999996
 20
-60.713742000000011
 30
0.0
 11
-89.850193999999973
 21
-60.706485999999998
 31
0.0
  0
LINE
  5
146
  8
DETAIL
  6
CONTINUOUS
 62
     5
 10
-89.848844999999983
 20
-60.71614499999999
 30
0.0
 11
-89.849126999999996
 21
-60.713742000000011
 31
0.0
  0
LINE
  5
147
  8
DETAIL
  6
CONTINUOUS
 62
     5
 10
-89.861417000000003
 20
-60.535741999999999
 30
0.0
 11
-89.872058999999993
 21
-60.440303999999998
 31
0.0
  0
ARC
  5
148
  8
DETAIL
  6
CONTINUOUS
 62
     5
 10
-89.017514000000006
 20
-53.700000000000003
 30
0.0
 40
0.3
 50
180.5
 51
270.0
  0
LINE
  5
149
  8
DETAIL
  6
CONTINUOUS
 62
     5
 10
-89.318460000000002
 20
-53.504835999999997
 30
0.0
 11
-89.315991999999994
 21
-53.505317000000012
 31
0.0
  0
LINE
  5
14A
  8
DETAIL
  6
CONTINUOUS
 62
     5
 10
-89.017514000000006
 20
-54.0
 30
0.0
 11
-87.502531000000005
 21
-54.0
 31
0.0
  0
LINE
  5
14B
  8
DETAIL
  6
CONTINUOUS
 62
     5
 10
-87.490593000000004
 20
-54.683894999999993
 30
0.0
 11
-87.48983299999999
 21
-54.684359999999998
 31
0.0
  0
ARC
  5
14C
  8
DETAIL
  6
CONTINUOUS
 62
     5
 10
-86.990668999999997
 20
-54.67516899999999
 30
0.0
 40
0.5
 50
181.0
 51
286.69999999999999
  0
ARC
  5
14D
  8
DETAIL
  6
CONTINUOUS
 62
     5
 10
-82.485299999999995
 20
-47.480897999999989
 30
0.0
 40
1.0
 50
180.0
 51
270.0
  0
LINE
  5
14E
  8
DETAIL
  6
CONTINUOUS
 62
     5
 10
-75.400000000000006
 20
-53.0
 30
0.0
 11
-75.650000000000006
 21
-53.5
 31
0.0
  0
LINE
  5
14F
  8
DETAIL
  6
CONTINUOUS
 62
     5
 10
-69.400000000000006
 20
-53.5
 30
0.0
 11
-69.400000000000006
 21
-53.0
 31
0.0
  0
LINE
  5
150
  8
DETAIL
  6
CONTINUOUS
 62
     5
 10
-71.0
 20
-53.0
 30
0.0
 11
-71.0
 21
-53.5
 31
0.0
  0
LINE
  5
151
  8
DETAIL
  6
CONTINUOUS
 62
     5
 10
-73.930180000000007
 20
-53.0
 30
0.0
 11
-73.938907
 21
-53.5
 31
0.0
  0
LINE
  5
152
  8
DETAIL
  6
CONTINUOUS
 62
     5
 10
-74.965090000000004
 20
-53.5
 30
0.0
 11
-74.965156999999991
 21
-53.50382299999999
 31
0.0
  0
LINE
  5
153
  8
DETAIL
  6
CONTINUOUS
 62
     5
 10
-79.000431000000006
 20
-52.799999999999997
 30
0.0
 11
-78.914878999999999
 21
-52.773873999999999
 31
0.0
  0
LINE
  5
154
  8
DETAIL
  6
CONTINUOUS
 62
     5
 10
-78.75545799999999
 20
-52.722586999999997
 30
0.0
 11
-78.68146999999999
 21
-52.697411000000002
 31
0.0
  0
LINE
  5
155
  8
DETAIL
  6
CONTINUOUS
 62
     5
 10
-78.833201000000003
 20
-52.748066999999999
 30
0.0
 11
-78.75545799999999
 21
-52.722586999999997
 31
0.0
  0
LINE
  5
156
  8
DETAIL
  6
CONTINUOUS
 62
     5
 10
-78.914878999999999
 20
-52.773873999999999
 30
0.0
 11
-78.833201000000003
 21
-52.748066999999999
 31
0.0
  0
LINE
  5
157
  8
DETAIL
  6
CONTINUOUS
 62
     5
 10
-77.974741000000009
 20
-52.164833999999999
 30
0.0
 11
-78.00041800000001
 21
-52.146447000000002
 31
0.0
  0
LINE
  5
158
  8
DETAIL
  6
CONTINUOUS
 62
     5
 10
-77.954812000000004
 20
-52.184063999999999
 30
0.0
 11
-77.974741000000009
 21
-52.164833999999999
 31
0.0
  0
LINE
  5
159
  8
DETAIL
  6
CONTINUOUS
 62
     5
 10
-77.940656000000004
 20
-52.204154000000003
 30
0.0
 11
-77.954812000000004
 21
-52.184063999999999
 31
0.0
  0
LINE
  5
15A
  8
DETAIL
  6
CONTINUOUS
 62
     5
 10
-77.932203000000001
 20
-52.225051000000001
 30
0.0
 11
-77.940656000000004
 21
-52.204154000000003
 31
0.0
  0
LINE
  5
15B
  8
DETAIL
  6
CONTINUOUS
 62
     5
 10
-77.929395
 20
-52.246690000000001
 30
0.0
 11
-77.932203000000001
 21
-52.225051000000001
 31
0.0
  0
LINE
  5
15C
  8
DETAIL
  6
CONTINUOUS
 62
     5
 10
-77.932230000000004
 20
-52.269117999999992
 30
0.0
 11
-77.929395
 21
-52.246690000000001
 31
0.0
  0
LINE
  5
15D
  8
DETAIL
  6
CONTINUOUS
 62
     5
 10
-77.940850999999995
 20
-52.292538999999991
 30
0.0
 11
-77.932230000000004
 21
-52.269117999999992
 31
0.0
  0
LINE
  5
15E
  8
DETAIL
  6
CONTINUOUS
 62
     5
 10
-77.954765000000009
 20
-52.316420000000001
 30
0.0
 11
-77.940850999999995
 21
-52.292538999999991
 31
0.0
  0
LINE
  5
15F
  8
DETAIL
  6
CONTINUOUS
 62
     5
 10
-77.973709999999997
 20
-52.340305000000001
 30
0.0
 11
-77.954765000000009
 21
-52.316420000000001
 31
0.0
  0
LINE
  5
160
  8
DETAIL
  6
CONTINUOUS
 62
     5
 10
-77.997134000000003
 20
-52.364167000000002
 30
0.0
 11
-77.973709999999997
 21
-52.340305000000001
 31
0.0
  0
LINE
  5
161
  8
DETAIL
  6
CONTINUOUS
 62
     5
 10
-78.024447999999992
 20
-52.387785000000001
 30
0.0
 11
-77.997134000000003
 21
-52.364167000000002
 31
0.0
  0
LINE
  5
162
  8
DETAIL
  6
CONTINUOUS
 62
     5
 10
-78.055498999999983
 20
-52.411279999999991
 30
0.0
 11
-78.024447999999992
 21
-52.387785000000001
 31
0.0
  0
LINE
  5
163
  8
DETAIL
  6
CONTINUOUS
 62
     5
 10
-78.089962
 20
-52.434683999999997
 30
0.0
 11
-78.055498999999983
 21
-52.411279999999991
 31
0.0
  0
LINE
  5
164
  8
DETAIL
  6
CONTINUOUS
 62
     5
 10
-78.127769000000001
 20
-52.458038999999999
 30
0.0
 11
-78.089962
 21
-52.434683999999997
 31
0.0
  0
LINE
  5
165
  8
DETAIL
  6
CONTINUOUS
 62
     5
 10
-78.168736999999993
 20
-52.481384999999989
 30
0.0
 11
-78.127769000000001
 21
-52.458038999999999
 31
0.0
  0
LINE
  5
166
  8
DETAIL
  6
CONTINUOUS
 62
     5
 10
-78.212873000000002
 20
-52.50476299999999
 30
0.0
 11
-78.168736999999993
 21
-52.481384999999989
 31
0.0
  0
LINE
  5
167
  8
DETAIL
  6
CONTINUOUS
 62
     5
 10
-78.260098999999997
 20
-52.528217000000012
 30
0.0
 11
-78.212873000000002
 21
-52.50476299999999
 31
0.0
  0
LINE
  5
168
  8
DETAIL
  6
CONTINUOUS
 62
     5
 10
-78.310479999999998
 20
-52.551784999999988
 30
0.0
 11
-78.260098999999997
 21
-52.528217000000012
 31
0.0
  0
LINE
  5
169
  8
DETAIL
  6
CONTINUOUS
 62
     5
 10
-78.364032999999992
 20
-52.575518000000002
 30
0.0
 11
-78.310479999999998
 21
-52.551784999999988
 31
0.0
  0
LINE
  5
16A
  8
DETAIL
  6
CONTINUOUS
 62
     5
 10
-78.420818000000011
 20
-52.599432999999991
 30
0.0
 11
-78.364032999999992
 21
-52.575518000000002
 31
0.0
  0
LINE
  5
16B
  8
DETAIL
  6
CONTINUOUS
 62
     5
 10
-78.480868999999998
 20
-52.623559
 30
0.0
 11
-78.420818000000011
 21
-52.599432999999991
 31
0.0
  0
LINE
  5
16C
  8
DETAIL
  6
CONTINUOUS
 62
     5
 10
-78.544277000000008
 20
-52.647916000000002
 30
0.0
 11
-78.480868999999998
 21
-52.623559
 31
0.0
  0
LINE
  5
16D
  8
DETAIL
  6
CONTINUOUS
 62
     5
 10
-78.61110699999999
 20
-52.672528
 30
0.0
 11
-78.544277000000008
 21
-52.647916000000002
 31
0.0
  0
LINE
  5
16E
  8
DETAIL
  6
CONTINUOUS
 62
     5
 10
-78.68146999999999
 20
-52.697411000000002
 30
0.0
 11
-78.61110699999999
 21
-52.672528
 31
0.0
  0
LINE
  5
16F
  8
DETAIL
  6
CONTINUOUS
 62
     5
 10
-83.491425000000007
 20
-51.0
 30
0.0
 11
-83.491425000000007
 21
-49.508495000000003
 31
0.0
  0
LINE
  5
170
  8
DETAIL
  6
CONTINUOUS
 62
     5
 10
-83.491425000000007
 20
-49.508495000000003
 30
0.0
 11
-83.489025999999996
 21
-49.459420000000001
 31
0.0
  0
LINE
  5
171
  8
DETAIL
  6
CONTINUOUS
 62
     5
 10
-83.489025999999996
 20
-49.459420000000001
 30
0.0
 11
-83.481830999999985
 21
-49.410857999999998
 31
0.0
  0
LINE
  5
172
  8
DETAIL
  6
CONTINUOUS
 62
     5
 10
-83.481830999999985
 20
-49.410857999999998
 30
0.0
 11
-83.469924000000006
 21
-49.363284999999998
 31
0.0
  0
LINE
  5
173
  8
DETAIL
  6
CONTINUOUS
 62
     5
 10
-83.469924000000006
 20
-49.363284999999998
 30
0.0
 11
-83.453417999999985
 21
-49.317123000000002
 31
0.0
  0
LINE
  5
174
  8
DETAIL
  6
CONTINUOUS
 62
     5
 10
-83.453417999999985
 20
-49.317123000000002
 30
0.0
 11
-83.432456000000016
 21
-49.272778000000002
 31
0.0
  0
LINE
  5
175
  8
DETAIL
  6
CONTINUOUS
 62
     5
 10
-83.432456000000016
 20
-49.272778000000002
 30
0.0
 11
-83.407247999999996
 21
-49.230701000000003
 31
0.0
  0
LINE
  5
176
  8
DETAIL
  6
CONTINUOUS
 62
     5
 10
-83.407247999999996
 20
-49.230701000000003
 30
0.0
 11
-83.378041999999994
 21
-49.191308999999997
 31
0.0
  0
LINE
  5
177
  8
DETAIL
  6
CONTINUOUS
 62
     5
 10
-83.378041999999994
 20
-49.191308999999997
 30
0.0
 11
-83.345117000000002
 21
-49.154971999999987
 31
0.0
  0
LINE
  5
178
  8
DETAIL
  6
CONTINUOUS
 62
     5
 10
-83.345117000000002
 20
-49.154971999999987
 30
0.0
 11
-83.308786999999995
 21
-49.122036999999999
 31
0.0
  0
LINE
  5
179
  8
DETAIL
  6
CONTINUOUS
 62
     5
 10
-83.308786999999995
 20
-49.122036999999999
 30
0.0
 11
-83.269400000000005
 21
-49.09282000000001
 31
0.0
  0
LINE
  5
17A
  8
DETAIL
  6
CONTINUOUS
 62
     5
 10
-83.269400000000005
 20
-49.09282000000001
 30
0.0
 11
-83.227328999999997
 21
-49.067601000000003
 31
0.0
  0
LINE
  5
17B
  8
DETAIL
  6
CONTINUOUS
 62
     5
 10
-83.227328999999997
 20
-49.067601000000003
 30
0.0
 11
-83.182991000000001
 21
-49.046628999999989
 31
0.0
  0
LINE
  5
17C
  8
DETAIL
  6
CONTINUOUS
 62
     5
 10
-83.182991000000001
 20
-49.046628999999989
 30
0.0
 11
-83.136854
 21
-49.030118000000002
 31
0.0
  0
LINE
  5
17D
  8
DETAIL
  6
CONTINUOUS
 62
     5
 10
-83.136854
 20
-49.030118000000002
 30
0.0
 11
-83.089286999999999
 21
-49.018197000000001
 31
0.0
  0
LINE
  5
17E
  8
DETAIL
  6
CONTINUOUS
 62
     5
 10
-83.089286999999999
 20
-49.018197000000001
 30
0.0
 11
-83.040672000000001
 21
-49.01098300000001
 31
0.0
  0
LINE
  5
17F
  8
DETAIL
  6
CONTINUOUS
 62
     5
 10
-83.040672000000001
 20
-49.01098300000001
 30
0.0
 11
-82.991498000000007
 21
-49.008575
 31
0.0
  0
LINE
  5
180
  8
DETAIL
  6
CONTINUOUS
 62
     5
 10
-81.029464999999988
 20
-53.811965000000001
 30
0.0
 11
-81.029518999999979
 21
-53.808855999999999
 31
0.0
  0
LINE
  5
181
  8
DETAIL
  6
CONTINUOUS
 62
     5
 10
-33.508575
 20
-49.508495000000003
 30
0.0
 11
-33.508575
 21
-51.0
 31
0.0
  0
LINE
  5
182
  8
DETAIL
  6
CONTINUOUS
 62
     5
 10
-34.008502
 20
-49.008575
 30
0.0
 11
-33.959327999999999
 21
-49.01098300000001
 31
0.0
  0
LINE
  5
183
  8
DETAIL
  6
CONTINUOUS
 62
     5
 10
-33.959327999999999
 20
-49.01098300000001
 30
0.0
 11
-33.910713000000001
 21
-49.018197000000001
 31
0.0
  0
LINE
  5
184
  8
DETAIL
  6
CONTINUOUS
 62
     5
 10
-33.910713000000001
 20
-49.018197000000001
 30
0.0
 11
-33.863146
 21
-49.030118000000002
 31
0.0
  0
LINE
  5
185
  8
DETAIL
  6
CONTINUOUS
 62
     5
 10
-33.863146
 20
-49.030118000000002
 30
0.0
 11
-33.817009000000013
 21
-49.046628999999989
 31
0.0
  0
LINE
  5
186
  8
DETAIL
  6
CONTINUOUS
 62
     5
 10
-33.817009000000013
 20
-49.046628999999989
 30
0.0
 11
-33.772671000000003
 21
-49.067601000000003
 31
0.0
  0
LINE
  5
187
  8
DETAIL
  6
CONTINUOUS
 62
     5
 10
-33.772671000000003
 20
-49.067601000000003
 30
0.0
 11
-33.73060000000001
 21
-49.09282000000001
 31
0.0
  0
LINE
  5
188
  8
DETAIL
  6
CONTINUOUS
 62
     5
 10
-33.73060000000001
 20
-49.09282000000001
 30
0.0
 11
-33.691212999999998
 21
-49.122036999999999
 31
0.0
  0
LINE
  5
189
  8
DETAIL
  6
CONTINUOUS
 62
     5
 10
-33.691212999999998
 20
-49.122036999999999
 30
0.0
 11
-33.654882999999998
 21
-49.154971999999987
 31
0.0
  0
LINE
  5
18A
  8
DETAIL
  6
CONTINUOUS
 62
     5
 10
-33.654882999999998
 20
-49.154971999999987
 30
0.0
 11
-33.621957999999999
 21
-49.191308999999997
 31
0.0
  0
LINE
  5
18B
  8
DETAIL
  6
CONTINUOUS
 62
     5
 10
-33.621957999999999
 20
-49.191308999999997
 30
0.0
 11
-33.592752000000011
 21
-49.230701000000003
 31
0.0
  0
LINE
  5
18C
  8
DETAIL
  6
CONTINUOUS
 62
     5
 10
-33.592752000000011
 20
-49.230701000000003
 30
0.0
 11
-33.567543999999998
 21
-49.272778000000002
 31
0.0
  0
LINE
  5
18D
  8
DETAIL
  6
CONTINUOUS
 62
     5
 10
-33.567543999999998
 20
-49.272778000000002
 30
0.0
 11
-33.546582000000001
 21
-49.317123000000002
 31
0.0
  0
LINE
  5
18E
  8
DETAIL
  6
CONTINUOUS
 62
     5
 10
-33.546582000000001
 20
-49.317123000000002
 30
0.0
 11
-33.530076000000001
 21
-49.363284999999998
 31
0.0
  0
LINE
  5
18F
  8
DETAIL
  6
CONTINUOUS
 62
     5
 10
-33.530076000000001
 20
-49.363284999999998
 30
0.0
 11
-33.518169
 21
-49.410857999999998
 31
0.0
  0
LINE
  5
190
  8
DETAIL
  6
CONTINUOUS
 62
     5
 10
-33.518169
 20
-49.410857999999998
 30
0.0
 11
-33.510973999999997
 21
-49.459420000000001
 31
0.0
  0
LINE
  5
191
  8
DETAIL
  6
CONTINUOUS
 62
     5
 10
-33.510973999999997
 20
-49.459420000000001
 30
0.0
 11
-33.508575
 21
-49.508495000000003
 31
0.0
  0
LINE
  5
192
  8
DETAIL
  6
CONTINUOUS
 62
     5
 10
-89.090751999999995
 20
-63.303082999999987
 30
0.0
 11
-75.153949999999995
 21
-67.948683000000003
 31
0.0
  0
ARC
  5
193
  8
DETAIL
  6
CONTINUOUS
 62
     5
 10
-88.770349999999993
 20
-62.355791000000004
 30
0.0
 40
1.0
 50
183.0
 51
251.56505100000001
  0
ARC
  5
194
  8
DETAIL
  6
CONTINUOUS
 62
     5
 10
-74.837721999999999
 20
-67.0
 30
0.0
 40
1.0
 50
251.56505100000001
 51
270.0
  0
LINE
  5
195
  8
DETAIL
  6
CONTINUOUS
 62
     5
 10
-74.891421999999991
 20
-66.057153999999997
 30
0.0
 11
-74.837721999999999
 21
-66.058595999999994
 31
0.0
  0
LINE
  5
196
  8
DETAIL
  6
CONTINUOUS
 62
     5
 10
-74.944738999999998
 20
-66.052858999999998
 30
0.0
 11
-74.891421999999991
 21
-66.057153999999997
 31
0.0
  0
LINE
  5
197
  8
DETAIL
  6
CONTINUOUS
 62
     5
 10
-74.997872999999998
 20
-66.045700999999994
 30
0.0
 11
-74.944738999999998
 21
-66.052858999999998
 31
0.0
  0
LINE
  5
198
  8
DETAIL
  6
CONTINUOUS
 62
     5
 10
-75.050567999999998
 20
-66.03570400000001
 30
0.0
 11
-74.997872999999998
 21
-66.045700999999994
 31
0.0
  0
LINE
  5
199
  8
DETAIL
  6
CONTINUOUS
 62
     5
 10
-75.102544999999992
 20
-66.022929000000005
 30
0.0
 11
-75.050567999999998
 21
-66.03570400000001
 31
0.0
  0
LINE
  5
19A
  8
DETAIL
  6
CONTINUOUS
 62
     5
 10
-75.153949999999995
 20
-66.007328999999999
 30
0.0
 11
-75.102544999999992
 21
-66.022929000000005
 31
0.0
  0
LINE
  5
19B
  8
DETAIL
  6
CONTINUOUS
 62
     5
 10
-74.837721999999999
 20
-68.0
 30
0.0
 11
-74.837721999999999
 21
-66.058595999999994
 31
0.0
  0
LINE
  5
19C
  8
DETAIL
  6
CONTINUOUS
 62
     5
 10
89.991124999999997
 20
-0.5087260000000001
 30
0.0
 11
89.563627999999994
 21
-25.0
 31
0.0
  0
LINE
  5
19D
  8
DETAIL
  6
CONTINUOUS
 62
     5
 10
-21.999995999999999
 20
0.0
 30
0.0
 11
89.491201000000004
 21
0.0
 31
0.0
  0
LINE
  5
19E
  8
DETAIL
  6
CONTINUOUS
 62
     5
 10
16.621179000000001
 20
-9.9802529999999994
 30
0.0
 11
-16.494167000000001
 21
-9.9805210000000013
 31
0.0
  0
LINE
  5
19F
  8
DETAIL
  6
CONTINUOUS
 62
     5
 10
-16.621155000000002
 20
-12.019747000000001
 30
0.0
 11
16.494176
 21
-12.019479
 31
0.0
  0
LINE
  5
1A0
  8
DETAIL
  6
CONTINUOUS
 62
     5
 10
4.708791999999999
 20
-9.8919509999999988
 30
0.0
 11
7.4355880000000001
 21
-9.9003370000000004
 31
0.0
  0
LINE
  5
1A1
  8
DETAIL
  6
CONTINUOUS
 62
     5
 10
7.7611009999999991
 20
-12.0984
 30
0.0
 11
5.2244830000000002
 21
-12.106759
 31
0.0
  0
LINE
  5
1A2
  8
DETAIL
  6
CONTINUOUS
 62
     5
 10
-12.410622999999999
 20
-9.9260929999999998
 30
0.0
 11
-10.208425999999999
 21
-9.9129559999999994
 31
0.0
  0
LINE
  5
1A3
  8
DETAIL
  6
CONTINUOUS
 62
     5
 10
-10.232533999999999
 20
-12.086916
 30
0.0
 11
-12.462742
 21
-12.073561
 31
0.0
  0
ARC
  5
1A4
  8
DETAIL
  6
CONTINUOUS
 62
     5
 10
-23.799996
 20
-16.199999999999999
 30
0.0
 40
0.3
 50
270.0
 51
0.0
  0
ARC
  5
1A5
  8
DETAIL
  6
CONTINUOUS
 62
     5
 10
-23.799996
 20
-1.8
 30
0.0
 40
0.3
 50
0.0
 51
90.0
  0
LINE
  5
1A6
  8
DETAIL
  6
CONTINUOUS
 62
     5
 10
-26.999995999999999
 20
-4.25
 30
0.0
 11
-26.999995999999999
 21
-13.75
 31
0.0
  0
LINE
  5
1A7
  8
DETAIL
  6
CONTINUOUS
 62
     5
 10
-23.499995999999999
 20
-16.199999999999999
 30
0.0
 11
-23.499995999999999
 21
-1.8
 31
0.0
  0
LINE
  5
1A8
  8
DETAIL
  6
CONTINUOUS
 62
     5
 10
-17.009699999999999
 20
-12.02984
 30
0.0
 11
-17.006765999999999
 21
-12.028537999999999
 31
0.0
  0
LINE
  5
1A9
  8
DETAIL
  6
CONTINUOUS
 62
     5
 10
-17.006765999999999
 20
-12.028537999999999
 30
0.0
 11
-16.998142999999999
 21
-12.027307
 31
0.0
  0
LINE
  5
1AA
  8
DETAIL
  6
CONTINUOUS
 62
     5
 10
-16.998142999999999
 20
-12.027307
 30
0.0
 11
-16.983782000000001
 21
-12.026145
 31
0.0
  0
LINE
  5
1AB
  8
DETAIL
  6
CONTINUOUS
 62
     5
 10
-16.983782000000001
 20
-12.026145
 30
0.0
 11
-16.963812999999998
 21
-12.02506
 31
0.0
  0
LINE
  5
1AC
  8
DETAIL
  6
CONTINUOUS
 62
     5
 10
-16.963812999999998
 20
-12.02506
 30
0.0
 11
-16.938272000000001
 21
-12.024056
 31
0.0
  0
LINE
  5
1AD
  8
DETAIL
  6
CONTINUOUS
 62
     5
 10
-16.938272000000001
 20
-12.024056
 30
0.0
 11
-16.907377
 21
-12.02314
 31
0.0
  0
LINE
  5
1AE
  8
DETAIL
  6
CONTINUOUS
 62
     5
 10
-16.907377
 20
-12.02314
 30
0.0
 11
-16.871271
 21
-12.022319
 31
0.0
  0
LINE
  5
1AF
  8
DETAIL
  6
CONTINUOUS
 62
     5
 10
-16.871271
 20
-12.022319
 30
0.0
 11
-16.830200999999999
 21
-12.021595
 31
0.0
  0
LINE
  5
1B0
  8
DETAIL
  6
CONTINUOUS
 62
     5
 10
-16.830200999999999
 20
-12.021595
 30
0.0
 11
-16.734045999999999
 21
-12.020457
 31
0.0
  0
LINE
  5
1B1
  8
DETAIL
  6
CONTINUOUS
 62
     5
 10
-17.999995999999999
 20
-10.963592
 30
0.0
 11
-17.9954
 21
-10.867857000000001
 31
0.0
  0
LINE
  5
1B2
  8
DETAIL
  6
CONTINUOUS
 62
     5
 10
-17.9954
 20
-10.867857000000001
 30
0.0
 11
-17.981504999999999
 21
-10.772171999999999
 31
0.0
  0
LINE
  5
1B3
  8
DETAIL
  6
CONTINUOUS
 62
     5
 10
-17.981504999999999
 20
-10.772171999999999
 30
0.0
 11
-17.958151999999998
 21
-10.677315999999999
 31
0.0
  0
LINE
  5
1B4
  8
DETAIL
  6
CONTINUOUS
 62
     5
 10
-17.958151999999998
 20
-10.677315999999999
 30
0.0
 11
-17.925460999999999
 21
-10.584699000000001
 31
0.0
  0
LINE
  5
1B5
  8
DETAIL
  6
CONTINUOUS
 62
     5
 10
-17.925460999999999
 20
-10.584699000000001
 30
0.0
 11
-17.883745999999999
 21
-10.495545999999999
 31
0.0
  0
LINE
  5
1B6
  8
DETAIL
  6
CONTINUOUS
 62
     5
 10
-17.883745999999999
 20
-10.495545999999999
 30
0.0
 11
-17.833527
 21
-10.411006
 31
0.0
  0
LINE
  5
1B7
  8
DETAIL
  6
CONTINUOUS
 62
     5
 10
-17.833527
 20
-10.411006
 30
0.0
 11
-17.775669000000001
 21
-10.332319
 31
0.0
  0
LINE
  5
1B8
  8
DETAIL
  6
CONTINUOUS
 62
     5
 10
-17.775669000000001
 20
-10.332319
 30
0.0
 11
-17.710567000000001
 21
-10.259807
 31
0.0
  0
LINE
  5
1B9
  8
DETAIL
  6
CONTINUOUS
 62
     5
 10
-17.710567000000001
 20
-10.259807
 30
0.0
 11
-17.638750000000002
 21
-10.194001999999999
 31
0.0
  0
LINE
  5
1BA
  8
DETAIL
  6
CONTINUOUS
 62
     5
 10
-17.638750000000002
 20
-10.194001999999999
 30
0.0
 11
-17.560717
 21
-10.135389999999999
 31
0.0
  0
LINE
  5
1BB
  8
DETAIL
  6
CONTINUOUS
 62
     5
 10
-17.560717
 20
-10.135389999999999
 30
0.0
 11
-17.476769999999998
 21
-10.084353
 31
0.0
  0
LINE
  5
1BC
  8
DETAIL
  6
CONTINUOUS
 62
     5
 10
-17.476769999999998
 20
-10.084353
 30
0.0
 11
-17.388100999999999
 21
-10.041751
 31
0.0
  0
LINE
  5
1BD
  8
DETAIL
  6
CONTINUOUS
 62
     5
 10
-17.388100999999999
 20
-10.041751
 30
0.0
 11
-17.295777999999999
 21
-10.008100000000001
 31
0.0
  0
LINE
  5
1BE
  8
DETAIL
  6
CONTINUOUS
 62
     5
 10
-17.295777999999999
 20
-10.008100000000001
 30
0.0
 11
-17.201087999999999
 21
-9.9837759999999989
 31
0.0
  0
LINE
  5
1BF
  8
DETAIL
  6
CONTINUOUS
 62
     5
 10
-17.201087999999999
 20
-9.9837759999999989
 30
0.0
 11
-17.105502000000001
 21
-9.9689250000000005
 31
0.0
  0
LINE
  5
1C0
  8
DETAIL
  6
CONTINUOUS
 62
     5
 10
-17.105502000000001
 20
-9.9689250000000005
 30
0.0
 11
-17.009782999999999
 21
-9.9633899999999986
 31
0.0
  0
LINE
  5
1C1
  8
DETAIL
  6
CONTINUOUS
 62
     5
 10
-22.999995999999999
 20
-15.5
 30
0.0
 11
-22.999995999999999
 21
-1.0
 31
0.0
  0
LINE
  5
1C2
  8
DETAIL
  6
CONTINUOUS
 62
     5
 10
-17.009699999999999
 20
-12.02984
 30
0.0
 11
-17.120909999999999
 21
-12.022551
 31
0.0
  0
LINE
  5
1C3
  8
DETAIL
  6
CONTINUOUS
 62
     5
 10
-17.120909999999999
 20
-12.022551
 30
0.0
 11
-17.230616999999999
 21
-12.002935000000001
 31
0.0
  0
LINE
  5
1C4
  8
DETAIL
  6
CONTINUOUS
 62
     5
 10
-17.230616999999999
 20
-12.002935000000001
 30
0.0
 11
-17.337461000000001
 21
-11.971234000000001
 31
0.0
  0
LINE
  5
1C5
  8
DETAIL
  6
CONTINUOUS
 62
     5
 10
-17.337461000000001
 20
-11.971234000000001
 30
0.0
 11
-17.440113
 21
-11.927842999999999
 31
0.0
  0
LINE
  5
1C6
  8
DETAIL
  6
CONTINUOUS
 62
     5
 10
-17.440113
 20
-11.927842999999999
 30
0.0
 11
-17.537298
 21
-11.8733
 31
0.0
  0
LINE
  5
1C7
  8
DETAIL
  6
CONTINUOUS
 62
     5
 10
-17.537298
 20
-11.8733
 30
0.0
 11
-17.62781
 21
-11.808284
 31
0.0
  0
LINE
  5
1C8
  8
DETAIL
  6
CONTINUOUS
 62
     5
 10
-17.62781
 20
-11.808284
 30
0.0
 11
-17.710523999999999
 21
-11.733601
 31
0.0
  0
LINE
  5
1C9
  8
DETAIL
  6
CONTINUOUS
 62
     5
 10
-17.710523999999999
 20
-11.733601
 30
0.0
 11
-17.784412
 21
-11.650179
 31
0.0
  0
LINE
  5
1CA
  8
DETAIL
  6
CONTINUOUS
 62
     5
 10
-17.784412
 20
-11.650179
 30
0.0
 11
-17.848558000000001
 21
-11.559054
 31
0.0
  0
LINE
  5
1CB
  8
DETAIL
  6
CONTINUOUS
 62
     5
 10
-17.848558000000001
 20
-11.559054
 30
0.0
 11
-17.902163000000002
 21
-11.461359
 31
0.0
  0
LINE
  5
1CC
  8
DETAIL
  6
CONTINUOUS
 62
     5
 10
-17.902163000000002
 20
-11.461359
 30
0.0
 11
-17.944562999999999
 21
-11.358306000000001
 31
0.0
  0
LINE
  5
1CD
  8
DETAIL
  6
CONTINUOUS
 62
     5
 10
-17.944562999999999
 20
-11.358306000000001
 30
0.0
 11
-17.975231000000001
 21
-11.251175999999999
 31
0.0
  0
LINE
  5
1CE
  8
DETAIL
  6
CONTINUOUS
 62
     5
 10
-17.975231000000001
 20
-11.251175999999999
 30
0.0
 11
-17.993784999999999
 21
-11.141298000000001
 31
0.0
  0
LINE
  5
1CF
  8
DETAIL
  6
CONTINUOUS
 62
     5
 10
-17.993784999999999
 20
-11.141298000000001
 30
0.0
 11
-17.999995999999999
 21
-11.030039
 31
0.0
  0
LINE
  5
1D0
  8
DETAIL
  6
CONTINUOUS
 62
     5
 10
-17.009782999999999
 20
-12.03661
 30
0.0
 11
-17.105502000000001
 21
-12.031075
 31
0.0
  0
LINE
  5
1D1
  8
DETAIL
  6
CONTINUOUS
 62
     5
 10
-17.105502000000001
 20
-12.031075
 30
0.0
 11
-17.201087999999999
 21
-12.016223999999999
 31
0.0
  0
LINE
  5
1D2
  8
DETAIL
  6
CONTINUOUS
 62
     5
 10
-17.201087999999999
 20
-12.016223999999999
 30
0.0
 11
-17.295777999999999
 21
-11.991899999999999
 31
0.0
  0
LINE
  5
1D3
  8
DETAIL
  6
CONTINUOUS
 62
     5
 10
-17.295777999999999
 20
-11.991899999999999
 30
0.0
 11
-17.388100999999999
 21
-11.958249
 31
0.0
  0
LINE
  5
1D4
  8
DETAIL
  6
CONTINUOUS
 62
     5
 10
-17.388100999999999
 20
-11.958249
 30
0.0
 11
-17.476769999999998
 21
-11.915647
 31
0.0
  0
LINE
  5
1D5
  8
DETAIL
  6
CONTINUOUS
 62
     5
 10
-17.476769999999998
 20
-11.915647
 30
0.0
 11
-17.560717
 21
-11.864610000000001
 31
0.0
  0
LINE
  5
1D6
  8
DETAIL
  6
CONTINUOUS
 62
     5
 10
-17.560717
 20
-11.864610000000001
 30
0.0
 11
-17.638750000000002
 21
-11.805998000000001
 31
0.0
  0
LINE
  5
1D7
  8
DETAIL
  6
CONTINUOUS
 62
     5
 10
-17.638750000000002
 20
-11.805998000000001
 30
0.0
 11
-17.710567000000001
 21
-11.740193
 31
0.0
  0
LINE
  5
1D8
  8
DETAIL
  6
CONTINUOUS
 62
     5
 10
-17.710567000000001
 20
-11.740193
 30
0.0
 11
-17.775669000000001
 21
-11.667681
 31
0.0
  0
LINE
  5
1D9
  8
DETAIL
  6
CONTINUOUS
 62
     5
 10
-17.775669000000001
 20
-11.667681
 30
0.0
 11
-17.833527
 21
-11.588994
 31
0.0
  0
LINE
  5
1DA
  8
DETAIL
  6
CONTINUOUS
 62
     5
 10
-17.833527
 20
-11.588994
 30
0.0
 11
-17.883745999999999
 21
-11.504454000000001
 31
0.0
  0
LINE
  5
1DB
  8
DETAIL
  6
CONTINUOUS
 62
     5
 10
-17.883745999999999
 20
-11.504454000000001
 30
0.0
 11
-17.925460999999999
 21
-11.415300999999999
 31
0.0
  0
LINE
  5
1DC
  8
DETAIL
  6
CONTINUOUS
 62
     5
 10
-17.925460999999999
 20
-11.415300999999999
 30
0.0
 11
-17.958151999999998
 21
-11.322684000000001
 31
0.0
  0
LINE
  5
1DD
  8
DETAIL
  6
CONTINUOUS
 62
     5
 10
-17.958151999999998
 20
-11.322684000000001
 30
0.0
 11
-17.981504999999999
 21
-11.227827
 31
0.0
  0
LINE
  5
1DE
  8
DETAIL
  6
CONTINUOUS
 62
     5
 10
-17.981504999999999
 20
-11.227827
 30
0.0
 11
-17.9954
 21
-11.132142999999999
 31
0.0
  0
LINE
  5
1DF
  8
DETAIL
  6
CONTINUOUS
 62
     5
 10
-17.9954
 20
-11.132142999999999
 30
0.0
 11
-17.999995999999999
 21
-11.036408
 31
0.0
  0
LINE
  5
1E0
  8
DETAIL
  6
CONTINUOUS
 62
     5
 10
-16.871271
 20
-9.9776810000000005
 30
0.0
 11
-16.907377
 21
-9.9768600000000003
 31
0.0
  0
LINE
  5
1E1
  8
DETAIL
  6
CONTINUOUS
 62
     5
 10
-16.907377
 20
-9.9768600000000003
 30
0.0
 11
-16.938272000000001
 21
-9.9759440000000001
 31
0.0
  0
LINE
  5
1E2
  8
DETAIL
  6
CONTINUOUS
 62
     5
 10
-16.938272000000001
 20
-9.9759440000000001
 30
0.0
 11
-16.963812999999998
 21
-9.9749400000000001
 31
0.0
  0
LINE
  5
1E3
  8
DETAIL
  6
CONTINUOUS
 62
     5
 10
-16.963812999999998
 20
-9.9749400000000001
 30
0.0
 11
-16.983782000000001
 21
-9.9738550000000004
 31
0.0
  0
LINE
  5
1E4
  8
DETAIL
  6
CONTINUOUS
 62
     5
 10
-16.983782000000001
 20
-9.9738550000000004
 30
0.0
 11
-16.998142999999999
 21
-9.9726929999999996
 31
0.0
  0
LINE
  5
1E5
  8
DETAIL
  6
CONTINUOUS
 62
     5
 10
-16.998142999999999
 20
-9.9726929999999996
 30
0.0
 11
-17.006765999999999
 21
-9.9714619999999972
 31
0.0
  0
LINE
  5
1E6
  8
DETAIL
  6
CONTINUOUS
 62
     5
 10
-17.006765999999999
 20
-9.9714619999999972
 30
0.0
 11
-17.009699999999999
 21
-9.9701599999999981
 31
0.0
  0
LINE
  5
1E7
  8
DETAIL
  6
CONTINUOUS
 62
     5
 10
-16.784355999999999
 20
-9.9790259999999993
 30
0.0
 11
-16.871271
 21
-9.9776810000000005
 31
0.0
  0
LINE
  5
1E8
  8
DETAIL
  6
CONTINUOUS
 62
     5
 10
-16.679528000000001
 20
-9.9799520000000008
 30
0.0
 11
-16.784355999999999
 21
-9.9790259999999993
 31
0.0
  0
LINE
  5
1E9
  8
DETAIL
  6
CONTINUOUS
 62
     5
 10
-16.494167000000001
 20
-9.9805210000000013
 30
0.0
 11
-16.679528000000001
 21
-9.9799520000000008
 31
0.0
  0
LINE
  5
1EA
  8
DETAIL
  6
CONTINUOUS
 62
     5
 10
-16.734045999999999
 20
-12.020457
 30
0.0
 11
-16.621155000000002
 21
-12.019747000000001
 31
0.0
  0
LINE
  5
1EB
  8
DETAIL
  6
CONTINUOUS
 62
     5
 10
-17.009699999999999
 20
-9.9633889999999994
 30
0.0
 11
-14.697822
 21
-9.9428729999999987
 31
0.0
  0
LINE
  5
1EC
  8
DETAIL
  6
CONTINUOUS
 62
     5
 10
-14.697822
 20
-9.9428729999999987
 30
0.0
 11
-12.410622999999999
 21
-9.9260929999999998
 31
0.0
  0
LINE
  5
1ED
  8
DETAIL
  6
CONTINUOUS
 62
     5
 10
-12.462742
 20
-12.073561
 30
0.0
 11
-14.741251999999999
 21
-12.056775999999999
 31
0.0
  0
LINE
  5
1EE
  8
DETAIL
  6
CONTINUOUS
 62
     5
 10
-14.741251999999999
 20
-12.056775999999999
 30
0.0
 11
-17.009699999999999
 21
-12.036611000000001
 31
0.0
  0
LINE
  5
1EF
  8
DETAIL
  6
CONTINUOUS
 62
     5
 10
-17.009699999999999
 20
-9.9701599999999981
 30
0.0
 11
-17.120909999999999
 21
-9.977449
 31
0.0
  0
LINE
  5
1F0
  8
DETAIL
  6
CONTINUOUS
 62
     5
 10
-17.120909999999999
 20
-9.977449
 30
0.0
 11
-17.230619000000001
 21
-9.9970660000000002
 31
0.0
  0
LINE
  5
1F1
  8
DETAIL
  6
CONTINUOUS
 62
     5
 10
-17.230619000000001
 20
-9.9970660000000002
 30
0.0
 11
-17.337461999999999
 21
-10.028767
 31
0.0
  0
LINE
  5
1F2
  8
DETAIL
  6
CONTINUOUS
 62
     5
 10
-17.337461999999999
 20
-10.028767
 30
0.0
 11
-17.440114000000001
 21
-10.072158
 31
0.0
  0
LINE
  5
1F3
  8
DETAIL
  6
CONTINUOUS
 62
     5
 10
-17.440114000000001
 20
-10.072158
 30
0.0
 11
-17.537299999999998
 21
-10.126701000000001
 31
0.0
  0
LINE
  5
1F4
  8
DETAIL
  6
CONTINUOUS
 62
     5
 10
-17.537299999999998
 20
-10.126701000000001
 30
0.0
 11
-17.627810999999991
 21
-10.191717000000001
 31
0.0
  0
LINE
  5
1F5
  8
DETAIL
  6
CONTINUOUS
 62
     5
 10
-17.627810999999991
 20
-10.191717000000001
 30
0.0
 11
-17.710525000000001
 21
-10.266400000000001
 31
0.0
  0
LINE
  5
1F6
  8
DETAIL
  6
CONTINUOUS
 62
     5
 10
-17.710525000000001
 20
-10.266400000000001
 30
0.0
 11
-17.784413000000001
 21
-10.349822
 31
0.0
  0
LINE
  5
1F7
  8
DETAIL
  6
CONTINUOUS
 62
     5
 10
-17.784413000000001
 20
-10.349822
 30
0.0
 11
-17.848559000000002
 21
-10.440947
 31
0.0
  0
LINE
  5
1F8
  8
DETAIL
  6
CONTINUOUS
 62
     5
 10
-17.848559000000002
 20
-10.440947
 30
0.0
 11
-17.902163999999999
 21
-10.538641999999999
 31
0.0
  0
LINE
  5
1F9
  8
DETAIL
  6
CONTINUOUS
 62
     5
 10
-17.902163999999999
 20
-10.538641999999999
 30
0.0
 11
-17.944564
 21
-10.641695
 31
0.0
  0
LINE
  5
1FA
  8
DETAIL
  6
CONTINUOUS
 62
     5
 10
-17.944564
 20
-10.641695
 30
0.0
 11
-17.975231000000001
 21
-10.748825
 31
0.0
  0
LINE
  5
1FB
  8
DETAIL
  6
CONTINUOUS
 62
     5
 10
-17.975231000000001
 20
-10.748825
 30
0.0
 11
-17.993784999999999
 21
-10.858701999999999
 31
0.0
  0
LINE
  5
1FC
  8
DETAIL
  6
CONTINUOUS
 62
     5
 10
-17.993784999999999
 20
-10.858701999999999
 30
0.0
 11
-17.999995999999999
 21
-10.969961
 31
0.0
  0
LINE
  5
1FD
  8
DETAIL
  6
CONTINUOUS
 62
     5
 10
-17.999995999999999
 20
-10.969961
 30
0.0
 11
-17.999995999999999
 21
-11.030039
 31
0.0
  0
ARC
  5
1FE
  8
DETAIL
  6
CONTINUOUS
 62
     5
 10
-21.999995999999999
 20
-1.0
 30
0.0
 40
1.0
 50
90.032386000000017
 51
180.0
  0
ARC
  5
1FF
  8
DETAIL
  6
CONTINUOUS
 62
     5
 10
-23.999995999999999
 20
-15.5
 30
0.0
 40
1.0
 50
270.0
 51
0.0
  0
LINE
  5
200
  8
DETAIL
  6
CONTINUOUS
 62
     5
 10
-10.208425999999999
 20
-9.9129559999999994
 30
0.0
 11
-7.9904310000000001
 21
-9.9025239999999997
 31
0.0
  0
LINE
  5
201
  8
DETAIL
  6
CONTINUOUS
 62
     5
 10
-7.9904310000000001
 20
-9.9025239999999997
 30
0.0
 11
-5.6543689999999991
 21
-9.8944210000000012
 31
0.0
  0
LINE
  5
202
  8
DETAIL
  6
CONTINUOUS
 62
     5
 10
-5.6543689999999991
 20
-9.8944210000000012
 30
0.0
 11
-3.2224459999999988
 21
-9.8889899999999997
 31
0.0
  0
LINE
  5
203
  8
DETAIL
  6
CONTINUOUS
 62
     5
 10
-3.2224459999999988
 20
-9.8889899999999997
 30
0.0
 11
-0.678167
 21
-9.8865049999999997
 31
0.0
  0
LINE
  5
204
  8
DETAIL
  6
CONTINUOUS
 62
     5
 10
-0.678167
 20
-9.8865049999999997
 30
0.0
 11
1.9570719999999999
 21
-9.8873490000000004
 31
0.0
  0
LINE
  5
205
  8
DETAIL
  6
CONTINUOUS
 62
     5
 10
1.9570719999999999
 20
-9.8873490000000004
 30
0.0
 11
4.708791999999999
 21
-9.8919509999999988
 31
0.0
  0
LINE
  5
206
  8
DETAIL
  6
CONTINUOUS
 62
     5
 10
5.2244830000000002
 20
-12.106759
 30
0.0
 11
2.5963970000000001
 21
-12.111922
 31
0.0
  0
LINE
  5
207
  8
DETAIL
  6
CONTINUOUS
 62
     5
 10
2.5963970000000001
 20
-12.111922
 30
0.0
 11
-0.152149
 21
-12.113604
 31
0.0
  0
LINE
  5
208
  8
DETAIL
  6
CONTINUOUS
 62
     5
 10
-0.152149
 20
-12.113604
 30
0.0
 11
-2.886768
 21
-12.111523999999999
 31
0.0
  0
LINE
  5
209
  8
DETAIL
  6
CONTINUOUS
 62
     5
 10
-2.886768
 20
-12.111523999999999
 30
0.0
 11
-5.476458
 21
-12.106078999999999
 31
0.0
  0
LINE
  5
20A
  8
DETAIL
  6
CONTINUOUS
 62
     5
 10
-5.476458
 20
-12.106078999999999
 30
0.0
 11
-7.9433169999999986
 21
-12.097668000000001
 31
0.0
  0
LINE
  5
20B
  8
DETAIL
  6
CONTINUOUS
 62
     5
 10
-7.9433169999999986
 20
-12.097668000000001
 30
0.0
 11
-10.232533999999999
 21
-12.086916
 31
0.0
  0
LINE
  5
20C
  8
DETAIL
  6
CONTINUOUS
 62
     5
 10
17.009709000000001
 20
-9.9701599999999981
 30
0.0
 11
17.120919000000001
 21
-9.977449
 31
0.0
  0
LINE
  5
20D
  8
DETAIL
  6
CONTINUOUS
 62
     5
 10
17.120919000000001
 20
-9.977449
 30
0.0
 11
17.230626999999998
 21
-9.9970649999999992
 31
0.0
  0
LINE
  5
20E
  8
DETAIL
  6
CONTINUOUS
 62
     5
 10
17.230626999999998
 20
-9.9970649999999992
 30
0.0
 11
17.33747
 21
-10.028765999999999
 31
0.0
  0
LINE
  5
20F
  8
DETAIL
  6
CONTINUOUS
 62
     5
 10
17.33747
 20
-10.028765999999999
 30
0.0
 11
17.440121999999999
 21
-10.072157000000001
 31
0.0
  0
LINE
  5
210
  8
DETAIL
  6
CONTINUOUS
 62
     5
 10
17.440121999999999
 20
-10.072157000000001
 30
0.0
 11
17.537306999999998
 21
-10.1267
 31
0.0
  0
LINE
  5
211
  8
DETAIL
  6
CONTINUOUS
 62
     5
 10
17.537306999999998
 20
-10.1267
 30
0.0
 11
17.627818999999999
 21
-10.191716
 31
0.0
  0
LINE
  5
212
  8
DETAIL
  6
CONTINUOUS
 62
     5
 10
17.627818999999999
 20
-10.191716
 30
0.0
 11
17.710533000000002
 21
-10.266399
 31
0.0
  0
LINE
  5
213
  8
DETAIL
  6
CONTINUOUS
 62
     5
 10
17.710533000000002
 20
-10.266399
 30
0.0
 11
17.784420999999998
 21
-10.349821
 31
0.0
  0
LINE
  5
214
  8
DETAIL
  6
CONTINUOUS
 62
     5
 10
17.784420999999998
 20
-10.349821
 30
0.0
 11
17.848566999999999
 21
-10.440946
 31
0.0
  0
LINE
  5
215
  8
DETAIL
  6
CONTINUOUS
 62
     5
 10
17.848566999999999
 20
-10.440946
 30
0.0
 11
17.902172
 21
-10.538641
 31
0.0
  0
LINE
  5
216
  8
DETAIL
  6
CONTINUOUS
 62
     5
 10
17.902172
 20
-10.538641
 30
0.0
 11
17.944572000000001
 21
-10.641693999999999
 31
0.0
  0
LINE
  5
217
  8
DETAIL
  6
CONTINUOUS
 62
     5
 10
17.944572000000001
 20
-10.641693999999999
 30
0.0
 11
17.975239999999999
 21
-10.748825
 31
0.0
  0
LINE
  5
218
  8
DETAIL
  6
CONTINUOUS
 62
     5
 10
17.975239999999999
 20
-10.748825
 30
0.0
 11
17.993794000000001
 21
-10.858701999999999
 31
0.0
  0
LINE
  5
219
  8
DETAIL
  6
CONTINUOUS
 62
     5
 10
17.993794000000001
 20
-10.858701999999999
 30
0.0
 11
18.000004000000001
 21
-10.969961
 31
0.0
  0
LINE
  5
21A
  8
DETAIL
  6
CONTINUOUS
 62
     5
 10
17.009792000000001
 20
-9.9633899999999986
 30
0.0
 11
17.105511
 21
-9.9689250000000005
 31
0.0
  0
LINE
  5
21B
  8
DETAIL
  6
CONTINUOUS
 62
     5
 10
17.105511
 20
-9.9689250000000005
 30
0.0
 11
17.201097000000001
 21
-9.9837759999999989
 31
0.0
  0
LINE
  5
21C
  8
DETAIL
  6
CONTINUOUS
 62
     5
 10
17.201097000000001
 20
-9.9837759999999989
 30
0.0
 11
17.295787000000001
 21
-10.008100000000001
 31
0.0
  0
LINE
  5
21D
  8
DETAIL
  6
CONTINUOUS
 62
     5
 10
17.295787000000001
 20
-10.008100000000001
 30
0.0
 11
17.388110000000001
 21
-10.041751
 31
0.0
  0
LINE
  5
21E
  8
DETAIL
  6
CONTINUOUS
 62
     5
 10
17.388110000000001
 20
-10.041751
 30
0.0
 11
17.476779000000001
 21
-10.084353
 31
0.0
  0
LINE
  5
21F
  8
DETAIL
  6
CONTINUOUS
 62
     5
 10
17.476779000000001
 20
-10.084353
 30
0.0
 11
17.560725999999999
 21
-10.135389999999999
 31
0.0
  0
LINE
  5
220
  8
DETAIL
  6
CONTINUOUS
 62
     5
 10
17.560725999999999
 20
-10.135389999999999
 30
0.0
 11
17.638759
 21
-10.194001999999999
 31
0.0
  0
LINE
  5
221
  8
DETAIL
  6
CONTINUOUS
 62
     5
 10
17.638759
 20
-10.194001999999999
 30
0.0
 11
17.710576
 21
-10.259807
 31
0.0
  0
LINE
  5
222
  8
DETAIL
  6
CONTINUOUS
 62
     5
 10
17.710576
 20
-10.259807
 30
0.0
 11
17.775677999999999
 21
-10.332319
 31
0.0
  0
LINE
  5
223
  8
DETAIL
  6
CONTINUOUS
 62
     5
 10
17.775677999999999
 20
-10.332319
 30
0.0
 11
17.833535999999999
 21
-10.411006
 31
0.0
  0
LINE
  5
224
  8
DETAIL
  6
CONTINUOUS
 62
     5
 10
17.833535999999999
 20
-10.411006
 30
0.0
 11
17.883755000000001
 21
-10.495545999999999
 31
0.0
  0
LINE
  5
225
  8
DETAIL
  6
CONTINUOUS
 62
     5
 10
17.883755000000001
 20
-10.495545999999999
 30
0.0
 11
17.925470000000001
 21
-10.584699000000001
 31
0.0
  0
LINE
  5
226
  8
DETAIL
  6
CONTINUOUS
 62
     5
 10
17.925470000000001
 20
-10.584699000000001
 30
0.0
 11
17.95816099999999
 21
-10.677315999999999
 31
0.0
  0
LINE
  5
227
  8
DETAIL
  6
CONTINUOUS
 62
     5
 10
17.95816099999999
 20
-10.677315999999999
 30
0.0
 11
17.981513
 21
-10.772173
 31
0.0
  0
LINE
  5
228
  8
DETAIL
  6
CONTINUOUS
 62
     5
 10
17.981513
 20
-10.772173
 30
0.0
 11
17.995408999999999
 21
-10.867857000000001
 31
0.0
  0
LINE
  5
229
  8
DETAIL
  6
CONTINUOUS
 62
     5
 10
17.995408999999999
 20
-10.867857000000001
 30
0.0
 11
18.000004000000001
 21
-10.963592
 31
0.0
  0
LINE
  5
22A
  8
DETAIL
  6
CONTINUOUS
 62
     5
 10
16.871244000000001
 20
-12.022318
 30
0.0
 11
16.907346
 21
-12.023139
 31
0.0
  0
LINE
  5
22B
  8
DETAIL
  6
CONTINUOUS
 62
     5
 10
16.907346
 20
-12.023139
 30
0.0
 11
16.938236
 21
-12.024054
 31
0.0
  0
LINE
  5
22C
  8
DETAIL
  6
CONTINUOUS
 62
     5
 10
16.938236
 20
-12.024054
 30
0.0
 11
16.963778999999999
 21
-12.025058
 31
0.0
  0
LINE
  5
22D
  8
DETAIL
  6
CONTINUOUS
 62
     5
 10
16.963778999999999
 20
-12.025058
 30
0.0
 11
16.983775999999999
 21
-12.026145
 31
0.0
  0
LINE
  5
22E
  8
DETAIL
  6
CONTINUOUS
 62
     5
 10
16.983775999999999
 20
-12.026145
 30
0.0
 11
16.998163000000002
 21
-12.027308
 31
0.0
  0
LINE
  5
22F
  8
DETAIL
  6
CONTINUOUS
 62
     5
 10
16.998163000000002
 20
-12.027308
 30
0.0
 11
17.006789999999999
 21
-12.028539
 31
0.0
  0
LINE
  5
230
  8
DETAIL
  6
CONTINUOUS
 62
     5
 10
17.006789999999999
 20
-12.028539
 30
0.0
 11
17.009709000000001
 21
-12.02984
 31
0.0
  0
LINE
  5
231
  8
DETAIL
  6
CONTINUOUS
 62
     5
 10
16.784341999999999
 20
-12.020974000000001
 30
0.0
 11
16.871244000000001
 21
-12.022318
 31
0.0
  0
LINE
  5
232
  8
DETAIL
  6
CONTINUOUS
 62
     5
 10
16.679539999999999
 20
-12.020047999999999
 30
0.0
 11
16.784341999999999
 21
-12.020974000000001
 31
0.0
  0
LINE
  5
233
  8
DETAIL
  6
CONTINUOUS
 62
     5
 10
16.494176
 20
-12.019479
 30
0.0
 11
16.679539999999999
 21
-12.020047999999999
 31
0.0
  0
LINE
  5
234
  8
DETAIL
  6
CONTINUOUS
 62
     5
 10
16.734043
 20
-9.9795429999999996
 30
0.0
 11
16.621179000000001
 21
-9.9802529999999994
 31
0.0
  0
LINE
  5
235
  8
DETAIL
  6
CONTINUOUS
 62
     5
 10
7.4355880000000001
 20
-9.9003370000000004
 30
0.0
 11
9.992623
 21
-9.9118200000000005
 31
0.0
  0
LINE
  5
236
  8
DETAIL
  6
CONTINUOUS
 62
     5
 10
9.992623
 20
-9.9118200000000005
 30
0.0
 11
12.435976
 21
-9.9262610000000002
 31
0.0
  0
LINE
  5
237
  8
DETAIL
  6
CONTINUOUS
 62
     5
 10
12.435976
 20
-9.9262610000000002
 30
0.0
 11
14.780768999999999
 21
-9.9435450000000003
 31
0.0
  0
LINE
  5
238
  8
DETAIL
  6
CONTINUOUS
 62
     5
 10
14.780768999999999
 20
-9.9435450000000003
 30
0.0
 11
17.009709000000001
 21
-9.9633889999999994
 31
0.0
  0
LINE
  5
239
  8
DETAIL
  6
CONTINUOUS
 62
     5
 10
17.009709000000001
 20
-12.036611000000001
 30
0.0
 11
14.80766
 21
-12.056236
 31
0.0
  0
LINE
  5
23A
  8
DETAIL
  6
CONTINUOUS
 62
     5
 10
14.80766
 20
-12.056236
 30
0.0
 11
12.524858999999999
 21
-12.073147000000001
 31
0.0
  0
LINE
  5
23B
  8
DETAIL
  6
CONTINUOUS
 62
     5
 10
12.524858999999999
 20
-12.073147000000001
 30
0.0
 11
10.185124
 21
-12.087168
 31
0.0
  0
LINE
  5
23C
  8
DETAIL
  6
CONTINUOUS
 62
     5
 10
10.185124
 20
-12.087168
 30
0.0
 11
7.7611009999999991
 21
-12.0984
 31
0.0
  0
LINE
  5
23D
  8
DETAIL
  6
CONTINUOUS
 62
     5
 10
17.009709000000001
 20
-12.02984
 30
0.0
 11
17.120919000000001
 21
-12.022551
 31
0.0
  0
LINE
  5
23E
  8
DETAIL
  6
CONTINUOUS
 62
     5
 10
17.120919000000001
 20
-12.022551
 30
0.0
 11
17.230626999999998
 21
-12.002934
 31
0.0
  0
LINE
  5
23F
  8
DETAIL
  6
CONTINUOUS
 62
     5
 10
17.230626999999998
 20
-12.002934
 30
0.0
 11
17.337471000000001
 21
-11.971233
 31
0.0
  0
LINE
  5
240
  8
DETAIL
  6
CONTINUOUS
 62
     5
 10
17.337471000000001
 20
-11.971233
 30
0.0
 11
17.440123
 21
-11.927842
 31
0.0
  0
LINE
  5
241
  8
DETAIL
  6
CONTINUOUS
 62
     5
 10
17.440123
 20
-11.927842
 30
0.0
 11
17.537309
 21
-11.873298999999999
 31
0.0
  0
LINE
  5
242
  8
DETAIL
  6
CONTINUOUS
 62
     5
 10
17.537309
 20
-11.873298999999999
 30
0.0
 11
17.62782
 21
-11.808282999999999
 31
0.0
  0
LINE
  5
243
  8
DETAIL
  6
CONTINUOUS
 62
     5
 10
17.62782
 20
-11.808282999999999
 30
0.0
 11
17.710533999999999
 21
-11.733599999999999
 31
0.0
  0
LINE
  5
244
  8
DETAIL
  6
CONTINUOUS
 62
     5
 10
17.710533999999999
 20
-11.733599999999999
 30
0.0
 11
17.784421999999999
 21
-11.650178
 31
0.0
  0
LINE
  5
245
  8
DETAIL
  6
CONTINUOUS
 62
     5
 10
17.784421999999999
 20
-11.650178
 30
0.0
 11
17.848568
 21
-11.559053
 31
0.0
  0
LINE
  5
246
  8
DETAIL
  6
CONTINUOUS
 62
     5
 10
17.848568
 20
-11.559053
 30
0.0
 11
17.902173000000001
 21
-11.461358000000001
 31
0.0
  0
LINE
  5
247
  8
DETAIL
  6
CONTINUOUS
 62
     5
 10
17.902173000000001
 20
-11.461358000000001
 30
0.0
 11
17.944572999999998
 21
-11.358305
 31
0.0
  0
LINE
  5
248
  8
DETAIL
  6
CONTINUOUS
 62
     5
 10
17.944572999999998
 20
-11.358305
 30
0.0
 11
17.975239999999999
 21
-11.251175
 31
0.0
  0
LINE
  5
249
  8
DETAIL
  6
CONTINUOUS
 62
     5
 10
17.975239999999999
 20
-11.251175
 30
0.0
 11
17.993794000000001
 21
-11.141298000000001
 31
0.0
  0
LINE
  5
24A
  8
DETAIL
  6
CONTINUOUS
 62
     5
 10
17.993794000000001
 20
-11.141298000000001
 30
0.0
 11
18.000004000000001
 21
-11.030039
 31
0.0
  0
LINE
  5
24B
  8
DETAIL
  6
CONTINUOUS
 62
     5
 10
17.009709000000001
 20
-9.9701599999999981
 30
0.0
 11
17.006789999999999
 21
-9.9714609999999997
 31
0.0
  0
LINE
  5
24C
  8
DETAIL
  6
CONTINUOUS
 62
     5
 10
17.006789999999999
 20
-9.9714609999999997
 30
0.0
 11
16.998163000000002
 21
-9.9726920000000003
 31
0.0
  0
LINE
  5
24D
  8
DETAIL
  6
CONTINUOUS
 62
     5
 10
16.998163000000002
 20
-9.9726920000000003
 30
0.0
 11
16.983775999999999
 21
-9.9738550000000004
 31
0.0
  0
LINE
  5
24E
  8
DETAIL
  6
CONTINUOUS
 62
     5
 10
16.983775999999999
 20
-9.9738550000000004
 30
0.0
 11
16.963778999999999
 21
-9.9749420000000004
 31
0.0
  0
LINE
  5
24F
  8
DETAIL
  6
CONTINUOUS
 62
     5
 10
16.963778999999999
 20
-9.9749420000000004
 30
0.0
 11
16.938236
 21
-9.9759460000000004
 31
0.0
  0
LINE
  5
250
  8
DETAIL
  6
CONTINUOUS
 62
     5
 10
16.938236
 20
-9.9759460000000004
 30
0.0
 11
16.907346
 21
-9.9768609999999995
 31
0.0
  0
LINE
  5
251
  8
DETAIL
  6
CONTINUOUS
 62
     5
 10
16.907346
 20
-9.9768609999999995
 30
0.0
 11
16.871244000000001
 21
-9.9776820000000015
 31
0.0
  0
LINE
  5
252
  8
DETAIL
  6
CONTINUOUS
 62
     5
 10
16.871244000000001
 20
-9.9776820000000015
 30
0.0
 11
16.830179000000001
 21
-9.9784050000000004
 31
0.0
  0
LINE
  5
253
  8
DETAIL
  6
CONTINUOUS
 62
     5
 10
16.830179000000001
 20
-9.9784050000000004
 30
0.0
 11
16.734043
 21
-9.9795429999999996
 31
0.0
  0
LINE
  5
254
  8
DETAIL
  6
CONTINUOUS
 62
     5
 10
18.000004000000001
 20
-11.036408
 30
0.0
 11
17.995408999999999
 21
-11.132142999999999
 31
0.0
  0
LINE
  5
255
  8
DETAIL
  6
CONTINUOUS
 62
     5
 10
17.995408999999999
 20
-11.132142999999999
 30
0.0
 11
17.981513
 21
-11.227828000000001
 31
0.0
  0
LINE
  5
256
  8
DETAIL
  6
CONTINUOUS
 62
     5
 10
17.981513
 20
-11.227828000000001
 30
0.0
 11
17.95816099999999
 21
-11.322684000000001
 31
0.0
  0
LINE
  5
257
  8
DETAIL
  6
CONTINUOUS
 62
     5
 10
17.95816099999999
 20
-11.322684000000001
 30
0.0
 11
17.925470000000001
 21
-11.415300999999999
 31
0.0
  0
LINE
  5
258
  8
DETAIL
  6
CONTINUOUS
 62
     5
 10
17.925470000000001
 20
-11.415300999999999
 30
0.0
 11
17.883755000000001
 21
-11.504454000000001
 31
0.0
  0
LINE
  5
259
  8
DETAIL
  6
CONTINUOUS
 62
     5
 10
17.883755000000001
 20
-11.504454000000001
 30
0.0
 11
17.833535999999999
 21
-11.588994
 31
0.0
  0
LINE
  5
25A
  8
DETAIL
  6
CONTINUOUS
 62
     5
 10
17.833535999999999
 20
-11.588994
 30
0.0
 11
17.775677999999999
 21
-11.667681
 31
0.0
  0
LINE
  5
25B
  8
DETAIL
  6
CONTINUOUS
 62
     5
 10
17.775677999999999
 20
-11.667681
 30
0.0
 11
17.710576
 21
-11.740193
 31
0.0
  0
LINE
  5
25C
  8
DETAIL
  6
CONTINUOUS
 62
     5
 10
17.710576
 20
-11.740193
 30
0.0
 11
17.638759
 21
-11.805998000000001
 31
0.0
  0
LINE
  5
25D
  8
DETAIL
  6
CONTINUOUS
 62
     5
 10
17.638759
 20
-11.805998000000001
 30
0.0
 11
17.560725999999999
 21
-11.864610000000001
 31
0.0
  0
LINE
  5
25E
  8
DETAIL
  6
CONTINUOUS
 62
     5
 10
17.560725999999999
 20
-11.864610000000001
 30
0.0
 11
17.476779000000001
 21
-11.915647
 31
0.0
  0
LINE
  5
25F
  8
DETAIL
  6
CONTINUOUS
 62
     5
 10
17.476779000000001
 20
-11.915647
 30
0.0
 11
17.388110000000001
 21
-11.958249
 31
0.0
  0
LINE
  5
260
  8
DETAIL
  6
CONTINUOUS
 62
     5
 10
17.388110000000001
 20
-11.958249
 30
0.0
 11
17.295787000000001
 21
-11.991899999999999
 31
0.0
  0
LINE
  5
261
  8
DETAIL
  6
CONTINUOUS
 62
     5
 10
17.295787000000001
 20
-11.991899999999999
 30
0.0
 11
17.201097000000001
 21
-12.016223999999999
 31
0.0
  0
LINE
  5
262
  8
DETAIL
  6
CONTINUOUS
 62
     5
 10
17.201097000000001
 20
-12.016223999999999
 30
0.0
 11
17.105511
 21
-12.031075
 31
0.0
  0
LINE
  5
263
  8
DETAIL
  6
CONTINUOUS
 62
     5
 10
17.105511
 20
-12.031075
 30
0.0
 11
17.009792000000001
 21
-12.03661
 31
0.0
  0
LINE
  5
264
  8
DETAIL
  6
CONTINUOUS
 62
     5
 10
18.000004000000001
 20
-11.030039
 30
0.0
 11
18.000004000000001
 21
-10.969961
 31
0.0
  0
ARC
  5
265
  8
DETAIL
  6
CONTINUOUS
 62
     5
 10
89.491191999999998
 20
-0.5
 30
0.0
 40
0.5
 50
359.00001800000001
 51
90.0
  0
LINE
  5
266
  8
DETAIL
  6
CONTINUOUS
 62
     5
 10
6.0348430000000004
 20
-53.50382299999999
 30
0.0
 11
-0.034843
 21
-53.50382299999999
 31
0.0
  0
LINE
  5
267
  8
DETAIL
  6
CONTINUOUS
 62
     5
 10
-0.03491
 20
-53.5
 30
0.0
 11
-0.034843
 21
-53.50382299999999
 31
0.0
  0
LINE
  5
268
  8
DETAIL
  6
CONTINUOUS
 62
     5
 10
6.0348430000000004
 20
-53.50382299999999
 30
0.0
 11
6.0349099999999991
 21
-53.5
 31
0.0
  0
LINE
  5
269
  8
DETAIL
  6
CONTINUOUS
 62
     5
 10
89.768977000000007
 20
-62.408174000000002
 30
0.0
 11
89.844943999999998
 21
-60.958641
 31
0.0
  0
LINE
  5
26A
  8
DETAIL
  6
CONTINUOUS
 62
     5
 10
75.153949999999995
 20
-66.007328999999999
 30
0.0
 11
89.190898000000004
 21
-61.313020999999999
 31
0.0
  0
LINE
  5
26B
  8
DETAIL
  6
CONTINUOUS
 62
     5
 10
73.938907
 20
-53.5
 30
0.0
 11
73.930180000000007
 21
-53.0
 31
0.0
  0
LINE
  5
26C
  8
DETAIL
  6
CONTINUOUS
 62
     5
 10
71.0
 20
-53.0
 30
0.0
 11
71.0
 21
-53.5
 31
0.0
  0
LINE
  5
26D
  8
DETAIL
  6
CONTINUOUS
 62
     5
 10
69.400000000000006
 20
-53.0
 30
0.0
 11
69.400000000000006
 21
-53.5
 31
0.0
  0
LINE
  5
26E
  8
DETAIL
  6
CONTINUOUS
 62
     5
 10
75.650000000000006
 20
-53.5
 30
0.0
 11
75.400000000000006
 21
-53.0
 31
0.0
  0
LINE
  5
26F
  8
DETAIL
  6
CONTINUOUS
 62
     5
 10
83.514705000000006
 20
-26.980898
 30
0.0
 11
83.514700000000005
 21
-47.480897999999989
 31
0.0
  0
LINE
  5
270
  8
DETAIL
  6
CONTINUOUS
 62
     5
 10
89.567836999999997
 20
-24.517703000000001
 30
0.0
 11
89.317503000000002
 21
-53.702618000000008
 31
0.0
  0
LINE
  5
271
  8
DETAIL
  6
CONTINUOUS
 62
     5
 10
87.998440999999985
 20
-25.089541000000001
 30
0.0
 11
87.490593000000004
 21
-54.683894999999993
 31
0.0
  0
LINE
  5
272
  8
DETAIL
  6
CONTINUOUS
 62
     5
 10
84.514705000000006
 20
-24.980896999999999
 30
0.0
 11
84.514700000000005
 21
-49.008575
 31
0.0
  0
ARC
  5
273
  8
DETAIL
  6
CONTINUOUS
 62
     5
 10
82.514705000000006
 20
-26.980898
 30
0.0
 40
1.0
 50
0.0
 51
90.0
  0
ARC
  5
274
  8
DETAIL
  6
CONTINUOUS
 62
     5
 10
90.000004000000004
 20
-37.700000000000003
 30
0.0
 40
0.5
 50
0.0
 51
90.0
  0
ARC
  5
275
  8
DETAIL
  6
CONTINUOUS
 62
     5
 10
90.000004000000004
 20
-38.299999999999997
 30
0.0
 40
0.5
 50
270.0
 51
0.0
  0
LINE
  5
276
  8
DETAIL
  6
CONTINUOUS
 62
     5
 10
90.500004000000004
 20
-38.299999999999997
 30
0.0
 11
90.500004000000004
 21
-37.700000000000003
 31
0.0
  0
LINE
  5
277
  8
DETAIL
  6
CONTINUOUS
 62
     5
 10
89.443196999999984
 20
-38.799999999999997
 30
0.0
 11
90.000004000000004
 21
-38.799999999999997
 31
0.0
  0
LINE
  5
278
  8
DETAIL
  6
CONTINUOUS
 62
     5
 10
90.000004000000004
 20
-37.20000000000001
 30
0.0
 11
89.457160000000002
 21
-37.20000000000001
 31
0.0
  0
LINE
  5
279
  8
DETAIL
  6
CONTINUOUS
 62
     5
 10
87.967532999999975
 20
-24.984770999999999
 30
0.0
 11
87.872730000000004
 21
-24.983115999999999
 31
0.0
  0
LINE
  5
27A
  8
DETAIL
  6
CONTINUOUS
 62
     5
 10
87.872730000000004
 20
-24.983115999999999
 30
0.0
 11
87.759185000000016
 21
-24.981870000000001
 31
0.0
  0
LINE
  5
27B
  8
DETAIL
  6
CONTINUOUS
 62
     5
 10
87.759185000000016
 20
-24.981870000000001
 30
0.0
 11
87.566468
 21
-24.980898
 31
0.0
  0
LINE
  5
27C
  8
DETAIL
  6
CONTINUOUS
 62
     5
 10
88.098274000000004
 20
-25.000029000000001
 30
0.0
 11
89.072271999999984
 21
-25.000321
 31
0.0
  0
LINE
  5
27D
  8
DETAIL
  6
CONTINUOUS
 62
     5
 10
88.078639999999993
 20
-25.002023999999999
 30
0.0
 11
88.098274000000004
 21
-25.000029000000001
 31
0.0
  0
LINE
  5
27E
  8
DETAIL
  6
CONTINUOUS
 62
     5
 10
88.098426000000003
 20
-24.991302999999998
 30
0.0
 11
88.094532999999984
 21
-24.990117999999999
 31
0.0
  0
LINE
  5
27F
  8
DETAIL
  6
CONTINUOUS
 62
     5
 10
88.094532999999984
 20
-24.990117999999999
 30
0.0
 11
88.083312000000006
 21
-24.988963999999999
 31
0.0
  0
LINE
  5
280
  8
DETAIL
  6
CONTINUOUS
 62
     5
 10
88.083312000000006
 20
-24.988963999999999
 30
0.0
 11
88.064616999999984
 21
-24.987836000000001
 31
0.0
  0
LINE
  5
281
  8
DETAIL
  6
CONTINUOUS
 62
     5
 10
88.064616999999984
 20
-24.987836000000001
 30
0.0
 11
88.038892000000004
 21
-24.986751999999999
 31
0.0
  0
LINE
  5
282
  8
DETAIL
  6
CONTINUOUS
 62
     5
 10
88.038892000000004
 20
-24.986751999999999
 30
0.0
 11
88.006360999999998
 21
-24.985727000000001
 31
0.0
  0
LINE
  5
283
  8
DETAIL
  6
CONTINUOUS
 62
     5
 10
88.006360999999998
 20
-24.985727000000001
 30
0.0
 11
87.967532999999975
 21
-24.984770999999999
 31
0.0
  0
LINE
  5
284
  8
DETAIL
  6
CONTINUOUS
 62
     5
 10
88.043299000000005
 20
-25.016549999999999
 30
0.0
 11
88.060413999999994
 21
-25.007465
 31
0.0
  0
LINE
  5
285
  8
DETAIL
  6
CONTINUOUS
 62
     5
 10
88.060413999999994
 20
-25.007465
 30
0.0
 11
88.078639999999993
 21
-25.002023999999999
 31
0.0
  0
LINE
  5
286
  8
DETAIL
  6
CONTINUOUS
 62
     5
 10
88.006399000000002
 20
-25.060544
 30
0.0
 11
88.015788999999998
 21
-25.043583000000002
 31
0.0
  0
LINE
  5
287
  8
DETAIL
  6
CONTINUOUS
 62
     5
 10
88.015788999999998
 20
-25.043583000000002
 30
0.0
 11
88.028192000000004
 21
-25.028687999999999
 31
0.0
  0
LINE
  5
288
  8
DETAIL
  6
CONTINUOUS
 62
     5
 10
88.028192000000004
 20
-25.028687999999999
 30
0.0
 11
88.043299000000005
 21
-25.016549999999999
 31
0.0
  0
LINE
  5
289
  8
DETAIL
  6
CONTINUOUS
 62
     5
 10
88.006546999999998
 20
-25.051818999999998
 30
0.0
 11
88.015889999999985
 21
-25.034835999999999
 31
0.0
  0
LINE
  5
28A
  8
DETAIL
  6
CONTINUOUS
 62
     5
 10
88.015889999999985
 20
-25.034835999999999
 30
0.0
 11
88.028334999999998
 21
-25.019974000000001
 31
0.0
  0
LINE
  5
28B
  8
DETAIL
  6
CONTINUOUS
 62
     5
 10
88.028334999999998
 20
-25.019974000000001
 30
0.0
 11
88.043413999999999
 21
-25.007791999999998
 31
0.0
  0
LINE
  5
28C
  8
DETAIL
  6
CONTINUOUS
 62
     5
 10
88.043413999999999
 20
-25.007791999999998
 30
0.0
 11
88.060560999999993
 21
-24.99874800000001
 31
0.0
  0
LINE
  5
28D
  8
DETAIL
  6
CONTINUOUS
 62
     5
 10
88.060560999999993
 20
-24.99874800000001
 30
0.0
 11
88.079131000000004
 21
-24.993182000000001
 31
0.0
  0
LINE
  5
28E
  8
DETAIL
  6
CONTINUOUS
 62
     5
 10
88.079131000000004
 20
-24.993182000000001
 30
0.0
 11
88.098426000000003
 21
-24.991302999999998
 31
0.0
  0
LINE
  5
28F
  8
DETAIL
  6
CONTINUOUS
 62
     5
 10
89.567437999999996
 20
-24.553915
 30
0.0
 11
89.566586000000001
 21
-24.582664999999999
 31
0.0
  0
LINE
  5
290
  8
DETAIL
  6
CONTINUOUS
 62
     5
 10
89.566586000000001
 20
-24.582664999999999
 30
0.0
 11
89.564260999999988
 21
-24.601344000000001
 31
0.0
  0
LINE
  5
291
  8
DETAIL
  6
CONTINUOUS
 62
     5
 10
89.564260999999988
 20
-24.601344000000001
 30
0.0
 11
89.559953000000007
 21
-24.617176000000001
 31
0.0
  0
LINE
  5
292
  8
DETAIL
  6
CONTINUOUS
 62
     5
 10
89.559953000000007
 20
-24.617176000000001
 30
0.0
 11
89.554643999999996
 21
-24.637806999999999
 31
0.0
  0
LINE
  5
293
  8
DETAIL
  6
CONTINUOUS
 62
     5
 10
89.554643999999996
 20
-24.637806999999999
 30
0.0
 11
89.548162000000005
 21
-24.659597000000002
 31
0.0
  0
LINE
  5
294
  8
DETAIL
  6
CONTINUOUS
 62
     5
 10
89.548162000000005
 20
-24.659597000000002
 30
0.0
 11
89.540413999999984
 21
-24.681422999999999
 31
0.0
  0
LINE
  5
295
  8
DETAIL
  6
CONTINUOUS
 62
     5
 10
89.540413999999984
 20
-24.681422999999999
 30
0.0
 11
89.531447000000014
 21
-24.703382000000001
 31
0.0
  0
LINE
  5
296
  8
DETAIL
  6
CONTINUOUS
 62
     5
 10
89.531447000000014
 20
-24.703382000000001
 30
0.0
 11
89.521224000000004
 21
-24.725216
 31
0.0
  0
LINE
  5
297
  8
DETAIL
  6
CONTINUOUS
 62
     5
 10
89.521224000000004
 20
-24.725216
 30
0.0
 11
89.509750999999994
 21
-24.746869
 31
0.0
  0
LINE
  5
298
  8
DETAIL
  6
CONTINUOUS
 62
     5
 10
89.509750999999994
 20
-24.746869
 30
0.0
 11
89.497007999999994
 21
-24.768222999999999
 31
0.0
  0
LINE
  5
299
  8
DETAIL
  6
CONTINUOUS
 62
     5
 10
89.497007999999994
 20
-24.768222999999999
 30
0.0
 11
89.482984999999985
 21
-24.789209
 31
0.0
  0
LINE
  5
29A
  8
DETAIL
  6
CONTINUOUS
 62
     5
 10
89.482984999999985
 20
-24.789209
 30
0.0
 11
89.467666000000008
 21
-24.809747000000002
 31
0.0
  0
LINE
  5
29B
  8
DETAIL
  6
CONTINUOUS
 62
     5
 10
89.467666000000008
 20
-24.809747000000002
 30
0.0
 11
89.451031999999998
 21
-24.829761999999999
 31
0.0
  0
LINE
  5
29C
  8
DETAIL
  6
CONTINUOUS
 62
     5
 10
89.451031999999998
 20
-24.829761999999999
 30
0.0
 11
89.433068000000006
 21
-24.849183
 31
0.0
  0
LINE
  5
29D
  8
DETAIL
  6
CONTINUOUS
 62
     5
 10
89.433068000000006
 20
-24.849183
 30
0.0
 11
89.413749999999979
 21
-24.867927000000002
 31
0.0
  0
LINE
  5
29E
  8
DETAIL
  6
CONTINUOUS
 62
     5
 10
89.413749999999979
 20
-24.867927000000002
 30
0.0
 11
89.393058999999994
 21
-24.885918
 31
0.0
  0
LINE
  5
29F
  8
DETAIL
  6
CONTINUOUS
 62
     5
 10
89.393058999999994
 20
-24.885918
 30
0.0
 11
89.370968999999974
 21
-24.903057
 31
0.0
  0
LINE
  5
2A0
  8
DETAIL
  6
CONTINUOUS
 62
     5
 10
89.370968999999974
 20
-24.903057
 30
0.0
 11
89.347461999999993
 21
-24.919260999999999
 31
0.0
  0
LINE
  5
2A1
  8
DETAIL
  6
CONTINUOUS
 62
     5
 10
89.347461999999993
 20
-24.919260999999999
 30
0.0
 11
89.322512000000003
 21
-24.934405999999999
 31
0.0
  0
LINE
  5
2A2
  8
DETAIL
  6
CONTINUOUS
 62
     5
 10
89.322512000000003
 20
-24.934405999999999
 30
0.0
 11
89.296099999999996
 21
-24.948391999999998
 31
0.0
  0
LINE
  5
2A3
  8
DETAIL
  6
CONTINUOUS
 62
     5
 10
89.296099999999996
 20
-24.948391999999998
 30
0.0
 11
89.268221999999994
 21
-24.961061000000001
 31
0.0
  0
LINE
  5
2A4
  8
DETAIL
  6
CONTINUOUS
 62
     5
 10
89.268221999999994
 20
-24.961061000000001
 30
0.0
 11
89.238869999999977
 21
-24.972287000000001
 31
0.0
  0
LINE
  5
2A5
  8
DETAIL
  6
CONTINUOUS
 62
     5
 10
89.238869999999977
 20
-24.972287000000001
 30
0.0
 11
89.20809100000001
 21
-24.98188
 31
0.0
  0
LINE
  5
2A6
  8
DETAIL
  6
CONTINUOUS
 62
     5
 10
89.20809100000001
 20
-24.98188
 30
0.0
 11
89.175930000000008
 21
-24.989674000000001
 31
0.0
  0
LINE
  5
2A7
  8
DETAIL
  6
CONTINUOUS
 62
     5
 10
89.175930000000008
 20
-24.989674000000001
 30
0.0
 11
89.142490000000009
 21
-24.995470999999998
 31
0.0
  0
LINE
  5
2A8
  8
DETAIL
  6
CONTINUOUS
 62
     5
 10
89.142490000000009
 20
-24.995470999999998
 30
0.0
 11
89.107881000000006
 21
-24.998989999999999
 31
0.0
  0
LINE
  5
2A9
  8
DETAIL
  6
CONTINUOUS
 62
     5
 10
89.107881000000006
 20
-24.998989999999999
 30
0.0
 11
89.072256000000024
 21
-25.000321
 31
0.0
  0
LINE
  5
2AA
  8
DETAIL
  6
CONTINUOUS
 62
     5
 10
88.098274000000004
 20
-25.000029000000001
 30
0.0
 11
88.098426000000003
 21
-24.991302999999998
 31
0.0
  0
LINE
  5
2AB
  8
DETAIL
  6
CONTINUOUS
 62
     5
 10
87.998288999999986
 20
-25.098299999999998
 30
0.0
 11
88.000633999999991
 21
-25.078685
 31
0.0
  0
LINE
  5
2AC
  8
DETAIL
  6
CONTINUOUS
 62
     5
 10
88.000633999999991
 20
-25.078685
 30
0.0
 11
88.006546999999998
 21
-25.051818999999998
 31
0.0
  0
LINE
  5
2AD
  8
DETAIL
  6
CONTINUOUS
 62
     5
 10
87.998440999999985
 20
-25.089542000000002
 30
0.0
 11
88.00065699999999
 21
-25.070285999999999
 31
0.0
  0
ARC
  5
2AE
  8
DETAIL
  6
CONTINUOUS
 62
     5
 10
82.514700000000005
 20
-47.480897999999989
 30
0.0
 40
1.0
 50
270.0
 51
0.0
  0
ARC
  5
2AF
  8
DETAIL
  6
CONTINUOUS
 62
     5
 10
88.995350999999985
 20
-57.242635999999997
 30
0.0
 40
1.0
 50
0.9999249999999998
 51
73.300507999999994
  0
LINE
  5
2B0
  8
DETAIL
  6
CONTINUOUS
 62
     5
 10
90.0
 20
-57.5
 30
0.0
 11
89.995203000000004
 21
-57.225184999999989
 31
0.0
  0
LINE
  5
2B1
  8
DETAIL
  6
CONTINUOUS
 62
     5
 10
89.500000000000014
 20
-58.0
 30
0.0
 11
89.491271999999995
 21
-57.5
 31
0.0
  0
LINE
  5
2B2
  8
DETAIL
  6
CONTINUOUS
 62
     5
 10
88.500151999999986
 20
-58.0
 30
0.0
 11
88.491425000000007
 21
-57.5
 31
0.0
  0
LINE
  5
2B3
  8
DETAIL
  6
CONTINUOUS
 62
     5
 10
80.0
 20
-53.5
 30
0.0
 11
89.282702999999984
 21
-56.284810999999998
 31
0.0
  0
ARC
  5
2B4
  8
DETAIL
  6
CONTINUOUS
 62
     5
 10
89.960255000000004
 20
-60.658641000000003
 30
0.0
 40
0.3
 50
270.0
 51
357.0
  0
ARC
  5
2B5
  8
DETAIL
  6
CONTINUOUS
 62
     5
 10
89.964398000000003
 20
-60.579591999999998
 30
0.0
 40
0.3
 50
270.0
 51
357.0
  0
ARC
  5
2B6
  8
DETAIL
  6
CONTINUOUS
 62
     5
 10
89.968643999999983
 20
-60.498564000000002
 30
0.0
 40
0.3
 50
270.0
 51
357.0
  0
ARC
  5
2B7
  8
DETAIL
  6
CONTINUOUS
 62
     5
 10
89.972964000000005
 20
-60.416144999999993
 30
0.0
 40
0.3
 50
270.0
 51
357.0
  0
LINE
  5
2B8
  8
DETAIL
  6
CONTINUOUS
 62
     5
 10
89.838129000000009
 20
-60.949618000000001
 30
0.0
 11
89.837149999999994
 21
-60.956401999999997
 31
0.0
  0
LINE
  5
2B9
  8
DETAIL
  6
CONTINUOUS
 62
     5
 10
89.839928000000015
 20
-60.938192999999998
 30
0.0
 11
89.838129000000009
 21
-60.949618000000001
 31
0.0
  0
LINE
  5
2BA
  8
DETAIL
  6
CONTINUOUS
 62
     5
 10
89.842247
 20
-60.9223
 30
0.0
 11
89.839928000000015
 21
-60.938192999999998
 31
0.0
  0
LINE
  5
2BB
  8
DETAIL
  6
CONTINUOUS
 62
     5
 10
89.844929000000008
 20
-60.902344999999997
 30
0.0
 11
89.842247
 21
-60.9223
 31
0.0
  0
LINE
  5
2BC
  8
DETAIL
  6
CONTINUOUS
 62
     5
 10
89.847549000000001
 20
-60.879592000000002
 30
0.0
 11
89.844929000000008
 21
-60.902344999999997
 31
0.0
  0
LINE
  5
2BD
  8
DETAIL
  6
CONTINUOUS
 62
     5
 10
89.860831999999988
 20
-60.539368000000003
 30
0.0
 11
89.871778000000006
 21
-60.444678000000003
 31
0.0
  0
LINE
  5
2BE
  8
DETAIL
  6
CONTINUOUS
 62
     5
 10
89.841055000000011
 20
-60.877313000000001
 30
0.0
 11
89.840790999999996
 21
-60.879592000000002
 31
0.0
  0
LINE
  5
2BF
  8
DETAIL
  6
CONTINUOUS
 62
     5
 10
89.842058999999992
 20
-60.87041
 30
0.0
 11
89.841055000000011
 21
-60.877313000000001
 31
0.0
  0
LINE
  5
2C0
  8
DETAIL
  6
CONTINUOUS
 62
     5
 10
89.843905000000007
 20
-60.858787
 30
0.0
 11
89.842058999999992
 21
-60.87041
 31
0.0
  0
LINE
  5
2C1
  8
DETAIL
  6
CONTINUOUS
 62
     5
 10
89.846283999999997
 20
-60.842624000000001
 30
0.0
 11
89.843905000000007
 21
-60.858787
 31
0.0
  0
LINE
  5
2C2
  8
DETAIL
  6
CONTINUOUS
 62
     5
 10
89.849032999999991
 20
-60.822338000000002
 30
0.0
 11
89.846283999999997
 21
-60.842624000000001
 31
0.0
  0
LINE
  5
2C3
  8
DETAIL
  6
CONTINUOUS
 62
     5
 10
89.851792000000003
 20
-60.798563999999999
 30
0.0
 11
89.849032999999991
 21
-60.822338000000002
 31
0.0
  0
LINE
  5
2C4
  8
DETAIL
  6
CONTINUOUS
 62
     5
 10
89.837149999999994
 20
-60.956401999999997
 30
0.0
 11
89.836888999999999
 21
-60.958641
 31
0.0
  0
LINE
  5
2C5
  8
DETAIL
  6
CONTINUOUS
 62
     5
 10
89.847976999999986
 20
-60.777391999999999
 30
0.0
 11
89.846081999999996
 21
-60.789219000000003
 31
0.0
  0
LINE
  5
2C6
  8
DETAIL
  6
CONTINUOUS
 62
     5
 10
89.850418999999974
 20
-60.76095200000001
 30
0.0
 11
89.847976999999986
 21
-60.777391999999999
 31
0.0
  0
LINE
  5
2C7
  8
DETAIL
  6
CONTINUOUS
 62
     5
 10
89.853239000000002
 20
-60.740327000000001
 30
0.0
 11
89.850418999999974
 21
-60.76095200000001
 31
0.0
  0
LINE
  5
2C8
  8
DETAIL
  6
CONTINUOUS
 62
     5
 10
89.85606700000001
 20
-60.71614499999999
 30
0.0
 11
89.853239000000002
 21
-60.740327000000001
 31
0.0
  0
LINE
  5
2C9
  8
DETAIL
  6
CONTINUOUS
 62
     5
 10
89.846081999999996
 20
-60.789219000000003
 30
0.0
 11
89.844785999999999
 21
-60.798563999999999
 31
0.0
  0
LINE
  5
2CA
  8
DETAIL
  6
CONTINUOUS
 62
     5
 10
90.259844000000001
 20
-60.674340999999998
 30
0.0
 11
90.400000000000006
 21
-58.0
 31
0.0
  0
LINE
  5
2CB
  8
DETAIL
  6
CONTINUOUS
 62
     5
 10
89.872594999999976
 20
-60.431027
 30
0.0
 11
90.0
 21
-58.0
 31
0.0
  0
LINE
  5
2CC
  8
DETAIL
  6
CONTINUOUS
 62
     5
 10
89.865137000000004
 20
-60.573343000000001
 30
0.0
 11
89.871880000000004
 21
-60.444682999999998
 31
0.0
  0
LINE
  5
2CD
  8
DETAIL
  6
CONTINUOUS
 62
     5
 10
89.871797000000001
 20
-60.444679000000001
 30
0.0
 11
89.872594999999976
 21
-60.431027
 31
0.0
  0
LINE
  5
2CE
  8
DETAIL
  6
CONTINUOUS
 62
     5
 10
89.849117000000007
 20
-60.713783999999997
 30
0.0
 11
89.848844999999983
 21
-60.71614499999999
 31
0.0
  0
LINE
  5
2CF
  8
DETAIL
  6
CONTINUOUS
 62
     5
 10
89.850169999999991
 20
-60.706632999999989
 30
0.0
 11
89.849117000000007
 21
-60.713783999999997
 31
0.0
  0
LINE
  5
2D0
  8
DETAIL
  6
CONTINUOUS
 62
     5
 10
89.852116000000009
 20
-60.694597999999999
 30
0.0
 11
89.850169999999991
 21
-60.706632999999989
 31
0.0
  0
LINE
  5
2D1
  8
DETAIL
  6
CONTINUOUS
 62
     5
 10
89.854623000000004
 20
-60.677875999999991
 30
0.0
 11
89.852116000000009
 21
-60.694597999999999
 31
0.0
  0
LINE
  5
2D2
  8
DETAIL
  6
CONTINUOUS
 62
     5
 10
89.857515000000006
 20
-60.656907999999987
 30
0.0
 11
89.854623000000004
 21
-60.677875999999991
 31
0.0
  0
LINE
  5
2D3
  8
DETAIL
  6
CONTINUOUS
 62
     5
 10
89.860437000000005
 20
-60.632117000000001
 30
0.0
 11
89.857515000000006
 21
-60.656907999999987
 31
0.0
  0
LINE
  5
2D4
  8
DETAIL
  6
CONTINUOUS
 62
     5
 10
89.862926000000002
 20
-60.604094999999987
 30
0.0
 11
89.860437000000005
 21
-60.632117000000001
 31
0.0
  0
LINE
  5
2D5
  8
DETAIL
  6
CONTINUOUS
 62
     5
 10
89.865137000000004
 20
-60.573343000000001
 30
0.0
 11
89.862926000000002
 21
-60.604094999999987
 31
0.0
  0
LINE
  5
2D6
  8
DETAIL
  6
CONTINUOUS
 62
     5
 10
89.84066700000001
 20
-60.632964000000001
 30
0.0
 11
89.860831999999988
 21
-60.539368000000003
 31
0.0
  0
LINE
  5
2D7
  8
DETAIL
  6
CONTINUOUS
 62
     5
 10
89.811325999999994
 20
-60.724541000000002
 30
0.0
 11
89.84066700000001
 21
-60.632964000000001
 31
0.0
  0
LINE
  5
2D8
  8
DETAIL
  6
CONTINUOUS
 62
     5
 10
89.772929000000005
 20
-60.813225000000003
 30
0.0
 11
89.811325999999994
 21
-60.724541000000002
 31
0.0
  0
LINE
  5
2D9
  8
DETAIL
  6
CONTINUOUS
 62
     5
 10
89.725674999999995
 20
-60.898132999999987
 30
0.0
 11
89.772929000000005
 21
-60.813225000000003
 31
0.0
  0
LINE
  5
2DA
  8
DETAIL
  6
CONTINUOUS
 62
     5
 10
89.669877999999997
 20
-60.978352999999998
 30
0.0
 11
89.725674999999995
 21
-60.898132999999987
 31
0.0
  0
LINE
  5
2DB
  8
DETAIL
  6
CONTINUOUS
 62
     5
 10
89.605885999999984
 20
-61.053060999999992
 30
0.0
 11
89.669877999999997
 21
-60.978352999999998
 31
0.0
  0
LINE
  5
2DC
  8
DETAIL
  6
CONTINUOUS
 62
     5
 10
89.534386999999995
 20
-61.121223999999998
 30
0.0
 11
89.605885999999984
 21
-61.053060999999992
 31
0.0
  0
LINE
  5
2DD
  8
DETAIL
  6
CONTINUOUS
 62
     5
 10
89.456152000000003
 20
-61.181992999999999
 30
0.0
 11
89.534386999999995
 21
-61.121223999999998
 31
0.0
  0
LINE
  5
2DE
  8
DETAIL
  6
CONTINUOUS
 62
     5
 10
89.37212199999999
 20
-61.234593999999987
 30
0.0
 11
89.456152000000003
 21
-61.181992999999999
 31
0.0
  0
LINE
  5
2DF
  8
DETAIL
  6
CONTINUOUS
 62
     5
 10
89.283428000000015
 20
-61.278379999999999
 30
0.0
 11
89.37212199999999
 21
-61.234593999999987
 31
0.0
  0
LINE
  5
2E0
  8
DETAIL
  6
CONTINUOUS
 62
     5
 10
89.190898000000004
 20
-61.313020999999999
 30
0.0
 11
89.283428000000015
 21
-61.278379999999999
 31
0.0
  0
LINE
  5
2E1
  8
DETAIL
  6
CONTINUOUS
 62
     5
 10
89.960255000000004
 20
-60.958641
 30
0.0
 11
89.836888999999999
 21
-60.958641
 31
0.0
  0
LINE
  5
2E2
  8
DETAIL
  6
CONTINUOUS
 62
     5
 10
89.964398000000003
 20
-60.879592000000002
 30
0.0
 11
89.840790999999996
 21
-60.879592000000002
 31
0.0
  0
LINE
  5
2E3
  8
DETAIL
  6
CONTINUOUS
 62
     5
 10
89.968643999999983
 20
-60.798563999999999
 30
0.0
 11
89.844785999999999
 21
-60.798563999999999
 31
0.0
  0
LINE
  5
2E4
  8
DETAIL
  6
CONTINUOUS
 62
     5
 10
89.972964000000005
 20
-60.71614499999999
 30
0.0
 11
89.848844999999983
 21
-60.71614499999999
 31
0.0
  0
ARC
  5
2E5
  8
DETAIL
  6
CONTINUOUS
 62
     5
 10
89.017514000000006
 20
-53.700000000000003
 30
0.0
 40
0.3
 50
270.0
 51
359.5
  0
LINE
  5
2E6
  8
DETAIL
  6
CONTINUOUS
 62
     5
 10
88.819252000000006
 20
-54.0
 30
0.0
 11
88.820359999999994
 21
-53.995804999999997
 31
0.0
  0
LINE
  5
2E7
  8
DETAIL
  6
CONTINUOUS
 62
     5
 10
87.502531000000005
 20
-54.0
 30
0.0
 11
89.017514000000006
 21
-54.0
 31
0.0
  0
LINE
  5
2E8
  8
DETAIL
  6
CONTINUOUS
 62
     5
 10
77.949377999999996
 20
-52.484408999999999
 30
0.0
 11
78.000478999999999
 21
-52.5
 31
0.0
  0
LINE
  5
2E9
  8
DETAIL
  6
CONTINUOUS
 62
     5
 10
77.900425999999996
 20
-52.468977000000002
 30
0.0
 11
77.949377999999996
 21
-52.484408999999999
 31
0.0
  0
LINE
  5
2EA
  8
DETAIL
  6
CONTINUOUS
 62
     5
 10
77.853651999999997
 20
-52.453709000000003
 30
0.0
 11
77.900425999999996
 21
-52.468977000000002
 31
0.0
  0
LINE
  5
2EB
  8
DETAIL
  6
CONTINUOUS
 62
     5
 10
86.846988999999994
 20
-55.15408
 30
0.0
 11
78.000478999999999
 21
-52.5
 31
0.0
  0
LINE
  5
2EC
  8
DETAIL
  6
CONTINUOUS
 62
     5
 10
77.808967999999993
 20
-52.438592000000007
 30
0.0
 11
77.853651999999997
 21
-52.453709000000003
 31
0.0
  0
LINE
  5
2ED
  8
DETAIL
  6
CONTINUOUS
 62
     5
 10
77.766308999999993
 20
-52.423619999999993
 30
0.0
 11
77.808967999999993
 21
-52.438592000000007
 31
0.0
  0
LINE
  5
2EE
  8
DETAIL
  6
CONTINUOUS
 62
     5
 10
77.725631000000007
 20
-52.408780999999991
 30
0.0
 11
77.766308999999993
 21
-52.423619999999993
 31
0.0
  0
LINE
  5
2EF
  8
DETAIL
  6
CONTINUOUS
 62
     5
 10
77.686875999999984
 20
-52.394065000000012
 30
0.0
 11
77.725631000000007
 21
-52.408780999999991
 31
0.0
  0
LINE
  5
2F0
  8
DETAIL
  6
CONTINUOUS
 62
     5
 10
77.650013999999999
 20
-52.379458
 30
0.0
 11
77.686875999999984
 21
-52.394065000000012
 31
0.0
  0
LINE
  5
2F1
  8
DETAIL
  6
CONTINUOUS
 62
     5
 10
77.614998
 20
-52.364949000000003
 30
0.0
 11
77.650013999999999
 21
-52.379458
 31
0.0
  0
LINE
  5
2F2
  8
DETAIL
  6
CONTINUOUS
 62
     5
 10
77.581814000000008
 20
-52.350520000000003
 30
0.0
 11
77.614998
 21
-52.364949000000003
 31
0.0
  0
LINE
  5
2F3
  8
DETAIL
  6
CONTINUOUS
 62
     5
 10
77.550433999999996
 20
-52.33616099999999
 30
0.0
 11
77.581814000000008
 21
-52.350520000000003
 31
0.0
  0
LINE
  5
2F4
  8
DETAIL
  6
CONTINUOUS
 62
     5
 10
77.520855000000012
 20
-52.321845000000003
 30
0.0
 11
77.550433999999996
 21
-52.33616099999999
 31
0.0
  0
LINE
  5
2F5
  8
DETAIL
  6
CONTINUOUS
 62
     5
 10
77.493049999999997
 20
-52.307549000000002
 30
0.0
 11
77.520855000000012
 21
-52.321845000000003
 31
0.0
  0
LINE
  5
2F6
  8
DETAIL
  6
CONTINUOUS
 62
     5
 10
77.467057999999994
 20
-52.293244999999999
 30
0.0
 11
77.493049999999997
 21
-52.307549000000002
 31
0.0
  0
LINE
  5
2F7
  8
DETAIL
  6
CONTINUOUS
 62
     5
 10
77.442875000000001
 20
-52.278905999999999
 30
0.0
 11
77.467057999999994
 21
-52.293244999999999
 31
0.0
  0
LINE
  5
2F8
  8
DETAIL
  6
CONTINUOUS
 62
     5
 10
77.420604999999995
 20
-52.264502
 30
0.0
 11
77.442875000000001
 21
-52.278905999999999
 31
0.0
  0
LINE
  5
2F9
  8
DETAIL
  6
CONTINUOUS
 62
     5
 10
77.400284999999997
 20
-52.250002000000002
 30
0.0
 11
77.420604999999995
 21
-52.264502
 31
0.0
  0
LINE
  5
2FA
  8
DETAIL
  6
CONTINUOUS
 62
     5
 10
77.382115999999996
 20
-52.235385999999998
 30
0.0
 11
77.400284999999997
 21
-52.250002000000002
 31
0.0
  0
LINE
  5
2FB
  8
DETAIL
  6
CONTINUOUS
 62
     5
 10
77.366193999999993
 20
-52.220604000000002
 30
0.0
 11
77.382115999999996
 21
-52.235385999999998
 31
0.0
  0
LINE
  5
2FC
  8
DETAIL
  6
CONTINUOUS
 62
     5
 10
77.352868999999998
 20
-52.205708000000001
 30
0.0
 11
77.366193999999993
 21
-52.220604000000002
 31
0.0
  0
LINE
  5
2FD
  8
DETAIL
  6
CONTINUOUS
 62
     5
 10
77.342402000000007
 20
-52.190666
 30
0.0
 11
77.352868999999998
 21
-52.205708000000001
 31
0.0
  0
LINE
  5
2FE
  8
DETAIL
  6
CONTINUOUS
 62
     5
 10
77.335152000000008
 20
-52.175679999999993
 30
0.0
 11
77.342402000000007
 21
-52.190666
 31
0.0
  0
LINE
  5
2FF
  8
DETAIL
  6
CONTINUOUS
 62
     5
 10
77.331625000000003
 20
-52.160964
 30
0.0
 11
77.335152000000008
 21
-52.175679999999993
 31
0.0
  0
LINE
  5
300
  8
DETAIL
  6
CONTINUOUS
 62
     5
 10
77.331650999999994
 20
-52.146447000000002
 30
0.0
 11
77.331625000000003
 21
-52.160964
 31
0.0
  0
ARC
  5
301
  8
DETAIL
  6
CONTINUOUS
 62
     5
 10
86.990668999999997
 20
-54.67516899999999
 30
0.0
 40
0.5
 50
253.30010300000001
 51
358.99997200000001
  0
LINE
  5
302
  8
DETAIL
  6
CONTINUOUS
 62
     5
 10
81.918328000000002
 20
-54.077916999999999
 30
0.0
 11
80.970225999999997
 21
-53.794243999999992
 31
0.0
  0
LINE
  5
303
  8
DETAIL
  6
CONTINUOUS
 62
     5
 10
86.666081000000005
 20
-55.5
 30
0.0
 11
86.666667000000004
 21
-55.5
 31
0.0
  0
LINE
  5
304
  8
DETAIL
  6
CONTINUOUS
 62
     5
 10
80.970169999999996
 20
-53.791051000000003
 30
0.0
 11
80.970225999999997
 21
-53.794243999999992
 31
0.0
  0
LINE
  5
305
  8
DETAIL
  6
CONTINUOUS
 62
     5
 10
75.153949999999995
 20
-67.948683000000003
 30
0.0
 11
89.090751999999995
 21
-63.303082999999987
 31
0.0
  0
LINE
  5
306
  8
DETAIL
  6
CONTINUOUS
 62
     5
 10
75.102555000000009
 20
-66.022924000000003
 30
0.0
 11
75.153949999999995
 21
-66.007328999999999
 31
0.0
  0
LINE
  5
307
  8
DETAIL
  6
CONTINUOUS
 62
     5
 10
75.050612000000001
 20
-66.035694999999976
 30
0.0
 11
75.102555000000009
 21
-66.022924000000003
 31
0.0
  0
LINE
  5
308
  8
DETAIL
  6
CONTINUOUS
 62
     5
 10
74.997940999999983
 20
-66.045690000000008
 30
0.0
 11
75.050612000000001
 21
-66.035694999999976
 31
0.0
  0
LINE
  5
309
  8
DETAIL
  6
CONTINUOUS
 62
     5
 10
74.944783000000001
 20
-66.052854999999994
 30
0.0
 11
74.997940999999983
 21
-66.045690000000008
 31
0.0
  0
LINE
  5
30A
  8
DETAIL
  6
CONTINUOUS
 62
     5
 10
74.891420999999994
 20
-66.057156000000006
 30
0.0
 11
74.944783000000001
 21
-66.052854999999994
 31
0.0
  0
LINE
  5
30B
  8
DETAIL
  6
CONTINUOUS
 62
     5
 10
74.837721999999999
 20
-66.058595999999994
 30
0.0
 11
74.891420999999994
 21
-66.057156000000006
 31
0.0
  0
LINE
  5
30C
  8
DETAIL
  6
CONTINUOUS
 62
     5
 10
74.837721999999999
 20
-66.058595999999994
 30
0.0
 11
74.837721999999999
 21
-68.0
 31
0.0
  0
ARC
  5
30D
  8
DETAIL
  6
CONTINUOUS
 62
     5
 10
74.837721999999999
 20
-67.0
 30
0.0
 40
1.0
 50
270.0
 51
288.43494900000002
  0
ARC
  5
30E
  8
DETAIL
  6
CONTINUOUS
 62
     5
 10
88.770349999999993
 20
-62.355791000000004
 30
0.0
 40
1.0
 50
288.43494900000002
 51
357.0
  0
LINE
  5
30F
  8
DETAIL
  6
CONTINUOUS
 62
     5
 39
49.999109999999988
 10
48.699998999999991
 20
0.000001
 30
0.0
 11
48.700000000000003
 21
65.0
 31
0.0
  0
LINE
  5
310
  8
DETAIL
  6
CONTINUOUS
 62
     5
 39
49.999109999999988
 10
-48.700001
 20
-0.000001
 30
0.0
 11
-48.700000000000003
 21
65.0
 31
0.0
  0
LINE
  5
311
  8
DETAIL
  6
CONTINUOUS
 62
     5
 10
-48.700000000000003
 20
65.0
 30
0.0
 11
48.700000000000003
 21
65.0
 31
0.0
  0
LINE
  5
312
  8
OUTLINE
  6
CONTINUOUS
 62
     3
 10
-90.0
 20
-57.5
 30
0.0
 11
-89.491271999999995
 21
-57.5
 31
0.0
  0
LINE
  5
313
  8
OUTLINE
  6
CONTINUOUS
 62
     3
 10
-90.400000000000006
 20
-58.0
 30
0.0
 11
-89.500000000000014
 21
-58.0
 31
0.0
  0
LINE
  5
314
  8
OUTLINE
  6
CONTINUOUS
 62
     3
 10
-74.837721999999999
 20
-68.0
 30
0.0
 11
74.837721999999999
 21
-68.0
 31
0.0
  0
LINE
  5
315
  8
OUTLINE
  6
CONTINUOUS
 62
     3
 10
-89.991116000000005
 20
-0.5087260000000001
 30
0.0
 11
-89.567274999999995
 21
-24.516455000000001
 31
0.0
  0
LINE
  5
316
  8
OUTLINE
  6
CONTINUOUS
 62
     3
 10
-89.491191999999998
 20
0.0
 30
0.0
 11
-21.999995999999999
 21
0.0
 31
0.0
  0
ARC
  5
317
  8
OUTLINE
  6
CONTINUOUS
 62
     3
 10
-89.491191999999998
 20
-0.5
 30
0.0
 40
0.5
 50
90.0
 51
181.0
  0
LINE
  5
318
  8
OUTLINE
  6
CONTINUOUS
 62
     3
 10
-89.768977000000007
 20
-62.408174000000002
 30
0.0
 11
-89.844924000000006
 21
-60.959029999999998
 31
0.0
  0
LINE
  5
319
  8
OUTLINE
  6
CONTINUOUS
 62
     3
 10
-89.500000000000014
 20
-58.0
 30
0.0
 11
-89.491271999999995
 21
-57.5
 31
0.0
  0
LINE
  5
31A
  8
OUTLINE
  6
CONTINUOUS
 62
     3
 10
-90.400000000000006
 20
-58.0
 30
0.0
 11
-90.259844000000001
 21
-60.674340999999998
 31
0.0
  0
ARC
  5
31B
  8
OUTLINE
  6
CONTINUOUS
 62
     3
 10
-89.960255000000004
 20
-60.658641000000003
 30
0.0
 40
0.3
 50
183.0
 51
270.0
  0
LINE
  5
31C
  8
OUTLINE
  6
CONTINUOUS
 62
     3
 10
-89.844921999999997
 20
-60.959062000000003
 30
0.0
 11
-89.960255000000004
 21
-60.958641
 31
0.0
  0
LINE
  5
31D
  8
OUTLINE
  6
CONTINUOUS
 62
     3
 10
-89.090751999999995
 20
-63.303082999999987
 30
0.0
 11
-75.153949999999995
 21
-67.948683000000003
 31
0.0
  0
ARC
  5
31E
  8
OUTLINE
  6
CONTINUOUS
 62
     3
 10
-88.770349999999993
 20
-62.355791000000004
 30
0.0
 40
1.0
 50
183.0
 51
251.56505100000001
  0
ARC
  5
31F
  8
OUTLINE
  6
CONTINUOUS
 62
     3
 10
-74.837721999999999
 20
-67.0
 30
0.0
 40
1.0
 50
251.56505100000001
 51
270.0
  0
LINE
  5
320
  8
OUTLINE
  6
CONTINUOUS
 62
     3
 10
89.991124999999997
 20
-0.5087260000000001
 30
0.0
 11
89.563627999999994
 21
-25.0
 31
0.0
  0
LINE
  5
321
  8
OUTLINE
  6
CONTINUOUS
 62
     3
 10
-21.999995999999999
 20
0.0
 30
0.0
 11
89.491201000000004
 21
0.0
 31
0.0
  0
ARC
  5
322
  8
OUTLINE
  6
CONTINUOUS
 62
     3
 10
89.491191999999998
 20
-0.5
 30
0.0
 40
0.5
 50
359.00001800000001
 51
90.0
  0
LINE
  5
323
  8
OUTLINE
  6
CONTINUOUS
 62
     3
 10
-0.03491
 20
-53.5
 30
0.0
 11
-0.034843
 21
-53.50382299999999
 31
0.0
  0
LINE
  5
324
  8
OUTLINE
  6
CONTINUOUS
 62
     3
 10
6.0348430000000004
 20
-53.50382299999999
 30
0.0
 11
6.0349099999999991
 21
-53.5
 31
0.0
  0
LINE
  5
325
  8
OUTLINE
  6
CONTINUOUS
 62
     3
 10
89.768977000000007
 20
-62.408174000000002
 30
0.0
 11
89.844943999999998
 21
-60.958641
 31
0.0
  0
LINE
  5
326
  8
OUTLINE
  6
CONTINUOUS
 62
     3
 10
75.650000000000006
 20
-53.5
 30
0.0
 11
75.400000000000006
 21
-53.0
 31
0.0
  0
LINE
  5
327
  8
OUTLINE
  6
CONTINUOUS
 62
     3
 10
89.567836999999997
 20
-24.517703000000001
 30
0.0
 11
89.317503000000002
 21
-53.702618000000008
 31
0.0
  0
ARC
  5
328
  8
OUTLINE
  6
CONTINUOUS
 62
     3
 10
88.995350999999985
 20
-57.242635999999997
 30
0.0
 40
1.0
 50
0.9999249999999998
 51
73.300507999999994
  0
LINE
  5
329
  8
OUTLINE
  6
CONTINUOUS
 62
     3
 10
90.0
 20
-57.5
 30
0.0
 11
89.995203000000004
 21
-57.225184999999989
 31
0.0
  0
LINE
  5
32A
  8
OUTLINE
  6
CONTINUOUS
 62
     3
 10
89.500000000000014
 20
-58.0
 30
0.0
 11
89.491271999999995
 21
-57.5
 31
0.0
  0
LINE
  5
32B
  8
OUTLINE
  6
CONTINUOUS
 62
     3
 10
80.0
 20
-53.5
 30
0.0
 11
89.282702999999984
 21
-56.284810999999998
 31
0.0
  0
ARC
  5
32C
  8
OUTLINE
  6
CONTINUOUS
 62
     3
 10
89.960255000000004
 20
-60.658641000000003
 30
0.0
 40
0.3
 50
270.0
 51
357.0
  0
LINE
  5
32D
  8
OUTLINE
  6
CONTINUOUS
 62
     3
 10
90.259844000000001
 20
-60.674340999999998
 30
0.0
 11
90.400000000000006
 21
-58.0
 31
0.0
  0
LINE
  5
32E
  8
OUTLINE
  6
CONTINUOUS
 62
     3
 10
89.960255000000004
 20
-60.958641
 30
0.0
 11
89.844943999999998
 21
-60.958641
 31
0.0
  0
ARC
  5
32F
  8
OUTLINE
  6
CONTINUOUS
 62
     3
 10
89.017514000000006
 20
-53.700000000000003
 30
0.0
 40
0.3
 50
270.0
 51
359.5
  0
LINE
  5
330
  8
OUTLINE
  6
CONTINUOUS
 62
     3
 10
88.819252000000006
 20
-54.0
 30
0.0
 11
88.820359999999994
 21
-53.995804999999997
 31
0.0
  0
LINE
  5
331
  8
OUTLINE
  6
CONTINUOUS
 62
     3
 10
87.502531000000005
 20
-54.0
 30
0.0
 11
89.017514000000006
 21
-54.0
 31
0.0
  0
LINE
  5
332
  8
OUTLINE
  6
CONTINUOUS
 62
     3
 10
86.846988999999994
 20
-55.15408
 30
0.0
 11
79.667066000000005
 21
-53.0
 31
0.0
  0
ARC
  5
333
  8
OUTLINE
  6
CONTINUOUS
 62
     3
 10
86.990668999999997
 20
-54.67516899999999
 30
0.0
 40
0.5
 50
253.30010300000001
 51
358.99997200000001
  0
LINE
  5
334
  8
OUTLINE
  6
CONTINUOUS
 62
     3
 10
81.918328000000002
 20
-54.077916999999999
 30
0.0
 11
80.970225999999997
 21
-53.794243999999992
 31
0.0
  0
LINE
  5
335
  8
OUTLINE
  6
CONTINUOUS
 62
     3
 10
86.666081000000005
 20
-55.5
 30
0.0
 11
86.666667000000004
 21
-55.5
 31
0.0
  0
LINE
  5
336
  8
OUTLINE
  6
CONTINUOUS
 62
     3
 10
80.970169999999996
 20
-53.791051000000003
 30
0.0
 11
80.970225999999997
 21
-53.794243999999992
 31
0.0
  0
LINE
  5
337
  8
OUTLINE
  6
CONTINUOUS
 62
     3
 10
75.153949999999995
 20
-67.948683000000003
 30
0.0
 11
89.090751999999995
 21
-63.303082999999987
 31
0.0
  0
ARC
  5
338
  8
OUTLINE
  6
CONTINUOUS
 62
     3
 10
74.837721999999999
 20
-67.0
 30
0.0
 40
1.0
 50
270.0
 51
288.43494900000002
  0
ARC
  5
339
  8
OUTLINE
  6
CONTINUOUS
 62
     3
 10
88.770349999999993
 20
-62.355791000000004
 30
0.0
 40
1.0
 50
288.43494900000002
 51
357.0
  0
LINE
  5
33A
  8
OUTLINE
  6
CONTINUOUS
 62
     3
 39
49.999109999999988
 10
48.699998999999991
 20
0.000001
 30
0.0
 11
48.700000000000003
 21
65.0
 31
0.0
  0
LINE
  5
33B
  8
OUTLINE
  6
CONTINUOUS
 62
     3
 39
49.999109999999988
 10
-48.700001
 20
-0.000001
 30
0.0
 11
-48.700000000000003
 21
65.0
 31
0.0
  0
LINE
  5
33C
  8
OUTLINE
  6
CONTINUOUS
 62
     3
 10
-48.700000000000003
 20
65.0
 30
0.0
 11
48.700000000000003
 21
65.0
 31
0.0
  0
LINE
  5
33D
  8
OUTLINE
  6
CONTINUOUS
 62
     3
 10
89.500000000000014
 20
-58.0
 30
0.0
 11
90.400000000000006
 21
-58.0
 31
0.0
  0
LINE
  5
33E
  8
OUTLINE
  6
CONTINUOUS
 62
     3
 10
75.650000000000006
 20
-53.5
 30
0.0
 11
80.0
 21
-53.5
 31
0.0
  0
LINE
  5
33F
  8
OUTLINE
  6
CONTINUOUS
 62
     3
 10
75.400000000000006
 20
-53.0
 30
0.0
 11
79.667066000000005
 21
-53.0
 31
0.0
  0
LINE
  5
340
  8
OUTLINE
  6
CONTINUOUS
 62
     3
 39
50.0
 10
87.490592000000007
 20
-54.683894999999993
 30
0.0
 11
87.502531000000005
 21
-54.0
 31
0.0
  0
LINE
  5
341
  8
OUTLINE
  6
CONTINUOUS
 62
     3
 10
-75.650008999999997
 20
-53.5
 30
0.0
 11
-75.400008999999983
 21
-53.0
 31
0.0
  0
LINE
  5
342
  8
OUTLINE
  6
CONTINUOUS
 62
     3
 10
-89.567836999999997
 20
-24.517703000000001
 30
0.0
 11
-89.317511999999994
 21
-53.702618000000008
 31
0.0
  0
ARC
  5
343
  8
OUTLINE
  6
CONTINUOUS
 62
     3
 10
-88.995359999999991
 20
-57.242635999999997
 30
0.0
 40
1.0
 50
106.69949199999991
 51
179.00007500000001
  0
LINE
  5
344
  8
OUTLINE
  6
CONTINUOUS
 62
     3
 10
-90.000008999999991
 20
-57.5
 30
0.0
 11
-89.995211999999995
 21
-57.225184999999989
 31
0.0
  0
LINE
  5
345
  8
OUTLINE
  6
CONTINUOUS
 62
     3
 10
-80.000008999999991
 20
-53.5
 30
0.0
 11
-89.282712000000004
 21
-56.284810999999998
 31
0.0
  0
ARC
  5
346
  8
OUTLINE
  6
CONTINUOUS
 62
     3
 10
-89.017522999999997
 20
-53.700000000000003
 30
0.0
 40
0.3
 50
180.5
 51
270.0
  0
LINE
  5
347
  8
OUTLINE
  6
CONTINUOUS
 62
     3
 10
-88.819260999999983
 20
-54.0
 30
0.0
 11
-88.820369000000014
 21
-53.995804999999997
 31
0.0
  0
LINE
  5
348
  8
OUTLINE
  6
CONTINUOUS
 62
     3
 10
-87.502538999999999
 20
-54.0
 30
0.0
 11
-89.017522999999997
 21
-54.0
 31
0.0
  0
LINE
  5
349
  8
OUTLINE
  6
CONTINUOUS
 62
     3
 10
-86.846997999999999
 20
-55.15408
 30
0.0
 11
-79.667074999999997
 21
-53.0
 31
0.0
  0
ARC
  5
34A
  8
OUTLINE
  6
CONTINUOUS
 62
     3
 10
-86.990677000000005
 20
-54.67516899999999
 30
0.0
 40
0.5
 50
181.00002799999999
 51
286.69989700000002
  0
LINE
  5
34B
  8
OUTLINE
  6
CONTINUOUS
 62
     3
 10
-81.918335999999996
 20
-54.077916999999999
 30
0.0
 11
-80.970235000000002
 21
-53.794243999999992
 31
0.0
  0
LINE
  5
34C
  8
OUTLINE
  6
CONTINUOUS
 62
     3
 10
-86.666089999999997
 20
-55.5
 30
0.0
 11
-86.666675999999995
 21
-55.5
 31
0.0
  0
LINE
  5
34D
  8
OUTLINE
  6
CONTINUOUS
 62
     3
 10
-80.970179000000002
 20
-53.791051000000003
 30
0.0
 11
-80.970235000000002
 21
-53.794243999999992
 31
0.0
  0
LINE
  5
34E
  8
OUTLINE
  6
CONTINUOUS
 62
     3
 10
-75.650008999999997
 20
-53.5
 30
0.0
 11
-80.000008999999991
 21
-53.5
 31
0.0
  0
LINE
  5
34F
  8
OUTLINE
  6
CONTINUOUS
 62
     3
 10
-75.400008999999983
 20
-53.0
 30
0.0
 11
-79.667074999999997
 21
-53.0
 31
0.0
  0
LINE
  5
350
  8
OUTLINE
  6
CONTINUOUS
 62
     3
 39
50.0
 10
-87.490600999999984
 20
-54.683894999999993
 30
0.0
 11
-87.502538999999999
 21
-54.0
 31
0.0
  0
LINE
  5
351
  8
OUTLINE
  6
CONTINUOUS
 62
     3
 10
89.490876
 20
-57.5
 30
0.0
 11
90.0
 21
-57.5
 31
0.0
  0
LINE
  5
352
  8
NOTE
  6
CONTINUOUS
 62
     4
 10
62.0
 20
-20.0
 30
0.0
 11
62.0
 21
20.0
 31
0.0
  0
LINE
  5
353
  8
NOTE
  6
CONTINUOUS
 62
     4
 10
42.0
 20
0.0
 30
0.0
 11
82.0
 21
0.0
 31
0.0
  0
LINE
  5
354
  8
NOTE
  6
CONTINUOUS
 62
     4
 10
-80.0
 20
-20.000001000000001
 30
0.0
 11
-80.0
 21
19.999998999999999
 31
0.0
  0
LINE
  5
355
  8
NOTE
  6
CONTINUOUS
 62
     4
 10
-100.0
 20
-0.000001
 30
0.0
 11
-60.0
 21
-0.000001
 31
0.0
  0
LINE
  5
356
  8
NOTE
  6
CONTINUOUS
 62
     4
 10
80.0
 20
-19.999998999999999
 30
0.0
 11
80.0
 21
20.000001000000001
 31
0.0
  0
LINE
  5
357
  8
NOTE
  6
CONTINUOUS
 62
     4
 10
60.0
 20
0.000001
 30
0.0
 11
100.0
 21
0.000001
 31
0.0
  0
LINE
  5
358
  8
SIZE
  6
CONTINUOUS
 62
    30
 10
48.700000000000003
 20
85.0
 30
0.0
 11
48.700000000000003
 21
405.02453999999989
 31
0.0
  0
LINE
  5
359
  8
SIZE
  6
CONTINUOUS
 62
    30
 10
-48.700000000000003
 20
85.0
 30
0.0
 11
-48.700000000000003
 21
405.02453999999989
 31
0.0
  0
LINE
  5
35A
  8
SIZE
  6
CONTINUOUS
 62
    30
 10
36.700000000000003
 20
385.02454
 30
0.0
 11
-36.700000000000003
 21
385.02454
 31
0.0
  0
LINE
  5
35B
  8
SIZE
  6
CONTINUOUS
 62
    30
 10
-48.700000000000003
 20
385.02454
 30
0.0
 11
-373.96554500000002
 21
385.02454
 31
0.0
  0
CIRCLE
  5
35C
  8
SIZE
  6
CONTINUOUS
 62
    30
 10
48.700000000000003
 20
385.02454
 30
0.0
 40
6.0
  0
LINE
  5
35D
  8
SIZE
  6
CONTINUOUS
 62
    30
 10
48.700000000000003
 20
385.02454
 30
0.0
 11
36.700000000000003
 21
385.02454
 31
0.0
  0
CIRCLE
  5
35E
  8
SIZE
  6
CONTINUOUS
 62
    30
 10
-48.700000000000003
 20
385.02454
 30
0.0
 40
6.0
  0
LINE
  5
35F
  8
SIZE
  6
CONTINUOUS
 62
    30
 10
-48.700000000000003
 20
385.02454
 30
0.0
 11
-36.700000000000003
 21
385.02454
 31
0.0
  0
TEXT
  5
360
  8
SIZE
  6
CONTINUOUS
 62
    30
 10
-363.22840214285708
 20
410.02454
 30
0.0
 40
64.0
  1
φ97.4
 41
0.9
 72
     1
 11
-233.765545
 21
410.02454
 31
0.0
  0
POINT
  5
361
  8
DEFPOINTS
  6
CONTINUOUS
 62
    30
 10
48.700000000000003
 20
65.0
 30
0.0
  0
POINT
  5
362
  8
DEFPOINTS
  6
CONTINUOUS
 62
    30
 10
-48.700000000000003
 20
65.0
 30
0.0
  0
POINT
  5
363
  8
DEFPOINTS
  6
CONTINUOUS
 62
    30
 10
-48.700000000000003
 20
385.02454
 30
0.0
  0
LINE
  5
364
  8
SIZE
  6
CONTINUOUS
 62
    30
 10
80.0
 20
40.000000999999997
 30
0.0
 11
80.0
 21
511.08352599999989
 31
0.0
  0
LINE
  5
365
  8
SIZE
  6
CONTINUOUS
 62
    30
 10
-80.0
 20
39.999999000000003
 30
0.0
 11
-80.0
 21
511.08352599999989
 31
0.0
  0
LINE
  5
366
  8
SIZE
  6
CONTINUOUS
 62
    30
 10
92.0
 20
491.08352599999989
 30
0.0
 11
104.0
 21
491.08352599999989
 31
0.0
  0
LINE
  5
367
  8
SIZE
  6
CONTINUOUS
 62
    30
 10
-92.0
 20
491.08352599999989
 30
0.0
 11
-104.0
 21
491.08352599999989
 31
0.0
  0
LINE
  5
368
  8
SIZE
  6
CONTINUOUS
 62
    30
 10
80.0
 20
491.08352599999989
 30
0.0
 11
-80.0
 21
491.08352599999989
 31
0.0
  0
CIRCLE
  5
369
  8
SIZE
  6
CONTINUOUS
 62
    30
 10
80.0
 20
491.08352599999989
 30
0.0
 40
6.0
  0
LINE
  5
36A
  8
SIZE
  6
CONTINUOUS
 62
    30
 10
80.0
 20
491.08352599999989
 30
0.0
 11
92.0
 21
491.08352599999989
 31
0.0
  0
CIRCLE
  5
36B
  8
SIZE
  6
CONTINUOUS
 62
    30
 10
-80.0
 20
491.08352599999989
 30
0.0
 40
6.0
  0
LINE
  5
36C
  8
SIZE
  6
CONTINUOUS
 62
    30
 10
-80.0
 20
491.08352599999989
 30
0.0
 11
-92.0
 21
491.08352599999989
 31
0.0
  0
TEXT
  5
36D
  8
SIZE
  6
CONTINUOUS
 62
    30
 10
-68.571428571428555
 20
516.08352599999989
 30
0.0
 40
64.0
  1
160
 41
0.9
 72
     1
 11
0.0
 21
516.08352599999989
 31
0.0
  0
POINT
  5
36E
  8
DEFPOINTS
  6
CONTINUOUS
 62
    30
 10
80.0
 20
20.000001000000001
 30
0.0
  0
POINT
  5
36F
  8
DEFPOINTS
  6
CONTINUOUS
 62
    30
 10
-80.0
 20
19.999998999999999
 30
0.0
  0
POINT
  5
370
  8
DEFPOINTS
  6
CONTINUOUS
 62
    30
 10
-80.0
 20
491.08352599999989
 30
0.0
  0
LINE
  5
371
  8
SIZE
  6
CONTINUOUS
 62
    30
 10
0.0
 20
105.780759
 30
0.0
 11
0.0
 21
295.40229199999999
 31
0.0
  0
LINE
  5
372
  8
SIZE
  6
CONTINUOUS
 62
    30
 10
62.0
 20
40.0
 30
0.0
 11
62.0
 21
295.40229199999999
 31
0.0
  0
LINE
  5
373
  8
SIZE
  6
CONTINUOUS
 62
    30
 10
-12.0
 20
275.40229199999999
 30
0.0
 11
-24.0
 21
275.40229199999999
 31
0.0
  0
LINE
  5
374
  8
SIZE
  6
CONTINUOUS
 62
    30
 10
74.0
 20
275.40229199999999
 30
0.0
 11
303.31428599999998
 21
275.40229199999999
 31
0.0
  0
LINE
  5
375
  8
SIZE
  6
CONTINUOUS
 62
    30
 10
0.0
 20
275.40229199999999
 30
0.0
 11
62.0
 21
275.40229199999999
 31
0.0
  0
CIRCLE
  5
376
  8
SIZE
  6
CONTINUOUS
 62
    30
 10
0.0
 20
275.40229199999999
 30
0.0
 40
6.0
  0
LINE
  5
377
  8
SIZE
  6
CONTINUOUS
 62
    30
 10
0.0
 20
275.40229199999999
 30
0.0
 11
-12.0
 21
275.40229199999999
 31
0.0
  0
CIRCLE
  5
378
  8
SIZE
  6
CONTINUOUS
 62
    30
 10
62.0
 20
275.40229199999999
 30
0.0
 40
6.0
  0
LINE
  5
379
  8
SIZE
  6
CONTINUOUS
 62
    30
 10
62.0
 20
275.40229199999999
 30
0.0
 11
74.0
 21
275.40229199999999
 31
0.0
  0
TEXT
  5
37A
  8
SIZE
  6
CONTINUOUS
 62
    30
 10
111.0000001428571
 20
317.164197
 30
0.0
 40
64.0
  1
(62)
 41
0.9
 72
     1
 11
194.65714299999999
 21
317.164197
 31
0.0
  0
POINT
  5
37B
  8
DEFPOINTS
  6
CONTINUOUS
 62
    30
 10
0.0
 20
85.780758999999989
 30
0.0
  0
POINT
  5
37C
  8
DEFPOINTS
  6
CONTINUOUS
 62
    30
 10
62.0
 20
20.0
 30
0.0
  0
POINT
  5
37D
  8
DEFPOINTS
  6
CONTINUOUS
 62
    30
 10
62.0
 20
275.40229199999999
 30
0.0
  0
LINE
  5
37E
  8
SIZE
  6
CONTINUOUS
 62
    30
 10
-90.0
 20
-20.508725999999999
 30
0.0
 11
-90.0
 21
-254.357392
 31
0.0
  0
LINE
  5
37F
  8
SIZE
  6
CONTINUOUS
 62
    30
 10
90.0
 20
-20.508725999999999
 30
0.0
 11
90.0
 21
-254.357392
 31
0.0
  0
LINE
  5
380
  8
SIZE
  6
CONTINUOUS
 62
    30
 10
78.0
 20
-234.357392
 30
0.0
 11
-78.0
 21
-234.357392
 31
0.0
  0
LINE
  5
381
  8
SIZE
  6
CONTINUOUS
 62
    30
 10
-90.0
 20
-234.357392
 30
0.0
 11
-354.42285700000002
 21
-234.357392
 31
0.0
  0
CIRCLE
  5
382
  8
SIZE
  6
CONTINUOUS
 62
    30
 10
90.0
 20
-234.357392
 30
0.0
 40
6.0
  0
LINE
  5
383
  8
SIZE
  6
CONTINUOUS
 62
    30
 10
90.0
 20
-234.357392
 30
0.0
 11
78.0
 21
-234.357392
 31
0.0
  0
CIRCLE
  5
384
  8
SIZE
  6
CONTINUOUS
 62
    30
 10
-90.0
 20
-234.357392
 30
0.0
 40
6.0
  0
LINE
  5
385
  8
SIZE
  6
CONTINUOUS
 62
    30
 10
-90.0
 20
-234.357392
 30
0.0
 11
-78.0
 21
-234.357392
 31
0.0
  0
TEXT
  5
386
  8
SIZE
  6
CONTINUOUS
 62
    30
 10
-333.26285757142853
 20
-209.357392
 30
0.0
 40
64.0
  1
□180
 41
0.9
 72
     1
 11
-228.21142900000001
 21
-209.357392
 31
0.0
  0
POINT
  5
387
  8
DEFPOINTS
  6
CONTINUOUS
 62
    30
 10
-90.0
 20
-0.5087260000000001
 30
0.0
  0
POINT
  5
388
  8
DEFPOINTS
  6
CONTINUOUS
 62
    30
 10
90.0
 20
-0.5087260000000001
 30
0.0
  0
POINT
  5
389
  8
DEFPOINTS
  6
CONTINUOUS
 62
    30
 10
90.0
 20
-234.357392
 30
0.0
  0
LINE
  5
38A
  8
SIZE
  6
CONTINUOUS
 62
    30
 10
20.0
 20
-68.0
 30
0.0
 11
391.14050200000008
 21
-68.0
 31
0.0
  0
LINE
  5
38B
  8
SIZE
  6
CONTINUOUS
 62
    30
 10
126.08331099999999
 20
0.000001
 30
0.0
 11
391.14050200000008
 21
0.000001
 31
0.0
  0
LINE
  5
38C
  8
SIZE
  6
CONTINUOUS
 62
    30
 10
371.14050200000003
 20
12.000000999999999
 30
0.0
 11
371.14050200000003
 21
24.000001000000001
 31
0.0
  0
LINE
  5
38D
  8
SIZE
  6
CONTINUOUS
 62
    30
 10
371.14050200000003
 20
-80.0
 30
0.0
 11
371.14050200000003
 21
-235.25714300000001
 31
0.0
  0
LINE
  5
38E
  8
SIZE
  6
CONTINUOUS
 62
    30
 10
371.14050200000003
 20
0.000001
 30
0.0
 11
371.14050200000003
 21
-68.0
 31
0.0
  0
CIRCLE
  5
38F
  8
SIZE
  6
CONTINUOUS
 62
    30
 10
371.14050200000003
 20
0.000001
 30
0.0
 40
6.0
  0
LINE
  5
390
  8
SIZE
  6
CONTINUOUS
 62
    30
 10
371.14050200000003
 20
0.000001
 30
0.0
 11
371.14050200000003
 21
12.000000999999999
 31
0.0
  0
CIRCLE
  5
391
  8
SIZE
  6
CONTINUOUS
 62
    30
 10
371.14050200000003
 20
-68.0
 30
0.0
 40
6.0
  0
LINE
  5
392
  8
SIZE
  6
CONTINUOUS
 62
    30
 10
371.14050200000003
 20
-68.0
 30
0.0
 11
371.14050200000003
 21
-80.0
 31
0.0
  0
TEXT
  5
393
  8
SIZE
  6
CONTINUOUS
 62
    30
 10
346.14050200000003
 20
-210.2571424285714
 30
0.0
 40
64.0
  1
68
 50
90.0
 41
0.9
 72
     1
 11
346.14050200000003
 21
-163.62857099999999
 31
0.0
  0
POINT
  5
394
  8
DEFPOINTS
  6
CONTINUOUS
 62
    30
 10
0.0
 20
-68.0
 30
0.0
  0
POINT
  5
395
  8
DEFPOINTS
  6
CONTINUOUS
 62
    30
 10
106.08331099999999
 20
0.000001
 30
0.0
  0
POINT
  5
396
  8
DEFPOINTS
  6
CONTINUOUS
 62
    30
 10
371.14050200000003
 20
0.000001
 30
0.0
  0
LINE
  5
397
  8
SIZE
  6
CONTINUOUS
 62
    30
 10
126.08331099999999
 20
0.000001
 30
0.0
 11
391.14050200000008
 21
0.000001
 31
0.0
  0
LINE
  5
398
  8
SIZE
  6
CONTINUOUS
 62
    30
 10
68.700000000000003
 20
65.0
 30
0.0
 11
391.14050200000008
 21
65.0
 31
0.0
  0
LINE
  5
399
  8
SIZE
  6
CONTINUOUS
 62
    30
 10
371.14050200000003
 20
-11.999999000000001
 30
0.0
 11
371.14050200000003
 21
-23.999998999999999
 31
0.0
  0
LINE
  5
39A
  8
SIZE
  6
CONTINUOUS
 62
    30
 10
371.14050200000003
 20
77.0
 30
0.0
 11
371.14050200000003
 21
232.25714300000001
 31
0.0
  0
LINE
  5
39B
  8
SIZE
  6
CONTINUOUS
 62
    30
 10
371.14050200000003
 20
0.000001
 30
0.0
 11
371.14050200000003
 21
65.0
 31
0.0
  0
CIRCLE
  5
39C
  8
SIZE
  6
CONTINUOUS
 62
    30
 10
371.14050200000003
 20
0.000001
 30
0.0
 40
6.0
  0
LINE
  5
39D
  8
SIZE
  6
CONTINUOUS
 62
    30
 10
371.14050200000003
 20
0.000001
 30
0.0
 11
371.14050200000003
 21
-11.999999000000001
 31
0.0
  0
CIRCLE
  5
39E
  8
SIZE
  6
CONTINUOUS
 62
    30
 10
371.14050200000003
 20
65.0
 30
0.0
 40
6.0
  0
LINE
  5
39F
  8
SIZE
  6
CONTINUOUS
 62
    30
 10
371.14050200000003
 20
65.0
 30
0.0
 11
371.14050200000003
 21
77.0
 31
0.0
  0
TEXT
  5
3A0
  8
SIZE
  6
CONTINUOUS
 62
    30
 10
346.14050200000003
 20
113.9999995714285
 30
0.0
 40
64.0
  1
65
 50
90.0
 41
0.9
 72
     1
 11
346.14050200000003
 21
160.62857099999999
 31
0.0
  0
POINT
  5
3A1
  8
DEFPOINTS
  6
CONTINUOUS
 62
    30
 10
106.08331099999999
 20
0.000001
 30
0.0
  0
POINT
  5
3A2
  8
DEFPOINTS
  6
CONTINUOUS
 62
    30
 10
48.700000000000003
 20
65.0
 30
0.0
  0
POINT
  5
3A3
  8
DEFPOINTS
  6
CONTINUOUS
 62
    30
 10
371.14050200000003
 20
65.0
 30
0.0
  0
TEXT
  5
3D0
  8
ETC
  6
CONTINUOUS
 62
    61
 10
531.53396204412036
 20
480.3808718489401
 30
0.0
 40
40.0
  1
V-08PQFF3
 41
0.9
  0
TEXT
  5
3D1
  8
ETC
  6
CONTINUOUS
 62
    61
 10
531.53396204412036
 20
417.30173984894009
 30
0.0
 40
40.0
  1
V-08PQFF3-BE
 41
0.9
  0
TEXT
  5
3D2
  8
ETC
  6
CONTINUOUS
 62
    61
 10
531.53396204412036
 20
354.317767175195
 30
0.0
 40
40.0
  1
V-08PQFF3-CK
 41
0.9
  0
TEXT
  5
3D3
  8
ETC
  6
CONTINUOUS
 62
    61
 10
531.53396204412036
 20
289.93049572578678
 30
0.0
 40
40.0
  1
V-08PQFF3-T
 41
0.9
  0
TEXT
  5
3D4
  8
ETC
  6
CONTINUOUS
 62
    61
 10
531.53396204412036
 20
229.18711965556031
 30
0.0
 40
40.0
  1
V-08PQFF3-BE-T
 41
0.9
  0
ENDSEC
  0
EOF
