  0
SECTION
  2
HEADER
  9
$ACADVER
  1
AC1009
  9
$DWGCODEPAGE
  3
dos932
  9
$INSBASE
 10
0.0
 20
0.0
 30
0.0
  9
$EXTMIN
 10
-358.01695090254913
 20
-269.16502715224118
 30
-0.0015258207003583
  9
$EXTMAX
 10
776.7608755346846
 20
620.04090161067506
 30
0.0000000349246037
  9
$LIMMIN
 10
-2970.0
 20
-2100.0
  9
$LIMMAX
 10
2970.0
 20
2100.0
  9
$ORTHOMODE
 70
     1
  9
$REGENMODE
 70
     1
  9
$FILLMODE
 70
     1
  9
$QTEXTMODE
 70
     0
  9
$MIRRTEXT
 70
     0
  9
$LTSCALE
 40
20.0
  9
$ATTMODE
 70
     1
  9
$TEXTSIZE
 40
64.0
  9
$TRACEWID
 40
0.05
  9
$TEXTSTYLE
  7
STANDARD
  9
$CLAYER
  8
SIZE
  9
$CELTYPE
  6
CONTINUOUS
  9
$CECOLOR
 62
     7
  9
$DIMSCALE
 40
1.0
  9
$DIMASZ
 40
12.0
  9
$DIMEXO
 40
20.0
  9
$DIMDLI
 40
200.0
  9
$DIMRND
 40
0.0
  9
$DIMDLE
 40
0.0
  9
$DIMEXE
 40
20.0
  9
$DIMTP
 40
0.0
  9
$DIMTM
 40
0.0
  9
$DIMTXT
 40
64.0
  9
$DIMCEN
 40
0.09
  9
$DIMTSZ
 40
0.0
  9
$DIMTOL
 70
     0
  9
$DIMLIM
 70
     0
  9
$DIMTIH
 70
     0
  9
$DIMTOH
 70
     0
  9
$DIMSE1
 70
     0
  9
$DIMSE2
 70
     0
  9
$DIMTAD
 70
     1
  9
$DIMZIN
 70
     8
  9
$DIMBLK
  1

  9
$DIMASO
 70
     1
  9
$DIMSHO
 70
     0
  9
$DIMPOST
  1

  9
$DIMAPOST
  1

  9
$DIMALT
 70
     0
  9
$DIMALTD
 70
     2
  9
$DIMALTF
 40
25.399999999999999
  9
$DIMLFAC
 40
1.0
  9
$DIMTOFL
 70
     1
  9
$DIMTVP
 40
0.0
  9
$DIMTIX
 70
     1
  9
$DIMSOXD
 70
     0
  9
$DIMSAH
 70
     0
  9
$DIMBLK1
  1

  9
$DIMBLK2
  1

  9
$DIMSTYLE
  2
STANDARD
  9
$DIMCLRD
 70
     7
  9
$DIMCLRE
 70
     7
  9
$DIMCLRT
 70
     7
  9
$DIMTFAC
 40
1.0
  9
$DIMGAP
 40
25.0
  9
$LUNITS
 70
     2
  9
$LUPREC
 70
     4
  9
$SKETCHINC
 40
0.1
  9
$FILLETRAD
 40
3.0
  9
$AUNITS
 70
     1
  9
$AUPREC
 70
     3
  9
$MENU
  1
ACAD
  9
$ELEVATION
 40
0.0
  9
$PELEVATION
 40
0.0
  9
$THICKNESS
 40
0.0
  9
$LIMCHECK
 70
     0
  9
$CHAMFERA
 40
0.0
  9
$CHAMFERB
 40
0.0
  9
$SKPOLY
 70
     0
  9
$TDCREATE
 40
2453019.623009259
  9
$TDUPDATE
 40
2459356.657120301
  9
$TDINDWG
 40
1.7217289468
  9
$TDUSRTIMER
 40
1.7217289468
  9
$USRTIMER
 70
     1
  9
$ANGBASE
 50
0.0
  9
$ANGDIR
 70
     0
  9
$PDMODE
 70
     3
  9
$PDSIZE
 40
-2.0
  9
$PLINEWID
 40
0.0
  9
$SPLFRAME
 70
     0
  9
$SPLINETYPE
 70
     6
  9
$SPLINESEGS
 70
     8
  9
$SURFTAB1
 70
     6
  9
$SURFTAB2
 70
     6
  9
$SURFTYPE
 70
     6
  9
$SURFU
 70
     6
  9
$SURFV
 70
     6
  9
$UCSNAME
  2

  9
$UCSORG
 10
0.0
 20
0.0
 30
0.0
  9
$UCSXDIR
 10
1.0
 20
0.0
 30
0.0
  9
$UCSYDIR
 10
0.0
 20
1.0
 30
0.0
  9
$PUCSNAME
  2

  9
$PUCSORG
 10
0.0
 20
0.0
 30
0.0
  9
$PUCSXDIR
 10
1.0
 20
0.0
 30
0.0
  9
$PUCSYDIR
 10
0.0
 20
1.0
 30
0.0
  9
$USERI1
 70
     0
  9
$USERI2
 70
     0
  9
$USERI3
 70
     0
  9
$USERI4
 70
     0
  9
$USERI5
 70
     0
  9
$USERR1
 40
20.0
  9
$USERR2
 40
0.0
  9
$USERR3
 40
0.0
  9
$USERR4
 40
0.0
  9
$USERR5
 40
0.0
  9
$WORLDVIEW
 70
     1
  9
$SHADEDGE
 70
     3
  9
$SHADEDIF
 70
    70
  9
$TILEMODE
 70
     1
  9
$MAXACTVP
 70
    48
  9
$PINSBASE
 10
0.0
 20
0.0
 30
0.0
  9
$PLIMCHECK
 70
     0
  9
$PEXTMIN
 10
-100000000000000000000.0
 20
-100000000000000000000.0
 30
-100000000000000000000.0
  9
$PEXTMAX
 10
100000000000000000000.0
 20
100000000000000000000.0
 30
100000000000000000000.0
  9
$PLIMMIN
 10
0.0
 20
0.0
  9
$PLIMMAX
 10
12.0
 20
9.0
  9
$UNITMODE
 70
     0
  9
$VISRETAIN
 70
     0
  9
$PLINEGEN
 70
     0
  9
$PSLTSCALE
 70
     0
  9
$TREEDEPTH
 70
  3020
  9
$ATTDIA
 70
     0
  9
$ATTREQ
 70
     1
  9
$BLIPMODE
 70
     1
  9
$COORDS
 70
     1
  9
$DRAGMODE
 70
     2
  9
$OSMODE
 70
     0
  9
$HANDLING
 70
     0
  9
$HANDSEED
  5
26D
  0
ENDSEC
  0
SECTION
  2
TABLES
  0
TABLE
  2
LTYPE
 70
     2
  0
LTYPE
  2
CONTINUOUS
 70
     0
  3
実線
 72
    65
 73
     0
 40
0.0
  0
LTYPE
  2
DASHDOT
 70
     0
  3
____ _ ____ _ ____ _ ____ _ ____ _ ____ _ ____
 72
    65
 73
     4
 40
5.5
 49
4.0
 49
-0.6
 49
0.3
 49
-0.6
  0
ENDTAB
  0
TABLE
  2
LAYER
 70
    12
  0
LAYER
  2
SIZE
 70
     0
 62
    30
  6
CONTINUOUS
  0
LAYER
  2
BASIS
 70
     0
 62
     6
  6
DASHDOT
  0
LAYER
  2
OUTLINE
 70
     0
 62
     3
  6
CONTINUOUS
  0
LAYER
  2
DETAIL
 70
     0
 62
     5
  6
CONTINUOUS
  0
LAYER
  2
ARRANGE
 70
     0
 62
     1
  6
CONTINUOUS
  0
LAYER
  2
ETC
 70
     0
 62
    61
  6
CONTINUOUS
  0
LAYER
  2
FIX
 70
     0
 62
    11
  6
CONTINUOUS
  0
LAYER
  2
NOTE
 70
     0
 62
     4
  6
CONTINUOUS
  0
LAYER
  2
0
 70
    64
 62
     7
  6
CONTINUOUS
  0
LAYER
  2
DEFPOINTS
 70
    64
 62
     7
  6
CONTINUOUS
  0
LAYER
  2
SERVICESPACE
 70
    64
 62
     2
  6
DASHDOT
  0
LAYER
  2
SYMBOLLINE
 70
    64
 62
    15
  6
CONTINUOUS
  0
ENDTAB
  0
TABLE
  2
STYLE
 70
     1
  0
STYLE
  2
STANDARD
 70
     0
 40
64.0
 41
0.9
 50
0.0
 71
     0
 42
64.0
  3
SIMPLEX.shx
  4
BIGFONT.shx
  0
ENDTAB
  0
TABLE
  2
APPID
 70
    20
  0
APPID
  2
ACAD
 70
     0
  0
APPID
  2
ACADANNOTATIVE
 70
     0
  0
APPID
  2
AUTOCAD_POSTSCRIPT_FIGURE
 70
     0
  0
APPID
  2
ACAD_EXEMPT_FROM_CAD_STANDARDS
 70
     0
  0
APPID
  2
ACAD_PSEXT
 70
     0
  0
APPID
  2
ACAUTHENVIRON
 70
     0
  0
APPID
  2
GENIUS_GENOENT_13
 70
     0
  0
APPID
  2
GENIUS_GENCFG_13
 70
     0
  0
APPID
  2
GENIUS_GENCFG0_13
 70
     0
  0
APPID
  2
GENIUS_GENCFG1_13
 70
     0
  0
APPID
  2
GENIUS_GENCFG2_13
 70
     0
  0
APPID
  2
GENIUS_GENCFG3_13
 70
     0
  0
APPID
  2
GENIUS_GENCFG4_13
 70
     0
  0
APPID
  2
GENIUS_GEVCFG0_13
 70
     0
  0
APPID
  2
CONTENTBLOCKICON
 70
     0
  0
APPID
  2
CONTENTBLOCKDESCRIPTION
 70
     0
  0
APPID
  2
ACAD_NAV_VCDISPLAY
 70
     0
  0
APPID
  2
ACAD_MLEADERVER
 70
     0
  0
APPID
  2
ACDBDYNAMICBLOCKTRUENAME
 70
     0
  0
APPID
  2
ACDBDYNAMICBLOCKGUID
 70
     0
  0
ENDTAB
  0
TABLE
  2
DIMSTYLE
 70
     1
  0
DIMSTYLE
  2
STANDARD
 70
     0
  3

  4

  5

  6

  7

 40
1.0
 41
12.0
 42
20.0
 43
200.0
 44
20.0
 45
0.0
 46
0.0
 47
0.0
 48
0.0
140
64.0
141
0.09
142
0.0
143
25.399999999999999
144
1.0
145
0.0
146
1.0
147
25.0
 71
     0
 72
     0
 73
     0
 74
     0
 75
     0
 76
     0
 77
     1
 78
     8
170
     0
171
     2
172
     1
173
     0
174
     1
175
     0
176
     7
177
     7
178
     7
  0
ENDTAB
  0
TABLE
  2
VIEW
 70
     1
  0
VIEW
  2
ALL
 70
     0
 40
4282.6198079999986
 10
0.0
 20
41.309904000000003
 41
5940.0
 11
0.0
 21
0.0
 31
1.0
 12
0.0
 22
0.0
 32
0.0
 42
50.0
 43
0.0
 44
0.0
 50
0.0
 71
     0
  0
ENDTAB
  0
TABLE
  2
UCS
 70
     0
  0
ENDTAB
  0
TABLE
  2
VPORT
 70
     1
  0
VPORT
  2
*ACTIVE
 70
     0
 10
0.0
 20
0.0
 11
1.0
 21
1.0
 12
209.37196231606779
 22
175.43793722921691
 13
0.0
 23
0.0
 14
1.0
 24
1.0
 15
0.0
 25
0.0
 16
0.0
 26
0.0
 36
1.0
 17
0.0
 27
0.0
 37
0.0
 40
802.14972383626093
 41
1.8851435705368289
 42
50.0
 43
0.0
 44
0.0
 50
0.0
 51
0.0
 71
     0
 72
  1000
 73
     1
 74
     3
 75
     0
 76
     0
 77
     0
 78
     0
  0
ENDTAB
  0
ENDSEC
  0
SECTION
  2
BLOCKS
  0
ENDSEC
  0
SECTION
  2
ENTITIES
  0
TEXT
  8
ETC
  6
CONTINUOUS
 62
    61
 10
269.25926275619349
 20
555.78284101709028
 30
0.0
 40
64.0
  1
V-08PS8_3
 41
0.9
  0
TEXT
  8
ETC
  6
CONTINUOUS
 62
    61
 10
265.0732687561931
 20
437.82753100225909
 30
0.0
 40
64.0
  1
換気扇
 41
0.9
  0
CIRCLE
  8
ARRANGE
  6
CONTINUOUS
 62
     1
 10
0.0
 20
0.0
 30
0.0
 40
40.0
  0
POINT
  8
ARRANGE
  6
CONTINUOUS
 62
     1
 10
0.0
 20
0.0
 30
0.0
  0
LINE
  8
BASIS
  6
DASHDOT
 62
     6
 10
0.0
 20
-109.2854010143142
 30
0.0
 11
0.0
 21
109.2854010143142
 31
0.0
  0
LINE
  8
BASIS
  6
DASHDOT
 62
     6
 10
-125.4561247050906
 20
0.0
 30
0.0
 11
125.4561247050906
 21
0.0
 31
0.0
  0
TEXT
  8
ETC
  6
CONTINUOUS
 62
    61
 10
315.77466700474912
 20
329.6787581160338
 30
0.0
 40
40.0
  1
V-08PS8
 41
0.9
  0
TEXT
  8
ETC
  6
CONTINUOUS
 62
    61
 10
315.77466700474912
 20
263.6787581160338
 30
0.0
 40
40.0
  1
V-08PS8-BL
 41
0.9
  0
LINE
  8
DETAIL
  6
CONTINUOUS
 62
     5
 10
-84.003368174960869
 20
-94.965605247372054
 30
0.0
 11
84.003392612372224
 21
-94.965605247372054
 31
0.0
  0
LINE
  8
DETAIL
  6
CONTINUOUS
 62
     5
 10
-12.483152657358289
 20
-94.965635331525959
 30
0.0
 11
-12.48315246704863
 21
-98.985127586649128
 31
0.0
  0
ARC
  8
DETAIL
  6
CONTINUOUS
 62
     5
 10
-11.486544446683411
 20
-98.984932569683806
 30
0.0
 40
0.9966098936081126
 50
180.0112100753004
 51
269.9887899205014
  0
ARC
  8
DETAIL
  6
CONTINUOUS
 62
     5
 10
84.003392612372224
 20
74.037744762372299
 30
0.0
 40
0.996564785
 50
0.0
 51
90.0
  0
ARC
  8
DETAIL
  6
CONTINUOUS
 62
     5
 10
-84.003392612372224
 20
74.037744762372299
 30
0.0
 40
0.996564785
 50
90.0
 51
180.0
  0
ARC
  8
DETAIL
  6
CONTINUOUS
 62
     5
 10
84.003392612372224
 20
-93.969040462372149
 30
0.0
 40
0.996564785
 50
270.0
 51
0.0
  0
LINE
  8
DETAIL
  6
CONTINUOUS
 62
     5
 10
-84.604810503991985
 20
-66.969153552000193
 30
0.0
 11
-84.601331483372178
 21
-67.766405380000037
 31
0.0
  0
ARC
  8
DETAIL
  6
CONTINUOUS
 62
     5
 10
-84.003392612372224
 20
-93.96904045983969
 30
0.0
 40
0.99656478500001
 50
180.0
 51
270.00140498696408
  0
LINE
  8
DETAIL
  6
CONTINUOUS
 62
     5
 10
-84.99995739737227
 20
-67.766405380000037
 30
0.0
 11
-84.99995739737227
 21
-93.96904045983969
 31
0.0
  0
LINE
  8
DETAIL
  6
CONTINUOUS
 62
     5
 10
84.604810503992027
 20
-67.766405380000037
 30
0.0
 11
84.601331483372221
 21
-66.969153552000193
 31
0.0
  0
LINE
  8
DETAIL
  6
CONTINUOUS
 62
     5
 10
84.999957397372214
 20
-66.969153552000193
 30
0.0
 11
84.999957397372214
 21
74.037744762372299
 31
0.0
  0
LINE
  8
DETAIL
  6
CONTINUOUS
 62
     5
 10
84.999957397372214
 20
-93.969040462372149
 30
0.0
 11
84.999957397372214
 21
-67.766405380000037
 31
0.0
  0
ARC
  8
DETAIL
  6
CONTINUOUS
 62
     5
 10
11.486587682048709
 20
-98.98497580504872
 30
0.0
 40
0.996564785
 50
270.0
 51
0.0
  0
LINE
  8
DETAIL
  6
CONTINUOUS
 62
     5
 10
12.48315246704874
 20
-98.985127586649128
 30
0.0
 11
12.4831526574651
 21
-94.965605247372054
 31
0.0
  0
LINE
  8
DETAIL
  6
CONTINUOUS
 62
     5
 10
15.60212329356284
 20
-94.965544534752198
 30
0.0
 11
15.60224723612583
 21
-94.965578274250333
 31
0.0
  0
LINE
  8
DETAIL
  6
CONTINUOUS
 62
     5
 10
-11.486587682048651
 20
-99.981540590048638
 30
0.0
 11
11.486587682048709
 21
-99.981540590048638
 31
0.0
  0
LINE
  8
DETAIL
  6
CONTINUOUS
 62
     5
 10
-84.99995739737227
 20
74.037744762372299
 30
0.0
 11
-84.99995739737227
 21
-66.969153552000193
 31
0.0
  0
LINE
  8
DETAIL
  6
CONTINUOUS
 62
     5
 10
84.003392612372224
 20
75.034309547372217
 30
0.0
 11
-84.003392612372224
 21
75.034309547372217
 31
0.0
  0
ARC
  8
DETAIL
  6
CONTINUOUS
 62
     5
 10
75.042358875000033
 20
-3.9862591400001288
 30
0.0
 40
1.99312957
 50
0.0
 51
180.0
  0
LINE
  8
DETAIL
  6
CONTINUOUS
 62
     5
 10
77.035488445000041
 20
-9.9656478500000958
 30
0.0
 11
77.035488445000041
 21
-3.9862591400001288
 31
0.0
  0
ARC
  8
DETAIL
  6
CONTINUOUS
 62
     5
 10
75.042358875000033
 20
-9.9656478500000958
 30
0.0
 40
1.99312957
 50
180.0
 51
0.0
  0
LINE
  8
DETAIL
  6
CONTINUOUS
 62
     5
 10
73.049229305000054
 20
-9.9656478500000958
 30
0.0
 11
73.049229305000054
 21
-3.9862591400001288
 31
0.0
  0
LINE
  8
DETAIL
  6
CONTINUOUS
 62
     5
 10
-73.049229304999983
 20
-9.9656478500000958
 30
0.0
 11
-73.049229304999983
 21
-3.9862591400001288
 31
0.0
  0
ARC
  8
DETAIL
  6
CONTINUOUS
 62
     5
 10
-75.042358875000033
 20
-3.9862591400001288
 30
0.0
 40
1.99312957
 50
0.0
 51
180.0
  0
LINE
  8
DETAIL
  6
CONTINUOUS
 62
     5
 10
-77.035488444999999
 20
-9.9656478500000958
 30
0.0
 11
-77.035488444999999
 21
-3.9862591400001288
 31
0.0
  0
ARC
  8
DETAIL
  6
CONTINUOUS
 62
     5
 10
-75.042358875000033
 20
-9.9656478500000958
 30
0.0
 40
1.99312957
 50
180.0
 51
0.0
  0
ARC
  8
DETAIL
  6
CONTINUOUS
 62
     5
 10
-30.15642826774803
 20
87.721228768190713
 30
0.0
 40
2.690724919499988
 50
239.9999999999514
 51
299.99999999994708
  0
ARC
  8
DETAIL
  6
CONTINUOUS
 62
     5
 10
-32.847153187248011
 20
87.721228768192972
 30
0.0
 40
2.690724919499988
 50
239.9999999999514
 51
299.99999999994708
  0
ARC
  8
DETAIL
  6
CONTINUOUS
 62
     5
 10
-32.84715318725209
 20
83.060756498427509
 30
0.0
 40
2.690724919499988
 50
59.999999999951477
 51
119.99999999994721
  0
ARC
  8
DETAIL
  6
CONTINUOUS
 62
     5
 10
-30.15642826774803
 20
85.734477210889949
 30
0.0
 40
2.690724919499988
 50
239.9999999999514
 51
299.99999999994708
  0
ARC
  8
DETAIL
  6
CONTINUOUS
 62
     5
 10
-30.156428267752119
 20
81.074004941124485
 30
0.0
 40
2.690724919499988
 50
59.999999999951477
 51
119.99999999994721
  0
ARC
  8
DETAIL
  6
CONTINUOUS
 62
     5
 10
-32.84715318725209
 20
81.074004941126759
 30
0.0
 40
2.690724919499988
 50
59.999999999951477
 51
119.99999999994721
  0
LINE
  8
DETAIL
  6
CONTINUOUS
 62
     5
 10
-28.81106580800002
 20
85.39099263330651
 30
0.0
 11
-28.81106580800019
 21
95.17000784445915
 31
0.0
  0
LINE
  8
DETAIL
  6
CONTINUOUS
 62
     5
 10
-28.81106580800002
 20
75.034309547372217
 30
0.0
 11
-28.811065808000141
 21
83.404241076006201
 31
0.0
  0
LINE
  8
DETAIL
  6
CONTINUOUS
 62
     5
 10
-34.19251564700005
 20
85.390992633311257
 30
0.0
 11
-34.192515647000221
 21
95.17000784445915
 31
0.0
  0
LINE
  8
DETAIL
  6
CONTINUOUS
 62
     5
 10
-34.192515647
 20
75.034309547372217
 30
0.0
 11
-34.192515647000107
 21
83.404241076010749
 31
0.0
  0
LINE
  8
DETAIL
  6
CONTINUOUS
 62
     5
 10
-31.501790727500008
 20
85.390992633308983
 30
0.0
 11
-31.501790727500179
 21
95.17000784445915
 31
0.0
  0
LINE
  8
DETAIL
  6
CONTINUOUS
 62
     5
 10
-43.958850540000171
 20
118.0909978994591
 30
0.0
 11
-45.453697717500177
 21
118.0909978994591
 31
0.0
  0
LINE
  8
DETAIL
  6
CONTINUOUS
 62
     5
 10
-43.958850540000171
 20
127.0600809644591
 30
0.0
 11
-45.453697717500177
 21
127.0600809644591
 31
0.0
  0
LINE
  8
DETAIL
  6
CONTINUOUS
 62
     5
 10
-17.549883737500181
 20
127.0600809644591
 30
0.0
 11
-17.549883737500181
 21
118.0909978994591
 31
0.0
  0
LINE
  8
DETAIL
  6
CONTINUOUS
 62
     5
 10
-45.453697717500177
 20
127.0600809644591
 30
0.0
 11
-45.453697717500177
 21
118.0909978994591
 31
0.0
  0
LINE
  8
DETAIL
  6
CONTINUOUS
 62
     5
 10
-17.549883737500181
 20
127.0600809644591
 30
0.0
 11
-19.04473091500023
 21
127.0600809644591
 31
0.0
  0
LINE
  8
DETAIL
  6
CONTINUOUS
 62
     5
 10
-17.549883737500181
 20
118.0909978994591
 30
0.0
 11
-19.04473091500023
 21
118.0909978994591
 31
0.0
  0
ARC
  8
DETAIL
  6
CONTINUOUS
 62
     5
 10
-40.969156185000202
 20
127.0600809644591
 30
0.0
 40
2.9896943550000001
 50
90.0
 51
180.0
  0
ARC
  8
DETAIL
  6
CONTINUOUS
 62
     5
 10
-40.969156185000202
 20
118.0909978994591
 30
0.0
 40
2.9896943550000001
 50
180.0
 51
270.0
  0
ARC
  8
DETAIL
  6
CONTINUOUS
 62
     5
 10
-22.034425270000209
 20
118.0909978994591
 30
0.0
 40
2.9896943550000001
 50
270.0
 51
0.0
  0
ARC
  8
DETAIL
  6
CONTINUOUS
 62
     5
 10
-22.034425270000209
 20
127.0600809644591
 30
0.0
 40
2.9896943550000001
 50
0.0
 51
90.0
  0
LINE
  8
DETAIL
  6
CONTINUOUS
 62
     5
 10
-43.958850540000171
 20
127.0600809644591
 30
0.0
 11
-43.958850540000171
 21
118.0909978994591
 31
0.0
  0
LINE
  8
DETAIL
  6
CONTINUOUS
 62
     5
 10
-19.04473091500023
 20
127.0600809644591
 30
0.0
 11
-19.04473091500023
 21
118.0909978994591
 31
0.0
  0
LINE
  8
DETAIL
  6
CONTINUOUS
 62
     5
 10
-22.034425270000209
 20
115.1013035444591
 30
0.0
 11
-40.969156185000202
 21
115.1013035444591
 31
0.0
  0
LINE
  8
DETAIL
  6
CONTINUOUS
 62
     5
 10
-22.034425270000209
 20
130.04977531945909
 30
0.0
 11
-40.969156185000202
 21
130.04977531945909
 31
0.0
  0
LINE
  8
DETAIL
  6
CONTINUOUS
 62
     5
 10
-25.639202115208661
 20
113.232501981121
 30
0.0
 11
-26.738907974322899
 21
95.637208235293642
 31
0.0
  0
LINE
  8
DETAIL
  6
CONTINUOUS
 62
     5
 10
-37.364379339791583
 20
113.232501981121
 30
0.0
 11
-36.264673480677232
 21
95.637208235293642
 31
0.0
  0
ARC
  8
DETAIL
  6
CONTINUOUS
 62
     5
 10
-39.353627446380457
 20
113.10817397445911
 30
0.0
 40
1.99312957
 50
3.5763343750046772
 51
90.0
  0
ARC
  8
DETAIL
  6
CONTINUOUS
 62
     5
 10
-23.649954008619719
 20
113.10817397445911
 30
0.0
 40
1.993129569999994
 50
90.0
 51
176.42366562499529
  0
LINE
  8
DETAIL
  6
CONTINUOUS
 62
     5
 10
-31.501790727500179
 20
110.6167620119591
 30
0.0
 11
-37.200895591718961
 21
110.6167620119591
 31
0.0
  0
LINE
  8
DETAIL
  6
CONTINUOUS
 62
     5
 10
-31.501790727500179
 20
109.1219148344592
 30
0.0
 11
-37.107467643125183
 21
109.1219148344592
 31
0.0
  0
LINE
  8
DETAIL
  6
CONTINUOUS
 62
     5
 10
-25.98954176046874
 20
107.6270676569591
 30
0.0
 11
-31.501790727500179
 21
107.6270676569591
 31
0.0
  0
LINE
  8
DETAIL
  6
CONTINUOUS
 62
     5
 10
-26.082969709062699
 20
106.13222047945921
 30
0.0
 11
-31.501790727500179
 21
106.13222047945921
 31
0.0
  0
LINE
  8
DETAIL
  6
CONTINUOUS
 62
     5
 10
-31.501790727500179
 20
104.6373733019591
 30
0.0
 11
-36.827183797343928
 21
104.6373733019591
 31
0.0
  0
LINE
  8
DETAIL
  6
CONTINUOUS
 62
     5
 10
-31.501790727500179
 20
103.1425261244592
 30
0.0
 11
-36.733755848750206
 21
103.1425261244592
 31
0.0
  0
LINE
  8
DETAIL
  6
CONTINUOUS
 62
     5
 10
-26.36325355484394
 20
101.6476789469591
 30
0.0
 11
-31.501790727500179
 21
101.6476789469591
 31
0.0
  0
LINE
  8
DETAIL
  6
CONTINUOUS
 62
     5
 10
-31.501790727500179
 20
110.6167620119591
 30
0.0
 11
-31.501790727500179
 21
109.1219148344592
 31
0.0
  0
LINE
  8
DETAIL
  6
CONTINUOUS
 62
     5
 10
-31.501790727500179
 20
107.6270676569591
 30
0.0
 11
-31.501790727500179
 21
106.13222047945921
 31
0.0
  0
LINE
  8
DETAIL
  6
CONTINUOUS
 62
     5
 10
-31.501790727500179
 20
104.6373733019591
 30
0.0
 11
-31.501790727500179
 21
103.1425261244592
 31
0.0
  0
LINE
  8
DETAIL
  6
CONTINUOUS
 62
     5
 10
-31.501790727500179
 20
101.6476789469591
 30
0.0
 11
-31.501790727500179
 21
100.152831769459
 31
0.0
  0
LINE
  8
DETAIL
  6
CONTINUOUS
 62
     5
 10
-43.958850540000171
 20
118.0909978994591
 30
0.0
 11
-45.453697717500177
 21
118.0909978994591
 31
0.0
  0
LINE
  8
DETAIL
  6
CONTINUOUS
 62
     5
 10
-43.958850540000171
 20
127.0600809644591
 30
0.0
 11
-45.453697717500177
 21
127.0600809644591
 31
0.0
  0
LINE
  8
DETAIL
  6
CONTINUOUS
 62
     5
 10
-17.549883737500181
 20
127.0600809644591
 30
0.0
 11
-17.549883737500181
 21
118.0909978994591
 31
0.0
  0
LINE
  8
DETAIL
  6
CONTINUOUS
 62
     5
 10
-45.453697717500177
 20
127.0600809644591
 30
0.0
 11
-45.453697717500177
 21
118.0909978994591
 31
0.0
  0
LINE
  8
DETAIL
  6
CONTINUOUS
 62
     5
 10
-17.549883737500181
 20
127.0600809644591
 30
0.0
 11
-19.04473091500023
 21
127.0600809644591
 31
0.0
  0
LINE
  8
DETAIL
  6
CONTINUOUS
 62
     5
 10
-17.549883737500181
 20
118.0909978994591
 30
0.0
 11
-19.04473091500023
 21
118.0909978994591
 31
0.0
  0
ARC
  8
DETAIL
  6
CONTINUOUS
 62
     5
 10
-40.969156185000202
 20
127.0600809644591
 30
0.0
 40
2.9896943550000001
 50
90.0
 51
180.0
  0
ARC
  8
DETAIL
  6
CONTINUOUS
 62
     5
 10
-40.969156185000202
 20
118.0909978994591
 30
0.0
 40
2.9896943550000001
 50
180.0
 51
270.0
  0
ARC
  8
DETAIL
  6
CONTINUOUS
 62
     5
 10
-22.034425270000209
 20
118.0909978994591
 30
0.0
 40
2.9896943550000001
 50
270.0
 51
0.0
  0
ARC
  8
DETAIL
  6
CONTINUOUS
 62
     5
 10
-22.034425270000209
 20
127.0600809644591
 30
0.0
 40
2.9896943550000001
 50
0.0
 51
90.0
  0
LINE
  8
DETAIL
  6
CONTINUOUS
 62
     5
 10
-43.958850540000171
 20
127.0600809644591
 30
0.0
 11
-43.958850540000171
 21
118.0909978994591
 31
0.0
  0
LINE
  8
DETAIL
  6
CONTINUOUS
 62
     5
 10
-19.04473091500023
 20
127.0600809644591
 30
0.0
 11
-19.04473091500023
 21
118.0909978994591
 31
0.0
  0
LINE
  8
DETAIL
  6
CONTINUOUS
 62
     5
 10
-22.034425270000209
 20
115.1013035444591
 30
0.0
 11
-40.969156185000202
 21
115.1013035444591
 31
0.0
  0
LINE
  8
DETAIL
  6
CONTINUOUS
 62
     5
 10
-22.034425270000209
 20
130.04977531945909
 30
0.0
 11
-40.969156185000202
 21
130.04977531945909
 31
0.0
  0
LINE
  8
DETAIL
  6
CONTINUOUS
 62
     5
 10
-31.501790727500008
 20
75.034309547372217
 30
0.0
 11
-31.501790727500119
 21
83.404241076008446
 31
0.0
  0
LINE
  8
DETAIL
  6
CONTINUOUS
 62
     5
 10
-31.501790727500179
 20
98.657984591959135
 30
0.0
 11
-31.501790727500179
 21
97.163137414459001
 31
0.0
  0
LINE
  8
DETAIL
  6
CONTINUOUS
 62
     5
 10
-31.501790727500179
 20
97.163137414459001
 30
0.0
 11
-36.36004405437518
 21
97.163137414459001
 31
0.0
  0
LINE
  8
DETAIL
  6
CONTINUOUS
 62
     5
 10
-31.501790727500179
 20
98.657984591959135
 30
0.0
 11
-36.453472002968972
 21
98.657984591959135
 31
0.0
  0
LINE
  8
DETAIL
  6
CONTINUOUS
 62
     5
 10
-26.456681503437661
 20
100.152831769459
 30
0.0
 11
-31.501790727500179
 21
100.152831769459
 31
0.0
  0
ARC
  8
DETAIL
  6
CONTINUOUS
 62
     5
 10
-27.23622000097026
 20
95.668290236959137
 30
0.0
 40
0.4982823925001156
 50
270.0
 51
356.42366562499529
  0
ARC
  8
DETAIL
  6
CONTINUOUS
 62
     5
 10
-35.767361454029867
 20
95.668290236959137
 30
0.0
 40
0.4982823925
 50
183.57633437500459
 51
270.0
  0
LINE
  8
DETAIL
  6
CONTINUOUS
 62
     5
 10
-35.767361454029867
 20
95.17000784445915
 30
0.0
 11
-27.23622000097026
 21
95.17000784445915
 31
0.0
  0
LINE
  8
NOTE
  6
CONTINUOUS
 62
     4
 10
75.042358875000033
 20
-14.94847177499992
 30
0.0
 11
75.042358875000033
 21
2.6105641696376551
 31
0.0
  0
LINE
  8
NOTE
  6
CONTINUOUS
 62
     4
 10
68.6688013761717
 20
-3.9862591400003571
 30
0.0
 11
81.415916373828367
 21
-3.9862591400003571
 31
0.0
  0
LINE
  8
NOTE
  6
CONTINUOUS
 62
     4
 10
-68.592345024674898
 20
-3.9862591400001288
 30
0.0
 11
-81.49237272532514
 21
-3.9862591400001288
 31
0.0
  0
LINE
  8
NOTE
  6
CONTINUOUS
 62
     4
 10
-75.042358875000033
 20
-14.94847177499992
 30
0.0
 11
-75.042358875000033
 21
3.5017945794188559
 31
0.0
  0
LINE
  8
BASIS
  6
DASHDOT
 62
     6
 10
125.4561247050906
 20
-9.9656478500000958
 30
0.0
 11
-125.4561247050906
 21
-9.9656478500000958
 31
0.0
  0
LINE
  8
SIZE
  6
CONTINUOUS
 62
    30
 10
84.999957397372214
 20
94.037744762372299
 30
0.0
 11
84.999957397372214
 21
453.60293566668719
 31
0.0
  0
LINE
  8
SIZE
  6
CONTINUOUS
 62
    30
 10
-84.99995739737227
 20
94.037744762372299
 30
0.0
 11
-84.999957397372214
 21
453.60293566668719
 31
0.0
  0
LINE
  8
SIZE
  6
CONTINUOUS
 62
    30
 10
72.999957397372214
 20
433.60293566668719
 30
0.0
 11
-72.999957397372214
 21
433.60293566668719
 31
0.0
  0
CIRCLE
  8
SIZE
  6
CONTINUOUS
 62
    30
 10
84.999957397372214
 20
433.60293566668719
 30
0.0
 40
6.0
  0
LINE
  8
SIZE
  6
CONTINUOUS
 62
    30
 10
84.999957397372214
 20
433.60293566668719
 30
0.0
 11
72.999957397372214
 21
433.60293566668719
 31
0.0
  0
CIRCLE
  8
SIZE
  6
CONTINUOUS
 62
    30
 10
-84.999957397372214
 20
433.60293566668719
 30
0.0
 40
6.0
  0
LINE
  8
SIZE
  6
CONTINUOUS
 62
    30
 10
-84.999957397372214
 20
433.60293566668719
 30
0.0
 11
-72.999957397372214
 21
433.60293566668719
 31
0.0
  0
TEXT
  8
SIZE
  6
CONTINUOUS
 62
    30
 10
-105.0514285714286
 20
458.60293566668719
 30
0.0
 40
64.0
  1
□170
 41
0.9
 72
     1
 11
0.0
 21
458.60293566668719
 31
0.0
  0
LINE
  8
OUTLINE
  6
CONTINUOUS
 62
     3
 10
-84.003368174960869
 20
-94.965605247372054
 30
0.0
 11
84.003392612372224
 21
-94.965605247372054
 31
0.0
  0
LINE
  8
OUTLINE
  6
CONTINUOUS
 62
     3
 10
-12.483152657358289
 20
-94.965635331525959
 30
0.0
 11
-12.48315246704863
 21
-98.985127586649128
 31
0.0
  0
ARC
  8
OUTLINE
  6
CONTINUOUS
 62
     3
 10
-11.486544446683411
 20
-98.984932569683806
 30
0.0
 40
0.9966098936081126
 50
180.0112100753004
 51
269.9887899205014
  0
ARC
  8
OUTLINE
  6
CONTINUOUS
 62
     3
 10
84.003392612372224
 20
74.037744762372299
 30
0.0
 40
0.996564785
 50
0.0
 51
90.0
  0
ARC
  8
OUTLINE
  6
CONTINUOUS
 62
     3
 10
-84.003392612372224
 20
74.037744762372299
 30
0.0
 40
0.996564785
 50
90.0
 51
180.0
  0
ARC
  8
OUTLINE
  6
CONTINUOUS
 62
     3
 10
84.003392612372224
 20
-93.969040462372149
 30
0.0
 40
0.996564785
 50
270.0
 51
0.0
  0
LINE
  8
OUTLINE
  6
CONTINUOUS
 62
     3
 10
-84.604810503991985
 20
-66.969153552000193
 30
0.0
 11
-84.601331483372178
 21
-67.766405380000037
 31
0.0
  0
ARC
  8
OUTLINE
  6
CONTINUOUS
 62
     3
 10
-84.003392612372224
 20
-93.96904045983969
 30
0.0
 40
0.99656478500001
 50
180.0
 51
270.00140498696408
  0
LINE
  8
OUTLINE
  6
CONTINUOUS
 62
     3
 10
-84.99995739737227
 20
-67.766405380000037
 30
0.0
 11
-84.99995739737227
 21
-93.96904045983969
 31
0.0
  0
LINE
  8
OUTLINE
  6
CONTINUOUS
 62
     3
 10
84.604810503992027
 20
-67.766405380000037
 30
0.0
 11
84.601331483372221
 21
-66.969153552000193
 31
0.0
  0
LINE
  8
OUTLINE
  6
CONTINUOUS
 62
     3
 10
84.999957397372214
 20
-66.969153552000193
 30
0.0
 11
84.999957397372214
 21
74.037744762372299
 31
0.0
  0
LINE
  8
OUTLINE
  6
CONTINUOUS
 62
     3
 10
84.999957397372214
 20
-93.969040462372149
 30
0.0
 11
84.999957397372214
 21
-67.766405380000037
 31
0.0
  0
ARC
  8
OUTLINE
  6
CONTINUOUS
 62
     3
 10
11.486587682048709
 20
-98.98497580504872
 30
0.0
 40
0.996564785
 50
270.0
 51
0.0
  0
LINE
  8
OUTLINE
  6
CONTINUOUS
 62
     3
 10
12.48315246704874
 20
-98.985127586649128
 30
0.0
 11
12.4831526574651
 21
-94.965605247372054
 31
0.0
  0
LINE
  8
OUTLINE
  6
CONTINUOUS
 62
     3
 10
15.60212329356284
 20
-94.965544534752198
 30
0.0
 11
15.60224723612583
 21
-94.965578274250333
 31
0.0
  0
LINE
  8
OUTLINE
  6
CONTINUOUS
 62
     3
 10
-11.486587682048651
 20
-99.981540590048638
 30
0.0
 11
11.486587682048709
 21
-99.981540590048638
 31
0.0
  0
LINE
  8
OUTLINE
  6
CONTINUOUS
 62
     3
 10
-84.99995739737227
 20
74.037744762372299
 30
0.0
 11
-84.99995739737227
 21
-66.969153552000193
 31
0.0
  0
LINE
  8
OUTLINE
  6
CONTINUOUS
 62
     3
 10
84.003392612372224
 20
75.034309547372217
 30
0.0
 11
-84.003392612372224
 21
75.034309547372217
 31
0.0
  0
LINE
  8
NOTE
  6
CONTINUOUS
 62
     4
 10
-31.501790727499952
 20
71.071138401677217
 30
0.0
 11
-31.501790727500069
 21
79.441069930313461
 31
0.0
  0
CIRCLE
  8
DETAIL
  6
CONTINUOUS
 62
     5
 10
0.0
 20
0.0
 30
0.0
 40
23.0
  0
CIRCLE
  8
DETAIL
  6
CONTINUOUS
 62
     5
 10
0.0
 20
0.0
 30
0.0
 40
47.5
  0
LINE
  8
DETAIL
  6
CONTINUOUS
 62
     5
 10
84.999957397372214
 20
-66.969153552000193
 30
0.0
 11
-84.99995739737227
 21
-66.969153552000193
 31
0.0
  0
LINE
  8
DETAIL
  6
CONTINUOUS
 62
     5
 10
-84.99995739737227
 20
-67.766405380000037
 30
0.0
 11
84.999957397372214
 21
-67.766405380000037
 31
0.0
  0
LINE
  8
SIZE
  6
CONTINUOUS
 62
    30
 10
75.042358875000033
 20
20.996564784999919
 30
0.0
 11
75.042358875000033
 21
336.25020528350092
 31
0.0
  0
LINE
  8
SIZE
  6
CONTINUOUS
 62
    30
 10
-75.042358875000033
 20
20.996564784999919
 30
0.0
 11
-75.042358875000033
 21
336.25020528350092
 31
0.0
  0
LINE
  8
SIZE
  6
CONTINUOUS
 62
    30
 10
63.042358875000048
 20
316.25020528350092
 30
0.0
 11
-63.042358874999991
 21
316.25020528350092
 31
0.0
  0
CIRCLE
  8
SIZE
  6
CONTINUOUS
 62
    30
 10
75.042358875000033
 20
316.25020528350092
 30
0.0
 40
6.0
  0
LINE
  8
SIZE
  6
CONTINUOUS
 62
    30
 10
75.042358875000033
 20
316.25020528350092
 30
0.0
 11
63.042358875000048
 21
316.25020528350092
 31
0.0
  0
CIRCLE
  8
SIZE
  6
CONTINUOUS
 62
    30
 10
-75.042358875000033
 20
316.25020528350092
 30
0.0
 40
6.0
  0
LINE
  8
SIZE
  6
CONTINUOUS
 62
    30
 10
-75.042358875000033
 20
316.25020528350092
 30
0.0
 11
-63.042358874999991
 21
316.25020528350092
 31
0.0
  0
TEXT
  8
SIZE
  6
CONTINUOUS
 62
    30
 10
-68.571428571428569
 20
341.25020528350092
 30
0.0
 40
64.0
  1
150
 41
0.9
 72
     1
 11
0.0
 21
341.25020528350092
 31
0.0
  0
LINE
  8
SIZE
  6
CONTINUOUS
 62
    30
 10
-104.0033926123722
 20
75.034309547372217
 30
0.0
 11
-288.56918076702277
 21
75.034309547372288
 31
0.0
  0
LINE
  8
SIZE
  6
CONTINUOUS
 62
    30
 10
-145.45612470509059
 20
0.0
 30
0.0
 11
-288.56918076702277
 21
0.0000000000000568
 31
0.0
  0
LINE
  8
SIZE
  6
CONTINUOUS
 62
    30
 10
-268.56918076702277
 20
87.034309547372303
 30
0.0
 11
-268.56918076702277
 21
99.034309547372288
 31
0.0
  0
LINE
  8
SIZE
  6
CONTINUOUS
 62
    30
 10
-268.56918076702277
 20
-11.99999999999997
 30
0.0
 11
-268.56918076702277
 21
-23.999999999999972
 31
0.0
  0
LINE
  8
SIZE
  6
CONTINUOUS
 62
    30
 10
-268.56918076702277
 20
75.034309547372288
 30
0.0
 11
-268.56918076702277
 21
0.0000000000000284
 31
0.0
  0
CIRCLE
  8
SIZE
  6
CONTINUOUS
 62
    30
 10
-268.56918076702277
 20
75.034309547372288
 30
0.0
 40
6.0
  0
LINE
  8
SIZE
  6
CONTINUOUS
 62
    30
 10
-268.56918076702277
 20
75.034309547372288
 30
0.0
 11
-268.56918076702277
 21
87.034309547372303
 31
0.0
  0
CIRCLE
  8
SIZE
  6
CONTINUOUS
 62
    30
 10
-268.56918076702277
 20
0.0000000000000284
 30
0.0
 40
6.0
  0
LINE
  8
SIZE
  6
CONTINUOUS
 62
    30
 10
-268.56918076702277
 20
0.0000000000000284
 30
0.0
 11
-268.56918076702277
 21
-11.99999999999997
 31
0.0
  0
TEXT
  8
SIZE
  6
CONTINUOUS
 62
    30
 10
-293.56918076702277
 20
-9.1114166548853106
 30
0.0
 40
64.0
  1
75
 50
90.0
 41
0.9
 72
     1
 11
-293.56918076702277
 21
37.517154773686123
 31
0.0
  0
LINE
  8
SIZE
  6
CONTINUOUS
 62
    30
 10
-145.45612470509059
 20
0.0
 30
0.0
 11
-288.56918076702277
 21
0.0000000000000568
 31
0.0
  0
LINE
  8
SIZE
  6
CONTINUOUS
 62
    30
 10
-145.45612470509059
 20
-9.9656478500000958
 30
0.0
 11
-288.56918076702277
 21
-9.9656478500000407
 31
0.0
  0
LINE
  8
SIZE
  6
CONTINUOUS
 62
    30
 10
-268.56918076702277
 20
12.00000000000003
 30
0.0
 11
-268.56918076702277
 21
24.000000000000028
 31
0.0
  0
LINE
  8
SIZE
  6
CONTINUOUS
 62
    30
 10
-268.56918076702277
 20
-21.965647850000039
 30
0.0
 11
-268.56918076702277
 21
-166.25136213571429
 31
0.0
  0
LINE
  8
SIZE
  6
CONTINUOUS
 62
    30
 10
-268.56918076702277
 20
0.0000000000000284
 30
0.0
 11
-268.56918076702277
 21
-9.9656478500000407
 31
0.0
  0
CIRCLE
  8
SIZE
  6
CONTINUOUS
 62
    30
 10
-268.56918076702277
 20
0.0000000000000284
 30
0.0
 40
6.0
  0
LINE
  8
SIZE
  6
CONTINUOUS
 62
    30
 10
-268.56918076702277
 20
0.0000000000000284
 30
0.0
 11
-268.56918076702277
 21
12.00000000000003
 31
0.0
  0
CIRCLE
  8
SIZE
  6
CONTINUOUS
 62
    30
 10
-268.56918076702277
 20
-9.9656478500000407
 30
0.0
 40
6.0
  0
LINE
  8
SIZE
  6
CONTINUOUS
 62
    30
 10
-268.56918076702277
 20
-9.9656478500000407
 30
0.0
 11
-268.56918076702277
 21
-21.965647850000039
 31
0.0
  0
TEXT
  8
SIZE
  6
CONTINUOUS
 62
    30
 10
-293.56918076702277
 20
-141.25136213571429
 30
0.0
 40
64.0
  1
10
 50
90.0
 41
0.9
 72
     1
 11
-293.56918076702277
 21
-100.10850499285721
 31
0.0
  0
LINE
  8
SIZE
  6
CONTINUOUS
 62
    30
 10
-100.0251828
 20
-3.9862591400001288
 30
0.0
 11
-182.66656734869321
 21
-3.9862591400001008
 31
0.0
  0
LINE
  8
SIZE
  6
CONTINUOUS
 62
    30
 10
-145.45612470509059
 20
-9.9656478500000958
 30
0.0
 11
-182.66656734869321
 21
-9.9656478500000674
 31
0.0
  0
LINE
  8
SIZE
  6
CONTINUOUS
 62
    30
 10
-162.66656734869321
 20
8.0137408599998992
 30
0.0
 11
-162.66656734869321
 21
20.013740859999871
 31
0.0
  0
LINE
  8
SIZE
  6
CONTINUOUS
 62
    30
 10
-162.66656734869321
 20
-21.965647850000082
 30
0.0
 11
-162.66656734869321
 21
-119.6227907071429
 31
0.0
  0
LINE
  8
SIZE
  6
CONTINUOUS
 62
    30
 10
-162.66656734869321
 20
-3.9862591400001008
 30
0.0
 11
-162.66656734869321
 21
-9.9656478500000958
 31
0.0
  0
CIRCLE
  8
SIZE
  6
CONTINUOUS
 62
    30
 10
-162.66656734869321
 20
-3.9862591400001008
 30
0.0
 40
6.0
  0
LINE
  8
SIZE
  6
CONTINUOUS
 62
    30
 10
-162.66656734869321
 20
-3.9862591400001008
 30
0.0
 11
-162.66656734869321
 21
8.0137408599998992
 31
0.0
  0
CIRCLE
  8
SIZE
  6
CONTINUOUS
 62
    30
 10
-162.66656734869321
 20
-9.9656478500000958
 30
0.0
 40
6.0
  0
LINE
  8
SIZE
  6
CONTINUOUS
 62
    30
 10
-162.66656734869321
 20
-9.9656478500000958
 30
0.0
 11
-162.66656734869321
 21
-21.965647850000082
 31
0.0
  0
TEXT
  8
SIZE
  6
CONTINUOUS
 62
    30
 10
-187.66656734869321
 20
-94.622790707142968
 30
0.0
 40
64.0
  1
6
 50
90.0
 41
0.9
 72
     1
 11
-187.66656734869321
 21
-76.794219278571546
 31
0.0
  0
LINE
  8
SIZE
  6
CONTINUOUS
 62
    30
 10
-104.0033681749609
 20
-94.965605247372054
 30
0.0
 11
-145.14600761144911
 21
-94.965605247372054
 31
0.0
  0
LINE
  8
SIZE
  6
CONTINUOUS
 62
    30
 10
-20.0
 20
-99.981540590048638
 30
0.0
 11
-145.14600761144899
 21
-99.981540590048624
 31
0.0
  0
LINE
  8
SIZE
  6
CONTINUOUS
 62
    30
 10
-125.14600761144899
 20
-82.965605247372068
 30
0.0
 11
-125.14600761144899
 21
-70.965605247372068
 31
0.0
  0
LINE
  8
SIZE
  6
CONTINUOUS
 62
    30
 10
-125.14600761144899
 20
-111.9815405900486
 30
0.0
 11
-125.14600761144909
 21
-212.38154059004859
 31
0.0
  0
LINE
  8
SIZE
  6
CONTINUOUS
 62
    30
 10
-125.14600761144899
 20
-94.965605247372054
 30
0.0
 11
-125.14600761144899
 21
-99.981540590048624
 31
0.0
  0
CIRCLE
  8
SIZE
  6
CONTINUOUS
 62
    30
 10
-125.14600761144899
 20
-94.965605247372054
 30
0.0
 40
6.0
  0
LINE
  8
SIZE
  6
CONTINUOUS
 62
    30
 10
-125.14600761144899
 20
-94.965605247372054
 30
0.0
 11
-125.14600761144899
 21
-82.965605247372068
 31
0.0
  0
CIRCLE
  8
SIZE
  6
CONTINUOUS
 62
    30
 10
-125.14600761144899
 20
-99.981540590048624
 30
0.0
 40
6.0
  0
LINE
  8
SIZE
  6
CONTINUOUS
 62
    30
 10
-125.14600761144899
 20
-99.981540590048624
 30
0.0
 11
-125.14600761144899
 21
-111.9815405900486
 31
0.0
  0
TEXT
  8
SIZE
  6
CONTINUOUS
 62
    30
 10
-150.14600761144899
 20
-187.3815405900487
 30
0.0
 40
64.0
  1
5
 50
90.0
 41
0.9
 72
     1
 11
-150.14600761144899
 21
-168.18154059004871
 31
0.0
  0
LINE
  8
SIZE
  6
CONTINUOUS
 62
    30
 10
315.12406946658348
 20
-138.20342602654361
 30
0.0
 11
54.489963546136721
 21
-23.897570435939461
 31
0.0
  0
LINE
  8
SIZE
  6
CONTINUOUS
 62
    30
 10
-54.489963546136721
 20
23.897570435939461
 30
0.0
 11
-65.479536026029905
 21
28.717248507053309
 31
0.0
  0
TEXT
  8
SIZE
  6
CONTINUOUS
 62
    30
 10
156.07741002053419
 20
-41.15199852402349
 30
0.0
 40
64.0
  1
φ95
 50
336.31926715310823
 41
0.9
 72
     1
 11
235.7047123319883
 21
-76.074008776437068
 31
0.0
  0
LINE
  8
SIZE
  6
CONTINUOUS
 62
    30
 10
-43.500391066243651
 20
19.077892364825601
 30
0.0
 11
43.500391066243651
 21
-19.077892364825601
 31
0.0
  0
CIRCLE
  8
SIZE
  6
CONTINUOUS
 62
    30
 10
-43.500391066243651
 20
19.077892364825601
 30
0.0
 40
6.0
  0
LINE
  8
SIZE
  6
CONTINUOUS
 62
    30
 10
-43.500391066243651
 20
19.077892364825601
 30
0.0
 11
-54.489963546136778
 21
23.897570435939461
 31
0.0
  0
CIRCLE
  8
SIZE
  6
CONTINUOUS
 62
    30
 10
43.500391066243651
 20
-19.077892364825601
 30
0.0
 40
6.0
  0
LINE
  8
SIZE
  6
CONTINUOUS
 62
    30
 10
43.500391066243651
 20
-19.077892364825601
 30
0.0
 11
54.489963546136778
 21
-23.897570435939461
 31
0.0
  0
LINE
  8
SIZE
  6
CONTINUOUS
 62
    30
 10
322.79446329016292
 20
93.066308267394845
 30
0.0
 11
33.630142671410908
 21
9.6960561003196517
 31
0.0
  0
LINE
  8
SIZE
  6
CONTINUOUS
 62
    30
 10
-33.630142671410908
 20
-9.6960561003196517
 30
0.0
 11
-45.160477301608971
 21
-13.02041819185783
 31
0.0
  0
TEXT
  8
SIZE
  6
CONTINUOUS
 62
    30
 10
141.09628911668059
 20
66.698424587092433
 30
0.0
 40
64.0
  1
φ46
 50
16.083035903493059
 41
0.9
 72
     1
 11
223.32404693660709
 21
90.405875388461766
 31
0.0
  0
LINE
  8
SIZE
  6
CONTINUOUS
 62
    30
 10
-22.099808041212889
 20
-6.3716940087815033
 30
0.0
 11
22.099808041212889
 21
6.3716940087815033
 31
0.0
  0
CIRCLE
  8
SIZE
  6
CONTINUOUS
 62
    30
 10
-22.099808041212889
 20
-6.3716940087815033
 30
0.0
 40
6.0
  0
LINE
  8
SIZE
  6
CONTINUOUS
 62
    30
 10
-22.099808041212889
 20
-6.3716940087815033
 30
0.0
 11
-33.630142671410908
 21
-9.6960561003196517
 31
0.0
  0
CIRCLE
  8
SIZE
  6
CONTINUOUS
 62
    30
 10
22.099808041212889
 20
6.3716940087815033
 30
0.0
 40
6.0
  0
LINE
  8
SIZE
  6
CONTINUOUS
 62
    30
 10
22.099808041212889
 20
6.3716940087815033
 30
0.0
 11
33.630142671410908
 21
9.6960561003196801
 31
0.0
  0
TEXT
  8
NOTE
  6
CONTINUOUS
 62
     4
 10
-214.01284885739051
 20
153.51019303722461
 30
0.0
 40
64.0
  1
EL
 41
0.9
 72
     2
 11
-128.98427742881901
 21
153.51019303722461
 31
0.0
  0
TEXT
  8
NOTE
  6
CONTINUOUS
 62
     4
 10
137.70863110701569
 20
-223.40346941624509
 30
0.0
 40
64.0
  1
2-φ4×10
 41
0.9
  0
LINE
  8
NOTE
  6
CONTINUOUS
 62
     4
 10
-36.007451256116489
 20
79.310256517444145
 30
0.0
 11
-31.501790727500008
 21
75.034309547372217
 31
0.0
  0
LINE
  8
NOTE
  6
CONTINUOUS
 62
     4
 10
-31.501790727500008
 20
75.034309547372217
 30
0.0
 11
-37.541782876582602
 21
76.484548882454646
 31
0.0
  0
LINE
  8
NOTE
  6
CONTINUOUS
 62
     4
 10
-31.501790727500008
 20
75.034309547372217
 30
0.0
 11
-42.047443405199147
 21
80.76049585252656
 31
0.0
  0
LINE
  8
NOTE
  6
CONTINUOUS
 62
     4
 10
-42.047443405199147
 20
80.76049585252656
 30
0.0
 11
-116.984277428819
 21
121.5101930372246
 31
0.0
  0
LINE
  8
NOTE
  6
CONTINUOUS
 62
     4
 10
-116.984277428819
 20
121.5101930372246
 30
0.0
 11
-214.01284885739051
 21
121.5101930372246
 31
0.0
  0
LINE
  8
NOTE
  6
CONTINUOUS
 62
     4
 10
74.64192451452783
 20
-10.18499704484441
 30
0.0
 11
75.042358875000033
 21
-3.9862591400001288
 31
0.0
  0
LINE
  8
NOTE
  6
CONTINUOUS
 62
     4
 10
75.042358875000033
 20
-3.9862591400001288
 30
0.0
 11
77.79494989009055
 21
-9.5547366692394462
 31
0.0
  0
LINE
  8
NOTE
  6
CONTINUOUS
 62
     4
 10
75.042358875000033
 20
-3.9862591400001288
 30
0.0
 11
77.394515529618261
 21
-15.753474574083731
 31
0.0
  0
LINE
  8
NOTE
  6
CONTINUOUS
 62
     4
 10
77.394515529618261
 20
-15.753474574083731
 30
0.0
 11
128.01656119986231
 21
-269.00213296858919
 31
0.0
  0
LINE
  8
NOTE
  6
CONTINUOUS
 62
     4
 10
128.01656119986231
 20
-269.00213296858919
 30
0.0
 11
532.7937040570049
 21
-269.00213296858919
 31
0.0
  0
CIRCLE
  8
FIX
  6
CONTINUOUS
 62
    11
 10
75.042358875000033
 20
-3.986259140000044
 30
0.0
 40
5.0
  0
CIRCLE
  8
FIX
  6
CONTINUOUS
 62
    11
 10
-75.042358875000033
 20
-3.9862591400001288
 30
0.0
 40
5.0
  0
LINE
  8
SIZE
  6
CONTINUOUS
 62
    30
 10
-31.501790727500069
 20
99.441069930313461
 30
0.0
 11
-31.501790727500069
 21
234.12602169395541
 31
0.0
  0
LINE
  8
SIZE
  6
CONTINUOUS
 62
    30
 10
0.0
 20
129.2854010143142
 30
0.0
 11
0.0
 21
234.12602169395541
 31
0.0
  0
LINE
  8
SIZE
  6
CONTINUOUS
 62
    30
 10
-43.501790727500072
 20
214.12602169395541
 30
0.0
 11
-55.501790727500072
 21
214.12602169395541
 31
0.0
  0
LINE
  8
SIZE
  6
CONTINUOUS
 62
    30
 10
12.0
 20
214.12602169395541
 30
0.0
 11
288.52513542870201
 21
214.12602169395541
 31
0.0
  0
LINE
  8
SIZE
  6
CONTINUOUS
 62
    30
 10
-31.501790727500069
 20
214.12602169395541
 30
0.0
 11
0.0
 21
214.12602169395541
 31
0.0
  0
CIRCLE
  8
SIZE
  6
CONTINUOUS
 62
    30
 10
-31.501790727500069
 20
214.12602169395541
 30
0.0
 40
6.0
  0
LINE
  8
SIZE
  6
CONTINUOUS
 62
    30
 10
-31.501790727500069
 20
214.12602169395541
 30
0.0
 11
-43.501790727500072
 21
214.12602169395541
 31
0.0
  0
CIRCLE
  8
SIZE
  6
CONTINUOUS
 62
    30
 10
0.0
 20
214.12602169395541
 30
0.0
 40
6.0
  0
LINE
  8
SIZE
  6
CONTINUOUS
 62
    30
 10
0.0
 20
214.12602169395541
 30
0.0
 11
12.0
 21
214.12602169395541
 31
0.0
  0
TEXT
  8
SIZE
  6
CONTINUOUS
 62
    30
 10
98.95370685727346
 20
239.12602169395541
 30
0.0
 40
64.0
  1
31.5
 41
0.9
 72
     1
 11
181.23942114298771
 21
239.12602169395541
 31
0.0
  0
ENDSEC
  0
EOF
