  0
SECTION
  2
HEADER
  9
$ACADVER
  1
AC1009
  9
$DWGCODEPAGE
  3
dos932
  9
$INSBASE
 10
0.0
 20
0.0
 30
0.0
  9
$EXTMIN
 10
-349.85960226024139
 20
-252.50242947659351
 30
-0.0015258207003583
  9
$EXTMAX
 10
897.30836102658395
 20
708.8012776905689
 30
0.0000000349246037
  9
$LIMMIN
 10
-2970.0
 20
-2100.0
  9
$LIMMAX
 10
2970.0
 20
2100.0
  9
$ORTHOMODE
 70
     1
  9
$REGENMODE
 70
     1
  9
$FILLMODE
 70
     1
  9
$QTEXTMODE
 70
     0
  9
$MIRRTEXT
 70
     0
  9
$LTSCALE
 40
20.0
  9
$ATTMODE
 70
     1
  9
$TEXTSIZE
 40
64.0
  9
$TRACEWID
 40
0.05
  9
$TEXTSTYLE
  7
STANDARD
  9
$CLAYER
  8
SIZE
  9
$CELTYPE
  6
CONTINUOUS
  9
$CECOLOR
 62
     7
  9
$DIMSCALE
 40
1.0
  9
$DIMASZ
 40
12.0
  9
$DIMEXO
 40
20.0
  9
$DIMDLI
 40
200.0
  9
$DIMRND
 40
0.0
  9
$DIMDLE
 40
0.0
  9
$DIMEXE
 40
20.0
  9
$DIMTP
 40
0.0
  9
$DIMTM
 40
0.0
  9
$DIMTXT
 40
64.0
  9
$DIMCEN
 40
0.09
  9
$DIMTSZ
 40
0.0
  9
$DIMTOL
 70
     0
  9
$DIMLIM
 70
     0
  9
$DIMTIH
 70
     0
  9
$DIMTOH
 70
     0
  9
$DIMSE1
 70
     0
  9
$DIMSE2
 70
     0
  9
$DIMTAD
 70
     1
  9
$DIMZIN
 70
     8
  9
$DIMBLK
  1

  9
$DIMASO
 70
     1
  9
$DIMSHO
 70
     0
  9
$DIMPOST
  1

  9
$DIMAPOST
  1

  9
$DIMALT
 70
     0
  9
$DIMALTD
 70
     2
  9
$DIMALTF
 40
25.399999999999999
  9
$DIMLFAC
 40
1.0
  9
$DIMTOFL
 70
     1
  9
$DIMTVP
 40
0.0
  9
$DIMTIX
 70
     1
  9
$DIMSOXD
 70
     0
  9
$DIMSAH
 70
     0
  9
$DIMBLK1
  1

  9
$DIMBLK2
  1

  9
$DIMSTYLE
  2
STANDARD
  9
$DIMCLRD
 70
     7
  9
$DIMCLRE
 70
     7
  9
$DIMCLRT
 70
     7
  9
$DIMTFAC
 40
1.0
  9
$DIMGAP
 40
25.0
  9
$LUNITS
 70
     2
  9
$LUPREC
 70
     4
  9
$SKETCHINC
 40
0.1
  9
$FILLETRAD
 40
3.0
  9
$AUNITS
 70
     1
  9
$AUPREC
 70
     3
  9
$MENU
  1
ACAD
  9
$ELEVATION
 40
0.0
  9
$PELEVATION
 40
0.0
  9
$THICKNESS
 40
0.0
  9
$LIMCHECK
 70
     0
  9
$CHAMFERA
 40
0.0
  9
$CHAMFERB
 40
0.0
  9
$SKPOLY
 70
     0
  9
$TDCREATE
 40
2453019.623009259
  9
$TDUPDATE
 40
2459356.657942488
  9
$TDINDWG
 40
1.718800706
  9
$TDUSRTIMER
 40
1.718800706
  9
$USRTIMER
 70
     1
  9
$ANGBASE
 50
0.0
  9
$ANGDIR
 70
     0
  9
$PDMODE
 70
     3
  9
$PDSIZE
 40
-2.0
  9
$PLINEWID
 40
0.0
  9
$SPLFRAME
 70
     0
  9
$SPLINETYPE
 70
     6
  9
$SPLINESEGS
 70
     8
  9
$SURFTAB1
 70
     6
  9
$SURFTAB2
 70
     6
  9
$SURFTYPE
 70
     6
  9
$SURFU
 70
     6
  9
$SURFV
 70
     6
  9
$UCSNAME
  2

  9
$UCSORG
 10
0.0
 20
0.0
 30
0.0
  9
$UCSXDIR
 10
1.0
 20
0.0
 30
0.0
  9
$UCSYDIR
 10
0.0
 20
1.0
 30
0.0
  9
$PUCSNAME
  2

  9
$PUCSORG
 10
0.0
 20
0.0
 30
0.0
  9
$PUCSXDIR
 10
1.0
 20
0.0
 30
0.0
  9
$PUCSYDIR
 10
0.0
 20
1.0
 30
0.0
  9
$USERI1
 70
     0
  9
$USERI2
 70
     0
  9
$USERI3
 70
     0
  9
$USERI4
 70
     0
  9
$USERI5
 70
     0
  9
$USERR1
 40
20.0
  9
$USERR2
 40
0.0
  9
$USERR3
 40
0.0
  9
$USERR4
 40
0.0
  9
$USERR5
 40
0.0
  9
$WORLDVIEW
 70
     1
  9
$SHADEDGE
 70
     3
  9
$SHADEDIF
 70
    70
  9
$TILEMODE
 70
     1
  9
$MAXACTVP
 70
    48
  9
$PINSBASE
 10
0.0
 20
0.0
 30
0.0
  9
$PLIMCHECK
 70
     0
  9
$PEXTMIN
 10
-100000000000000000000.0
 20
-100000000000000000000.0
 30
-100000000000000000000.0
  9
$PEXTMAX
 10
100000000000000000000.0
 20
100000000000000000000.0
 30
100000000000000000000.0
  9
$PLIMMIN
 10
0.0
 20
0.0
  9
$PLIMMAX
 10
12.0
 20
9.0
  9
$UNITMODE
 70
     0
  9
$VISRETAIN
 70
     0
  9
$PLINEGEN
 70
     0
  9
$PSLTSCALE
 70
     0
  9
$TREEDEPTH
 70
  3020
  9
$ATTDIA
 70
     0
  9
$ATTREQ
 70
     1
  9
$BLIPMODE
 70
     1
  9
$COORDS
 70
     1
  9
$DRAGMODE
 70
     2
  9
$OSMODE
 70
     0
  9
$HANDLING
 70
     0
  9
$HANDSEED
  5
327
  0
ENDSEC
  0
SECTION
  2
TABLES
  0
TABLE
  2
LTYPE
 70
     2
  0
LTYPE
  2
CONTINUOUS
 70
     0
  3
実線
 72
    65
 73
     0
 40
0.0
  0
LTYPE
  2
DASHDOT
 70
     0
  3
____ _ ____ _ ____ _ ____ _ ____ _ ____ _ ____
 72
    65
 73
     4
 40
5.5
 49
4.0
 49
-0.6
 49
0.3
 49
-0.6
  0
ENDTAB
  0
TABLE
  2
LAYER
 70
    12
  0
LAYER
  2
SIZE
 70
     0
 62
    30
  6
CONTINUOUS
  0
LAYER
  2
BASIS
 70
     0
 62
     6
  6
DASHDOT
  0
LAYER
  2
OUTLINE
 70
     0
 62
     3
  6
CONTINUOUS
  0
LAYER
  2
DETAIL
 70
     0
 62
     5
  6
CONTINUOUS
  0
LAYER
  2
ARRANGE
 70
     0
 62
     1
  6
CONTINUOUS
  0
LAYER
  2
ETC
 70
     0
 62
    61
  6
CONTINUOUS
  0
LAYER
  2
FIX
 70
     0
 62
    11
  6
CONTINUOUS
  0
LAYER
  2
NOTE
 70
     0
 62
     4
  6
CONTINUOUS
  0
LAYER
  2
0
 70
    64
 62
     7
  6
CONTINUOUS
  0
LAYER
  2
DEFPOINTS
 70
    64
 62
     7
  6
CONTINUOUS
  0
LAYER
  2
SERVICESPACE
 70
    64
 62
     2
  6
DASHDOT
  0
LAYER
  2
SYMBOLLINE
 70
    64
 62
    15
  6
CONTINUOUS
  0
ENDTAB
  0
TABLE
  2
STYLE
 70
     1
  0
STYLE
  2
STANDARD
 70
     0
 40
64.0
 41
0.9
 50
0.0
 71
     0
 42
64.0
  3
SIMPLEX.shx
  4
BIGFONT.shx
  0
ENDTAB
  0
TABLE
  2
APPID
 70
    20
  0
APPID
  2
ACAD
 70
     0
  0
APPID
  2
ACADANNOTATIVE
 70
     0
  0
APPID
  2
AUTOCAD_POSTSCRIPT_FIGURE
 70
     0
  0
APPID
  2
ACAD_EXEMPT_FROM_CAD_STANDARDS
 70
     0
  0
APPID
  2
ACAD_PSEXT
 70
     0
  0
APPID
  2
ACAUTHENVIRON
 70
     0
  0
APPID
  2
GENIUS_GENOENT_13
 70
     0
  0
APPID
  2
GENIUS_GENCFG_13
 70
     0
  0
APPID
  2
GENIUS_GENCFG0_13
 70
     0
  0
APPID
  2
GENIUS_GENCFG1_13
 70
     0
  0
APPID
  2
GENIUS_GENCFG2_13
 70
     0
  0
APPID
  2
GENIUS_GENCFG3_13
 70
     0
  0
APPID
  2
GENIUS_GENCFG4_13
 70
     0
  0
APPID
  2
GENIUS_GEVCFG0_13
 70
     0
  0
APPID
  2
CONTENTBLOCKICON
 70
     0
  0
APPID
  2
CONTENTBLOCKDESCRIPTION
 70
     0
  0
APPID
  2
ACAD_NAV_VCDISPLAY
 70
     0
  0
APPID
  2
ACAD_MLEADERVER
 70
     0
  0
APPID
  2
ACDBDYNAMICBLOCKTRUENAME
 70
     0
  0
APPID
  2
ACDBDYNAMICBLOCKGUID
 70
     0
  0
ENDTAB
  0
TABLE
  2
DIMSTYLE
 70
     1
  0
DIMSTYLE
  2
STANDARD
 70
     0
  3

  4

  5

  6

  7

 40
1.0
 41
12.0
 42
20.0
 43
200.0
 44
20.0
 45
0.0
 46
0.0
 47
0.0
 48
0.0
140
64.0
141
0.09
142
0.0
143
25.399999999999999
144
1.0
145
0.0
146
1.0
147
25.0
 71
     0
 72
     0
 73
     0
 74
     0
 75
     0
 76
     0
 77
     1
 78
     8
170
     0
171
     2
172
     1
173
     0
174
     1
175
     0
176
     7
177
     7
178
     7
  0
ENDTAB
  0
TABLE
  2
VIEW
 70
     1
  0
VIEW
  2
ALL
 70
     0
 40
4282.6198079999986
 10
0.0
 20
41.309904000000003
 41
5940.0
 11
0.0
 21
0.0
 31
1.0
 12
0.0
 22
0.0
 32
0.0
 42
50.0
 43
0.0
 44
0.0
 50
0.0
 71
     0
  0
ENDTAB
  0
TABLE
  2
UCS
 70
     0
  0
ENDTAB
  0
TABLE
  2
VPORT
 70
     1
  0
VPORT
  2
*ACTIVE
 70
     0
 10
0.0
 20
0.0
 11
1.0
 21
1.0
 12
273.7243793831712
 22
228.14942410698771
 13
0.0
 23
0.0
 14
1.0
 24
1.0
 15
0.0
 25
0.0
 16
0.0
 26
0.0
 36
1.0
 17
0.0
 27
0.0
 37
0.0
 40
967.74820129342265
 41
1.767337807606264
 42
50.0
 43
0.0
 44
0.0
 50
0.0
 51
0.0
 71
     0
 72
  1000
 73
     1
 74
     3
 75
     0
 76
     0
 77
     0
 78
     0
  0
ENDTAB
  0
ENDSEC
  0
SECTION
  2
BLOCKS
  0
ENDSEC
  0
SECTION
  2
ENTITIES
  0
TEXT
  8
ETC
  6
CONTINUOUS
 62
    61
 10
307.30624161623291
 20
644.56088999437657
 30
0.0
 40
64.0
  1
V-08PTSD8_1
 41
0.9
  0
TEXT
  8
ETC
  6
CONTINUOUS
 62
    61
 10
303.12024761623252
 20
526.60557997954538
 30
0.0
 40
64.0
  1
換気扇
 41
0.9
  0
LINE
  8
BASIS
  6
DASHDOT
 62
     6
 10
0.0
 20
-109.2854010143142
 30
0.0
 11
0.0
 21
109.2854010143142
 31
0.0
  0
LINE
  8
BASIS
  6
DASHDOT
 62
     6
 10
125.4561247050906
 20
0.0
 30
0.0
 11
-125.4561247050906
 21
0.0
 31
0.0
  0
TEXT
  8
ETC
  6
CONTINUOUS
 62
    61
 10
353.82164586478848
 20
418.45680709332009
 30
0.0
 40
40.0
  1
V-08PTSD8
 41
0.9
  0
LINE
  8
SIZE
  6
CONTINUOUS
 62
    30
 10
-22.771505337250119
 20
81.91736019149981
 30
0.0
 11
-22.771505337250119
 21
183.341568320378
 31
0.0
  0
LINE
  8
SIZE
  6
CONTINUOUS
 62
    30
 10
22.771505337249891
 20
81.91736019149981
 30
0.0
 11
22.771505337249891
 21
183.341568320378
 31
0.0
  0
LINE
  8
SIZE
  6
CONTINUOUS
 62
    30
 10
-34.771505337250133
 20
163.341568320378
 30
0.0
 11
-46.771505337250119
 21
163.341568320378
 31
0.0
  0
LINE
  8
SIZE
  6
CONTINUOUS
 62
    30
 10
34.771505337249891
 20
163.341568320378
 30
0.0
 11
269.08167689000362
 21
163.341568320378
 31
0.0
  0
LINE
  8
SIZE
  6
CONTINUOUS
 62
    30
 10
-22.771505337250119
 20
163.341568320378
 30
0.0
 11
22.771505337249891
 21
163.341568320378
 31
0.0
  0
CIRCLE
  8
SIZE
  6
CONTINUOUS
 62
    30
 10
-22.771505337250119
 20
163.341568320378
 30
0.0
 40
6.0
  0
LINE
  8
SIZE
  6
CONTINUOUS
 62
    30
 10
-22.771505337250119
 20
163.341568320378
 30
0.0
 11
-34.771505337250133
 21
163.341568320378
 31
0.0
  0
CIRCLE
  8
SIZE
  6
CONTINUOUS
 62
    30
 10
22.771505337249891
 20
163.341568320378
 30
0.0
 40
6.0
  0
LINE
  8
SIZE
  6
CONTINUOUS
 62
    30
 10
22.771505337249891
 20
163.341568320378
 30
0.0
 11
34.771505337249891
 21
163.341568320378
 31
0.0
  0
TEXT
  8
SIZE
  6
CONTINUOUS
 62
    30
 10
83.075962604289145
 20
199.0082349870446
 30
0.0
 40
64.0
  1
φ46
 41
0.9
 72
     1
 11
168.65310546143201
 21
199.0082349870446
 31
0.0
  0
LINE
  8
SIZE
  6
CONTINUOUS
 62
    30
 10
-47.406402400462873
 20
31.460495027500091
 30
0.0
 11
-47.406402400462873
 21
352.77206025513811
 31
0.0
  0
LINE
  8
SIZE
  6
CONTINUOUS
 62
    30
 10
47.406402400462873
 20
31.460495027500091
 30
0.0
 11
47.406402400462873
 21
352.77206025513811
 31
0.0
  0
LINE
  8
SIZE
  6
CONTINUOUS
 62
    30
 10
-35.406402400462873
 20
332.77206025513811
 30
0.0
 11
35.406402400462873
 21
332.77206025513811
 31
0.0
  0
LINE
  8
SIZE
  6
CONTINUOUS
 62
    30
 10
47.406402400462873
 20
332.77206025513811
 30
0.0
 11
279.44035136092339
 21
332.77206025513811
 31
0.0
  0
CIRCLE
  8
SIZE
  6
CONTINUOUS
 62
    30
 10
-47.406402400462873
 20
332.77206025513811
 30
0.0
 40
6.0
  0
LINE
  8
SIZE
  6
CONTINUOUS
 62
    30
 10
-47.406402400462873
 20
332.77206025513811
 30
0.0
 11
-35.406402400462873
 21
332.77206025513811
 31
0.0
  0
CIRCLE
  8
SIZE
  6
CONTINUOUS
 62
    30
 10
47.406402400462873
 20
332.77206025513811
 30
0.0
 40
6.0
  0
LINE
  8
SIZE
  6
CONTINUOUS
 62
    30
 10
47.406402400462873
 20
332.77206025513811
 30
0.0
 11
35.406402400462873
 21
332.77206025513811
 31
0.0
  0
TEXT
  8
SIZE
  6
CONTINUOUS
 62
    30
 10
90.691779932351992
 20
368.43872692180469
 30
0.0
 40
64.0
  1
φ95
 41
0.9
 72
     1
 11
177.6403513609234
 21
368.43872692180469
 31
0.0
  0
LINE
  8
NOTE
  6
CONTINUOUS
 62
     4
 10
56.0
 20
10.000000000000011
 30
0.0
 11
56.0
 21
-9.999999999999984
 31
0.0
  0
LINE
  8
NOTE
  6
CONTINUOUS
 62
     4
 10
-75.0
 20
10.0
 30
0.0
 11
-75.0
 21
-10.0
 31
0.0
  0
LINE
  8
NOTE
  6
CONTINUOUS
 62
     4
 10
75.0
 20
10.0
 30
0.0
 11
75.0
 21
-10.0
 31
0.0
  0
CIRCLE
  8
FIX
  6
CONTINUOUS
 62
    11
 10
75.0
 20
0.0
 30
0.0
 40
2.5
  0
CIRCLE
  8
FIX
  6
CONTINUOUS
 62
    11
 10
-75.0
 20
0.0
 30
0.0
 40
2.5
  0
LINE
  8
SIZE
  6
CONTINUOUS
 62
    30
 10
-75.0
 20
30.0
 30
0.0
 11
-75.0
 21
493.96413608859382
 31
0.0
  0
LINE
  8
SIZE
  6
CONTINUOUS
 62
    30
 10
75.0
 20
30.0
 30
0.0
 11
75.0
 21
493.96413608859382
 31
0.0
  0
LINE
  8
SIZE
  6
CONTINUOUS
 62
    30
 10
-63.0
 20
473.96413608859382
 30
0.0
 11
63.0
 21
473.96413608859382
 31
0.0
  0
CIRCLE
  8
SIZE
  6
CONTINUOUS
 62
    30
 10
-75.0
 20
473.96413608859382
 30
0.0
 40
6.0
  0
LINE
  8
SIZE
  6
CONTINUOUS
 62
    30
 10
-75.0
 20
473.96413608859382
 30
0.0
 11
-63.0
 21
473.96413608859382
 31
0.0
  0
CIRCLE
  8
SIZE
  6
CONTINUOUS
 62
    30
 10
75.0
 20
473.96413608859382
 30
0.0
 40
6.0
  0
LINE
  8
SIZE
  6
CONTINUOUS
 62
    30
 10
75.0
 20
473.96413608859382
 30
0.0
 11
63.0
 21
473.96413608859382
 31
0.0
  0
TEXT
  8
SIZE
  6
CONTINUOUS
 62
    30
 10
-68.571428571428569
 20
498.96413608859382
 30
0.0
 40
64.0
  1
150
 41
0.9
 72
     1
 11
0.0
 21
498.96413608859382
 31
0.0
  0
LINE
  8
SIZE
  6
CONTINUOUS
 62
    30
 10
-84.999896684752002
 20
-20.405582895492561
 30
0.0
 11
-84.999896684752002
 21
-241.87012389972011
 31
0.0
  0
LINE
  8
SIZE
  6
CONTINUOUS
 62
    30
 10
84.999896684752002
 20
-20.405582895492561
 30
0.0
 11
84.999896684752002
 21
-241.87012389972011
 31
0.0
  0
LINE
  8
SIZE
  6
CONTINUOUS
 62
    30
 10
72.999896684752002
 20
-221.87012389972011
 30
0.0
 11
-72.999896684752002
 21
-221.87012389972011
 31
0.0
  0
LINE
  8
SIZE
  6
CONTINUOUS
 62
    30
 10
-84.999896684752002
 20
-221.87012389972011
 30
0.0
 11
-349.42275382760909
 21
-221.87012389972011
 31
0.0
  0
CIRCLE
  8
SIZE
  6
CONTINUOUS
 62
    30
 10
84.999896684752002
 20
-221.87012389972011
 30
0.0
 40
6.0
  0
LINE
  8
SIZE
  6
CONTINUOUS
 62
    30
 10
84.999896684752002
 20
-221.87012389972011
 30
0.0
 11
72.999896684752002
 21
-221.87012389972011
 31
0.0
  0
CIRCLE
  8
SIZE
  6
CONTINUOUS
 62
    30
 10
-84.999896684752002
 20
-221.87012389972011
 30
0.0
 40
6.0
  0
LINE
  8
SIZE
  6
CONTINUOUS
 62
    30
 10
-84.999896684752002
 20
-221.87012389972011
 30
0.0
 11
-72.999896684752002
 21
-221.87012389972011
 31
0.0
  0
TEXT
  8
SIZE
  6
CONTINUOUS
 62
    30
 10
-328.262753827609
 20
-196.87012389972011
 30
0.0
 40
64.0
  1
□170
 41
0.9
 72
     1
 11
-223.21132525618049
 21
-196.87012389972011
 31
0.0
  0
LINE
  8
SIZE
  6
CONTINUOUS
 62
    30
 10
145.45612470509059
 20
-0.0000000000000071
 30
0.0
 11
342.16942193124771
 21
-0.0000000000000568
 31
0.0
  0
LINE
  8
SIZE
  6
CONTINUOUS
 62
    30
 10
51.5
 20
36.475301695500008
 30
0.0
 11
342.16942193124771
 21
36.47530169549993
 31
0.0
  0
LINE
  8
SIZE
  6
CONTINUOUS
 62
    30
 10
322.16942193124771
 20
48.475301695499937
 30
0.0
 11
322.16942193124771
 21
60.475301695499937
 31
0.0
  0
LINE
  8
SIZE
  6
CONTINUOUS
 62
    30
 10
322.16942193124771
 20
-12.00000000000006
 30
0.0
 11
322.16942193124771
 21
-252.2377552412442
 31
0.0
  0
LINE
  8
SIZE
  6
CONTINUOUS
 62
    30
 10
322.16942193124771
 20
36.475301695499937
 30
0.0
 11
322.16942193124771
 21
-0.0000000000000568
 31
0.0
  0
CIRCLE
  8
SIZE
  6
CONTINUOUS
 62
    30
 10
322.16942193124771
 20
36.475301695499937
 30
0.0
 40
6.0
  0
LINE
  8
SIZE
  6
CONTINUOUS
 62
    30
 10
322.16942193124771
 20
36.475301695499937
 30
0.0
 11
322.16942193124771
 21
48.475301695499937
 31
0.0
  0
CIRCLE
  8
SIZE
  6
CONTINUOUS
 62
    30
 10
322.16942193124771
 20
-0.0000000000000568
 30
0.0
 40
6.0
  0
LINE
  8
SIZE
  6
CONTINUOUS
 62
    30
 10
322.16942193124771
 20
-0.0000000000000568
 30
0.0
 11
322.16942193124771
 21
-12.00000000000006
 31
0.0
  0
TEXT
  8
SIZE
  6
CONTINUOUS
 62
    30
 10
297.16942193124771
 20
-227.2377552412442
 30
0.0
 40
64.0
  1
36.5
 50
90.0
 41
0.9
 72
     1
 11
297.16942193124771
 21
-139.4663266698156
 31
0.0
  0
LINE
  8
SIZE
  6
CONTINUOUS
 62
    30
 10
-103.1376823085691
 20
-50.624280894120602
 30
0.0
 11
-192.2401432614206
 21
-50.624280894120567
 31
0.0
  0
LINE
  8
SIZE
  6
CONTINUOUS
 62
    30
 10
-145.45612470509059
 20
0.0000000000000071
 30
0.0
 11
-192.2401432614206
 21
0.0000000000000142
 31
0.0
  0
LINE
  8
SIZE
  6
CONTINUOUS
 62
    30
 10
-172.2401432614206
 20
-62.624280894120567
 30
0.0
 11
-172.2401432614206
 21
-74.624280894120574
 31
0.0
  0
LINE
  8
SIZE
  6
CONTINUOUS
 62
    30
 10
-172.2401432614206
 20
12.000000000000011
 30
0.0
 11
-172.2401432614206
 21
24.000000000000011
 31
0.0
  0
LINE
  8
SIZE
  6
CONTINUOUS
 62
    30
 10
-172.2401432614206
 20
-50.624280894120567
 30
0.0
 11
-172.2401432614206
 21
0.0000000000000142
 31
0.0
  0
CIRCLE
  8
SIZE
  6
CONTINUOUS
 62
    30
 10
-172.2401432614206
 20
-50.624280894120567
 30
0.0
 40
6.0
  0
LINE
  8
SIZE
  6
CONTINUOUS
 62
    30
 10
-172.2401432614206
 20
-50.624280894120567
 30
0.0
 11
-172.2401432614206
 21
-62.624280894120567
 31
0.0
  0
CIRCLE
  8
SIZE
  6
CONTINUOUS
 62
    30
 10
-172.2401432614206
 20
0.0000000000000142
 30
0.0
 40
6.0
  0
LINE
  8
SIZE
  6
CONTINUOUS
 62
    30
 10
-172.2401432614206
 20
0.0000000000000142
 30
0.0
 11
-172.2401432614206
 21
12.000000000000011
 31
0.0
  0
TEXT
  8
SIZE
  6
CONTINUOUS
 62
    30
 10
-197.2401432614206
 20
-59.597854732774579
 30
0.0
 40
64.0
  1
51
 50
90.0
 41
0.9
 72
     1
 11
-197.2401432614206
 21
-25.312140447060301
 31
0.0
  0
LINE
  8
SIZE
  6
CONTINUOUS
 62
    30
 10
-40.180364780038637
 20
64.508428632500099
 30
0.0
 11
-192.2401432614206
 21
64.508428632500156
 31
0.0
  0
LINE
  8
SIZE
  6
CONTINUOUS
 62
    30
 10
-145.45612470509059
 20
0.0000000000000071
 30
0.0
 11
-192.2401432614206
 21
0.0000000000000142
 31
0.0
  0
LINE
  8
SIZE
  6
CONTINUOUS
 62
    30
 10
-172.2401432614206
 20
-11.999999999999989
 30
0.0
 11
-172.2401432614206
 21
-23.999999999999989
 31
0.0
  0
LINE
  8
SIZE
  6
CONTINUOUS
 62
    30
 10
-172.2401432614206
 20
76.508428632500141
 30
0.0
 11
-172.2401432614206
 21
314.05128577535743
 31
0.0
  0
LINE
  8
SIZE
  6
CONTINUOUS
 62
    30
 10
-172.2401432614206
 20
0.0000000000000142
 30
0.0
 11
-172.2401432614206
 21
64.508428632500156
 31
0.0
  0
CIRCLE
  8
SIZE
  6
CONTINUOUS
 62
    30
 10
-172.2401432614206
 20
0.0000000000000142
 30
0.0
 40
6.0
  0
LINE
  8
SIZE
  6
CONTINUOUS
 62
    30
 10
-172.2401432614206
 20
0.0000000000000142
 30
0.0
 11
-172.2401432614206
 21
-11.999999999999989
 31
0.0
  0
CIRCLE
  8
SIZE
  6
CONTINUOUS
 62
    30
 10
-172.2401432614206
 20
64.508428632500156
 30
0.0
 40
6.0
  0
LINE
  8
SIZE
  6
CONTINUOUS
 62
    30
 10
-172.2401432614206
 20
64.508428632500156
 30
0.0
 11
-172.2401432614206
 21
76.508428632500141
 31
0.0
  0
TEXT
  8
SIZE
  6
CONTINUOUS
 62
    30
 10
-197.2401432614206
 20
113.5084286325001
 30
0.0
 40
64.0
  1
64.5
 50
90.0
 41
0.9
 72
     1
 11
-197.2401432614206
 21
201.27985720392871
 31
0.0
  0
TEXT
  8
NOTE
  6
CONTINUOUS
 62
     4
 10
395.13594873771223
 20
242.4887005233968
 30
0.0
 40
64.0
  1
EL
 41
0.9
  0
TEXT
  8
NOTE
  6
CONTINUOUS
 62
     4
 10
369.48198626294197
 20
122.5070051672692
 30
0.0
 40
64.0
  1
2-φ4×10
 41
0.9
  0
LINE
  8
NOTE
  6
CONTINUOUS
 62
     4
 10
61.915681131433303
 20
1.8945754250502771
 30
0.0
 11
56.0
 21
0.0000000000000071
 31
0.0
  0
LINE
  8
NOTE
  6
CONTINUOUS
 62
     4
 10
56.0
 20
0.0000000000000071
 30
0.0
 11
60.175835498161632
 21
4.5985973059502427
 31
0.0
  0
LINE
  8
NOTE
  6
CONTINUOUS
 62
     4
 10
56.0
 20
0.0000000000000071
 30
0.0
 11
66.091516629594935
 21
6.493172731000513
 31
0.0
  0
LINE
  8
NOTE
  6
CONTINUOUS
 62
     4
 10
66.091516629594935
 20
6.4931727310004987
 30
0.0
 11
383.13594873771223
 21
210.4887005233968
 31
0.0
  0
LINE
  8
NOTE
  6
CONTINUOUS
 62
     4
 10
383.13594873771223
 20
210.4887005233968
 30
0.0
 11
480.16452016628358
 21
210.4887005233968
 31
0.0
  0
LINE
  8
NOTE
  6
CONTINUOUS
 62
     4
 10
81.211447281688621
 20
-0.0512050466650749
 30
0.0
 11
75.0
 21
0.0
 31
0.0
  0
LINE
  8
NOTE
  6
CONTINUOUS
 62
     4
 10
75.0
 20
0.0
 30
0.0
 11
80.404869050210905
 21
3.0613869144673842
 31
0.0
  0
LINE
  8
NOTE
  6
CONTINUOUS
 62
     4
 10
75.0
 20
0.0
 30
0.0
 11
86.616316331899483
 21
3.0101818678023018
 31
0.0
  0
LINE
  8
NOTE
  6
CONTINUOUS
 62
     4
 10
86.616316331899483
 20
3.0101818678023018
 30
0.0
 11
371.78991635578859
 21
76.908341614925121
 31
0.0
  0
LINE
  8
NOTE
  6
CONTINUOUS
 62
     4
 10
371.78991635578859
 20
76.908341614925121
 30
0.0
 11
764.56705921293133
 21
76.908341614925121
 31
0.0
  0
CIRCLE
  8
ARRANGE
  6
CONTINUOUS
 62
     1
 10
0.0
 20
0.0
 30
0.0
 40
40.0
  0
POINT
  8
ARRANGE
  6
CONTINUOUS
 62
     1
 10
0.0
 20
0.0
 30
0.0
  0
ARC
  8
DETAIL
  6
CONTINUOUS
 62
     5
 10
-10.73599515800333
 20
16051.05509252875
 30
0.0
 40
16098.39815290954
 50
269.73859212512679
 51
270.33783682351799
  0
ARC
  8
DETAIL
  6
CONTINUOUS
 62
     5
 10
0.0063219056296475
 20
16779.41603796526
 30
0.0
 40
16830.245692201559
 50
269.71694887896928
 51
270.28305112101771
  0
ARC
  8
DETAIL
  6
CONTINUOUS
 62
     5
 10
84.601331483372178
 20
-0.3986259140000357
 30
0.0
 40
0.398625914000016
 50
359.00000000000477
 51
90.0
  0
ARC
  8
DETAIL
  6
CONTINUOUS
 62
     5
 10
-83.144004213834251
 20
-49.627736161450571
 30
0.0
 40
0.996564785000024
 50
180.99999998790389
 51
269.63653063299739
  0
ARC
  8
DETAIL
  6
CONTINUOUS
 62
     5
 10
-84.60132048946889
 20
-0.3986259140000357
 30
0.0
 40
0.3986259140001037
 50
90.001580194295798
 51
180.99997242488379
  0
LINE
  8
DETAIL
  6
CONTINUOUS
 62
     5
 10
-84.140417217134427
 20
-49.645128614783403
 30
0.0
 11
-84.999896684752002
 21
-0.4055828954925573
 31
0.0
  0
LINE
  8
DETAIL
  6
CONTINUOUS
 62
     5
 10
-84.601331483372178
 20
0.0
 30
0.0
 11
84.601331483372178
 21
0.0
 31
0.0
  0
LINE
  8
DETAIL
  6
CONTINUOUS
 62
     5
 10
32.311261295702479
 20
36.475301695500043
 30
0.0
 11
-32.311261295702479
 21
36.475301695500043
 31
0.0
  0
ARC
  8
DETAIL
  6
CONTINUOUS
 62
     5
 10
-32.311261295702479
 20
34.681485082500053
 30
0.0
 40
1.793816612999954
 50
90.0
 51
178.97965286622289
  0
LINE
  8
DETAIL
  6
CONTINUOUS
 62
     5
 10
-34.104793470974073
 20
34.713428428281929
 30
0.0
 11
-34.286178236183787
 21
24.229166118128092
 31
0.0
  0
ARC
  8
DETAIL
  6
CONTINUOUS
 62
     5
 10
-39.168571379979078
 20
24.316123003867919
 30
0.0
 40
4.8831674464999786
 50
270.0
 51
358.97965286622281
  0
ARC
  8
DETAIL
  6
CONTINUOUS
 62
     5
 10
-46.908138981029708
 20
18.934673164867949
 30
0.0
 40
0.4982823924999382
 50
89.496363741799414
 51
179.4999999988099
  0
LINE
  8
DETAIL
  6
CONTINUOUS
 62
     5
 10
-47.406402400462873
 20
18.939021443864661
 30
0.0
 11
-47.406400000000019
 21
0.0
 31
0.0
  0
LINE
  8
DETAIL
  6
CONTINUOUS
 62
     5
 10
-25.899828688882739
 20
36.840069723242721
 30
0.0
 11
-26.30593981623019
 21
36.475301695500043
 31
0.0
  0
LINE
  8
DETAIL
  6
CONTINUOUS
 62
     5
 10
-25.11343258200009
 20
36.973584088000003
 30
0.0
 11
-25.579538940802191
 21
36.973584088000003
 31
0.0
  0
ARC
  8
DETAIL
  6
CONTINUOUS
 62
     5
 10
-20.180436896250061
 20
61.917360191499817
 30
0.0
 40
2.591068441000135
 50
90.0
 51
180.0
  0
LINE
  8
DETAIL
  6
CONTINUOUS
 62
     5
 10
-22.771505337249891
 20
61.917360191499817
 30
0.0
 11
-22.771505337249891
 21
39.166026615000021
 31
0.0
  0
LINE
  8
DETAIL
  6
CONTINUOUS
 62
     5
 10
-23.329762470437341
 20
37.27255352349988
 30
0.0
 11
-23.329762470437341
 21
38.069805351499951
 31
0.0
  0
LINE
  8
DETAIL
  6
CONTINUOUS
 62
     5
 10
-23.40304929980471
 20
36.475301695500043
 30
0.0
 11
-23.40304929980471
 21
37.27255352349988
 31
0.0
  0
LINE
  8
DETAIL
  6
CONTINUOUS
 62
     5
 10
-25.113186357649059
 20
37.27255352349988
 30
0.0
 11
25.113186357649059
 21
37.27255352349988
 31
0.0
  0
LINE
  8
DETAIL
  6
CONTINUOUS
 62
     5
 10
-25.11343258200009
 20
36.475301695500043
 30
0.0
 11
-25.11343258200009
 21
37.27255352349988
 31
0.0
  0
LINE
  8
DETAIL
  6
CONTINUOUS
 62
     5
 10
-23.91755483999987
 20
38.667744222499948
 30
0.0
 11
-23.91755483999987
 21
38.069805351499951
 31
0.0
  0
ARC
  8
DETAIL
  6
CONTINUOUS
 62
     5
 10
-23.269787729749851
 20
39.166026615000021
 30
0.0
 40
0.4982823925
 50
270.0
 51
0.0
  0
LINE
  8
DETAIL
  6
CONTINUOUS
 62
     5
 10
23.91755483651195
 20
38.069805351499951
 30
0.0
 11
-23.91755483651195
 21
38.069805351499951
 31
0.0
  0
ARC
  8
DETAIL
  6
CONTINUOUS
 62
     5
 10
-25.49211953034364
 20
36.312940978364679
 30
0.0
 40
0.6664018844762913
 50
97.537855671759104
 51
127.72025634757379
  0
ARC
  8
OUTLINE
  6
CONTINUOUS
 62
     3
 10
0.006321905628738
 20
16779.416037965759
 30
0.0
 40
16830.245692202061
 50
269.71694887896928
 51
270.28305112101771
  0
ARC
  8
OUTLINE
  6
CONTINUOUS
 62
     3
 10
84.601331483372178
 20
-0.3986259140000357
 30
0.0
 40
0.398625914000016
 50
359.00000000000477
 51
90.0
  0
ARC
  8
OUTLINE
  6
CONTINUOUS
 62
     3
 10
-83.144004213834251
 20
-49.627736161450571
 30
0.0
 40
0.996564785000024
 50
180.99999998790389
 51
269.63653063299739
  0
ARC
  8
OUTLINE
  6
CONTINUOUS
 62
     3
 10
-84.60132048946889
 20
-0.3986259140000357
 30
0.0
 40
0.3986259140001037
 50
90.001580194295798
 51
180.99997242488379
  0
LINE
  8
OUTLINE
  6
CONTINUOUS
 62
     3
 10
-84.140417217134427
 20
-49.645128614783403
 30
0.0
 11
-84.999896684752002
 21
-0.4055828954925573
 31
0.0
  0
LINE
  8
OUTLINE
  6
CONTINUOUS
 62
     3
 10
-84.601331483372178
 20
0.0
 30
0.0
 11
84.601331483372178
 21
0.0
 31
0.0
  0
LINE
  8
OUTLINE
  6
CONTINUOUS
 62
     3
 10
32.311261295702479
 20
36.475301695500043
 30
0.0
 11
-32.311261295702479
 21
36.475301695500043
 31
0.0
  0
ARC
  8
OUTLINE
  6
CONTINUOUS
 62
     3
 10
-32.311261295702479
 20
34.681485082500053
 30
0.0
 40
1.793816612999954
 50
90.0
 51
178.97965286622289
  0
LINE
  8
OUTLINE
  6
CONTINUOUS
 62
     3
 10
-34.104793470974073
 20
34.713428428281929
 30
0.0
 11
-34.286178236183787
 21
24.229166118128092
 31
0.0
  0
ARC
  8
OUTLINE
  6
CONTINUOUS
 62
     3
 10
-39.168571379979078
 20
24.316123003867919
 30
0.0
 40
4.8831674464999786
 50
270.0
 51
358.97965286622281
  0
ARC
  8
OUTLINE
  6
CONTINUOUS
 62
     3
 10
-46.908138981029708
 20
18.934673164867949
 30
0.0
 40
0.4982823924999382
 50
89.496363741799414
 51
179.4999999988099
  0
LINE
  8
OUTLINE
  6
CONTINUOUS
 62
     3
 10
-47.406402400462873
 20
18.939021443864661
 30
0.0
 11
-47.406400000000019
 21
0.0
 31
0.0
  0
LINE
  8
OUTLINE
  6
CONTINUOUS
 62
     3
 10
-25.899828688882739
 20
36.840069723242721
 30
0.0
 11
-26.30593981623019
 21
36.475301695500043
 31
0.0
  0
LINE
  8
OUTLINE
  6
CONTINUOUS
 62
     3
 10
-25.11343258200009
 20
36.973584088000003
 30
0.0
 11
-25.579538940802191
 21
36.973584088000003
 31
0.0
  0
ARC
  8
OUTLINE
  6
CONTINUOUS
 62
     3
 10
-20.180436896250061
 20
61.917360191499817
 30
0.0
 40
2.591068441000135
 50
90.0
 51
180.0
  0
LINE
  8
OUTLINE
  6
CONTINUOUS
 62
     3
 10
-22.771505337249891
 20
61.917360191499817
 30
0.0
 11
-22.771505337249891
 21
39.166026615000021
 31
0.0
  0
LINE
  8
OUTLINE
  6
CONTINUOUS
 62
     3
 10
-23.329762470437341
 20
37.27255352349988
 30
0.0
 11
-23.329762470437341
 21
38.069805351499951
 31
0.0
  0
LINE
  8
OUTLINE
  6
CONTINUOUS
 62
     3
 10
-23.40304929980471
 20
36.475301695500043
 30
0.0
 11
-23.40304929980471
 21
37.27255352349988
 31
0.0
  0
LINE
  8
OUTLINE
  6
CONTINUOUS
 62
     3
 10
-25.113186357649059
 20
37.27255352349988
 30
0.0
 11
25.113186357649059
 21
37.27255352349988
 31
0.0
  0
LINE
  8
OUTLINE
  6
CONTINUOUS
 62
     3
 10
-25.11343258200009
 20
36.475301695500043
 30
0.0
 11
-25.11343258200009
 21
37.27255352349988
 31
0.0
  0
LINE
  8
OUTLINE
  6
CONTINUOUS
 62
     3
 10
-23.91755483999987
 20
38.667744222499948
 30
0.0
 11
-23.91755483999987
 21
38.069805351499951
 31
0.0
  0
LINE
  8
OUTLINE
  6
CONTINUOUS
 62
     3
 10
23.91755483999987
 20
38.667744222499948
 30
0.0
 11
-23.91755483999987
 21
38.667744222499948
 31
0.0
  0
ARC
  8
OUTLINE
  6
CONTINUOUS
 62
     3
 10
-23.269787729749851
 20
39.166026615000021
 30
0.0
 40
0.4982823925
 50
270.0
 51
0.0
  0
LINE
  8
OUTLINE
  6
CONTINUOUS
 62
     3
 10
23.91755483651195
 20
38.069805351499951
 30
0.0
 11
-23.91755483651195
 21
38.069805351499951
 31
0.0
  0
ARC
  8
OUTLINE
  6
CONTINUOUS
 62
     3
 10
-25.49211953034364
 20
36.312940978364679
 30
0.0
 40
0.6664018844762913
 50
97.537855671759104
 51
127.72025634757379
  0
ARC
  8
DETAIL
  6
CONTINUOUS
 62
     5
 10
32.311261295702479
 20
34.681485082500053
 30
0.0
 40
1.793816612999954
 50
1.0203471337771539
 51
90.0
  0
LINE
  8
DETAIL
  6
CONTINUOUS
 62
     5
 10
34.104793470974073
 20
34.713428428281929
 30
0.0
 11
34.286178236183787
 21
24.229166118128092
 31
0.0
  0
ARC
  8
DETAIL
  6
CONTINUOUS
 62
     5
 10
39.168571379979078
 20
24.316123003867919
 30
0.0
 40
4.8831674464999786
 50
181.02034713377711
 51
270.0
  0
LINE
  8
DETAIL
  6
CONTINUOUS
 62
     5
 10
-46.903759079924612
 20
19.432936307335641
 30
0.0
 11
46.908138981029651
 21
19.432955557368022
 31
0.0
  0
LINE
  8
DETAIL
  6
CONTINUOUS
 62
     5
 10
25.899828688882739
 20
36.840069723242721
 30
0.0
 11
26.30593981623019
 21
36.475301695500043
 31
0.0
  0
LINE
  8
DETAIL
  6
CONTINUOUS
 62
     5
 10
25.11343258200009
 20
36.973584088000003
 30
0.0
 11
25.579538940802191
 21
36.973584088000003
 31
0.0
  0
ARC
  8
DETAIL
  6
CONTINUOUS
 62
     5
 10
20.180436896250061
 20
61.917360191499817
 30
0.0
 40
2.591068441000135
 50
0.0
 51
90.0
  0
LINE
  8
DETAIL
  6
CONTINUOUS
 62
     5
 10
-20.180436896250061
 20
64.508428632500099
 30
0.0
 11
20.180364780038641
 21
64.508428632500099
 31
0.0
  0
LINE
  8
DETAIL
  6
CONTINUOUS
 62
     5
 10
22.771505337249891
 20
61.917360191499817
 30
0.0
 11
22.771505337249891
 21
39.166026615000021
 31
0.0
  0
LINE
  8
DETAIL
  6
CONTINUOUS
 62
     5
 10
23.329762470437341
 20
37.27255352349988
 30
0.0
 11
23.329762470437341
 21
38.069805351499951
 31
0.0
  0
LINE
  8
DETAIL
  6
CONTINUOUS
 62
     5
 10
23.40304929980471
 20
36.475301695500043
 30
0.0
 11
23.40304929980471
 21
37.27255352349988
 31
0.0
  0
LINE
  8
DETAIL
  6
CONTINUOUS
 62
     5
 10
25.11343258200009
 20
36.475301695500043
 30
0.0
 11
25.11343258200009
 21
37.27255352349988
 31
0.0
  0
LINE
  8
DETAIL
  6
CONTINUOUS
 62
     5
 10
23.91755483999987
 20
38.667744222499948
 30
0.0
 11
23.91755483999987
 21
38.069805351499951
 31
0.0
  0
LINE
  8
DETAIL
  6
CONTINUOUS
 62
     5
 10
-23.91755483999987
 20
38.667744222499948
 30
0.0
 11
23.91755483999987
 21
38.667744222499948
 31
0.0
  0
ARC
  8
DETAIL
  6
CONTINUOUS
 62
     5
 10
23.269787729749851
 20
39.166026615000021
 30
0.0
 40
0.4982823925
 50
180.0
 51
270.0
  0
ARC
  8
DETAIL
  6
CONTINUOUS
 62
     5
 10
25.49211953034364
 20
36.312940978364679
 30
0.0
 40
0.6664018844762913
 50
52.279743652426212
 51
82.46214432824091
  0
ARC
  8
OUTLINE
  6
CONTINUOUS
 62
     3
 10
32.311261295702479
 20
34.681485082500053
 30
0.0
 40
1.793816612999954
 50
1.0203471337771539
 51
90.0
  0
LINE
  8
OUTLINE
  6
CONTINUOUS
 62
     3
 10
34.104793470974073
 20
34.713428428281929
 30
0.0
 11
34.286178236183787
 21
24.229166118128092
 31
0.0
  0
ARC
  8
OUTLINE
  6
CONTINUOUS
 62
     3
 10
39.168571379979078
 20
24.316123003867919
 30
0.0
 40
4.8831674464999786
 50
181.02034713377711
 51
270.0
  0
LINE
  8
OUTLINE
  6
CONTINUOUS
 62
     3
 10
-46.903759079924612
 20
19.432936307335641
 30
0.0
 11
46.908138981029651
 21
19.432955557368022
 31
0.0
  0
LINE
  8
OUTLINE
  6
CONTINUOUS
 62
     3
 10
25.899828688882739
 20
36.840069723242721
 30
0.0
 11
26.30593981623019
 21
36.475301695500043
 31
0.0
  0
LINE
  8
OUTLINE
  6
CONTINUOUS
 62
     3
 10
25.11343258200009
 20
36.973584088000003
 30
0.0
 11
25.579538940802191
 21
36.973584088000003
 31
0.0
  0
ARC
  8
OUTLINE
  6
CONTINUOUS
 62
     3
 10
20.180436896250061
 20
61.917360191499817
 30
0.0
 40
2.591068441000135
 50
0.0
 51
90.0
  0
LINE
  8
OUTLINE
  6
CONTINUOUS
 62
     3
 10
-20.180436896250061
 20
64.508428632500099
 30
0.0
 11
20.180364780038641
 21
64.508428632500099
 31
0.0
  0
LINE
  8
OUTLINE
  6
CONTINUOUS
 62
     3
 10
22.771505337249891
 20
61.917360191499817
 30
0.0
 11
22.771505337249891
 21
39.166026615000021
 31
0.0
  0
LINE
  8
OUTLINE
  6
CONTINUOUS
 62
     3
 10
23.329762470437341
 20
37.27255352349988
 30
0.0
 11
23.329762470437341
 21
38.069805351499951
 31
0.0
  0
LINE
  8
OUTLINE
  6
CONTINUOUS
 62
     3
 10
23.40304929980471
 20
36.475301695500043
 30
0.0
 11
23.40304929980471
 21
37.27255352349988
 31
0.0
  0
LINE
  8
OUTLINE
  6
CONTINUOUS
 62
     3
 10
25.11343258200009
 20
36.475301695500043
 30
0.0
 11
25.11343258200009
 21
37.27255352349988
 31
0.0
  0
LINE
  8
OUTLINE
  6
CONTINUOUS
 62
     3
 10
23.91755483999987
 20
38.667744222499948
 30
0.0
 11
23.91755483999987
 21
38.069805351499951
 31
0.0
  0
ARC
  8
OUTLINE
  6
CONTINUOUS
 62
     3
 10
23.269787729749851
 20
39.166026615000021
 30
0.0
 40
0.4982823925
 50
180.0
 51
270.0
  0
ARC
  8
OUTLINE
  6
CONTINUOUS
 62
     3
 10
25.49211953034364
 20
36.312940978364679
 30
0.0
 40
0.6664018844762913
 50
52.279743652426212
 51
82.46214432824091
  0
ARC
  8
DETAIL
  6
CONTINUOUS
 62
     5
 10
83.144004213834251
 20
-49.627736161450571
 30
0.0
 40
0.996564785000024
 50
270.36346936700261
 51
359.00000001209611
  0
LINE
  8
DETAIL
  6
CONTINUOUS
 62
     5
 10
84.140417217134427
 20
-49.645128614783403
 30
0.0
 11
84.999896684752002
 21
-0.4055828954925573
 31
0.0
  0
ARC
  8
OUTLINE
  6
CONTINUOUS
 62
     3
 10
83.144004213834251
 20
-49.627736161450571
 30
0.0
 40
0.996564785000024
 50
270.36346936700261
 51
359.00000001209611
  0
LINE
  8
OUTLINE
  6
CONTINUOUS
 62
     3
 10
84.140417217134427
 20
-49.645128614783403
 30
0.0
 11
84.999896684752002
 21
-0.4055828954925573
 31
0.0
  0
ARC
  8
DETAIL
  6
CONTINUOUS
 62
     5
 10
46.908138981029651
 20
18.934673164867949
 30
0.0
 40
0.4982823924999382
 50
0.5000000011901353
 51
90.00001175698786
  0
LINE
  8
DETAIL
  6
CONTINUOUS
 62
     5
 10
47.406402400462873
 20
18.939021443864661
 30
0.0
 11
47.406399999999962
 21
0.0
 31
0.0
  0
ARC
  8
OUTLINE
  6
CONTINUOUS
 62
     3
 10
46.908138981029651
 20
18.934673164867949
 30
0.0
 40
0.4982823924999382
 50
0.5000000011901353
 51
90.00001175698786
  0
LINE
  8
OUTLINE
  6
CONTINUOUS
 62
     3
 10
47.406402400462873
 20
18.939021443864661
 30
0.0
 11
47.406399999999962
 21
0.0
 31
0.0
  0
ENDSEC
  0
EOF
