  0
SECTION
  2
HEADER
  9
$ACADVER
  1
AC1009
  9
$DWGCODEPAGE
  3
dos932
  9
$INSBASE
 10
0.0
 20
0.0
 30
0.0
  9
$EXTMIN
 10
-358.01695090254913
 20
-269.16502715224118
 30
-0.0015258207003583
  9
$EXTMAX
 10
788.5437124624641
 20
574.53919257332927
 30
0.0000000349246037
  9
$LIMMIN
 10
-2970.0
 20
-2100.0
  9
$LIMMAX
 10
2970.0
 20
2100.0
  9
$ORTHOMODE
 70
     1
  9
$REGENMODE
 70
     1
  9
$FILLMODE
 70
     1
  9
$QTEXTMODE
 70
     0
  9
$MIRRTEXT
 70
     0
  9
$LTSCALE
 40
20.0
  9
$ATTMODE
 70
     1
  9
$TEXTSIZE
 40
64.0
  9
$TRACEWID
 40
0.05
  9
$TEXTSTYLE
  7
STANDARD
  9
$CLAYER
  8
SIZE
  9
$CELTYPE
  6
CONTINUOUS
  9
$CECOLOR
 62
     7
  9
$DIMSCALE
 40
1.0
  9
$DIMASZ
 40
12.0
  9
$DIMEXO
 40
20.0
  9
$DIMDLI
 40
200.0
  9
$DIMRND
 40
0.0
  9
$DIMDLE
 40
0.0
  9
$DIMEXE
 40
20.0
  9
$DIMTP
 40
0.0
  9
$DIMTM
 40
0.0
  9
$DIMTXT
 40
64.0
  9
$DIMCEN
 40
0.09
  9
$DIMTSZ
 40
0.0
  9
$DIMTOL
 70
     0
  9
$DIMLIM
 70
     0
  9
$DIMTIH
 70
     0
  9
$DIMTOH
 70
     0
  9
$DIMSE1
 70
     0
  9
$DIMSE2
 70
     0
  9
$DIMTAD
 70
     1
  9
$DIMZIN
 70
     8
  9
$DIMBLK
  1

  9
$DIMASO
 70
     1
  9
$DIMSHO
 70
     0
  9
$DIMPOST
  1

  9
$DIMAPOST
  1

  9
$DIMALT
 70
     0
  9
$DIMALTD
 70
     2
  9
$DIMALTF
 40
25.399999999999999
  9
$DIMLFAC
 40
1.0
  9
$DIMTOFL
 70
     1
  9
$DIMTVP
 40
0.0
  9
$DIMTIX
 70
     1
  9
$DIMSOXD
 70
     0
  9
$DIMSAH
 70
     0
  9
$DIMBLK1
  1

  9
$DIMBLK2
  1

  9
$DIMSTYLE
  2
STANDARD
  9
$DIMCLRD
 70
     7
  9
$DIMCLRE
 70
     7
  9
$DIMCLRT
 70
     7
  9
$DIMTFAC
 40
1.0
  9
$DIMGAP
 40
25.0
  9
$LUNITS
 70
     2
  9
$LUPREC
 70
     4
  9
$SKETCHINC
 40
0.1
  9
$FILLETRAD
 40
3.0
  9
$AUNITS
 70
     1
  9
$AUPREC
 70
     3
  9
$MENU
  1
ACAD
  9
$ELEVATION
 40
0.0
  9
$PELEVATION
 40
0.0
  9
$THICKNESS
 40
0.0
  9
$LIMCHECK
 70
     0
  9
$CHAMFERA
 40
0.0
  9
$CHAMFERB
 40
0.0
  9
$SKPOLY
 70
     0
  9
$TDCREATE
 40
2453019.623009259
  9
$TDUPDATE
 40
2459356.658105729
  9
$TDINDWG
 40
1.7191363542
  9
$TDUSRTIMER
 40
1.7191363542
  9
$USRTIMER
 70
     1
  9
$ANGBASE
 50
0.0
  9
$ANGDIR
 70
     0
  9
$PDMODE
 70
     3
  9
$PDSIZE
 40
-2.0
  9
$PLINEWID
 40
0.0
  9
$SPLFRAME
 70
     0
  9
$SPLINETYPE
 70
     6
  9
$SPLINESEGS
 70
     8
  9
$SURFTAB1
 70
     6
  9
$SURFTAB2
 70
     6
  9
$SURFTYPE
 70
     6
  9
$SURFU
 70
     6
  9
$SURFV
 70
     6
  9
$UCSNAME
  2

  9
$UCSORG
 10
0.0
 20
0.0
 30
0.0
  9
$UCSXDIR
 10
1.0
 20
0.0
 30
0.0
  9
$UCSYDIR
 10
0.0
 20
1.0
 30
0.0
  9
$PUCSNAME
  2

  9
$PUCSORG
 10
0.0
 20
0.0
 30
0.0
  9
$PUCSXDIR
 10
1.0
 20
0.0
 30
0.0
  9
$PUCSYDIR
 10
0.0
 20
1.0
 30
0.0
  9
$USERI1
 70
     0
  9
$USERI2
 70
     0
  9
$USERI3
 70
     0
  9
$USERI4
 70
     0
  9
$USERI5
 70
     0
  9
$USERR1
 40
20.0
  9
$USERR2
 40
0.0
  9
$USERR3
 40
0.0
  9
$USERR4
 40
0.0
  9
$USERR5
 40
0.0
  9
$WORLDVIEW
 70
     1
  9
$SHADEDGE
 70
     3
  9
$SHADEDIF
 70
    70
  9
$TILEMODE
 70
     1
  9
$MAXACTVP
 70
    48
  9
$PINSBASE
 10
0.0
 20
0.0
 30
0.0
  9
$PLIMCHECK
 70
     0
  9
$PEXTMIN
 10
-100000000000000000000.0
 20
-100000000000000000000.0
 30
-100000000000000000000.0
  9
$PEXTMAX
 10
100000000000000000000.0
 20
100000000000000000000.0
 30
100000000000000000000.0
  9
$PLIMMIN
 10
0.0
 20
0.0
  9
$PLIMMAX
 10
12.0
 20
9.0
  9
$UNITMODE
 70
     0
  9
$VISRETAIN
 70
     0
  9
$PLINEGEN
 70
     0
  9
$PSLTSCALE
 70
     0
  9
$TREEDEPTH
 70
  3020
  9
$ATTDIA
 70
     0
  9
$ATTREQ
 70
     1
  9
$BLIPMODE
 70
     1
  9
$COORDS
 70
     1
  9
$DRAGMODE
 70
     2
  9
$OSMODE
 70
     0
  9
$HANDLING
 70
     0
  9
$HANDSEED
  5
232
  0
ENDSEC
  0
SECTION
  2
TABLES
  0
TABLE
  2
LTYPE
 70
     2
  0
LTYPE
  2
CONTINUOUS
 70
     0
  3
実線
 72
    65
 73
     0
 40
0.0
  0
LTYPE
  2
DASHDOT
 70
     0
  3
____ _ ____ _ ____ _ ____ _ ____ _ ____ _ ____
 72
    65
 73
     4
 40
5.5
 49
4.0
 49
-0.6
 49
0.3
 49
-0.6
  0
ENDTAB
  0
TABLE
  2
LAYER
 70
    12
  0
LAYER
  2
SIZE
 70
     0
 62
    30
  6
CONTINUOUS
  0
LAYER
  2
BASIS
 70
     0
 62
     6
  6
DASHDOT
  0
LAYER
  2
OUTLINE
 70
     0
 62
     3
  6
CONTINUOUS
  0
LAYER
  2
DETAIL
 70
     0
 62
     5
  6
CONTINUOUS
  0
LAYER
  2
ARRANGE
 70
     0
 62
     1
  6
CONTINUOUS
  0
LAYER
  2
ETC
 70
     0
 62
    61
  6
CONTINUOUS
  0
LAYER
  2
FIX
 70
     0
 62
    11
  6
CONTINUOUS
  0
LAYER
  2
NOTE
 70
     0
 62
     4
  6
CONTINUOUS
  0
LAYER
  2
0
 70
    64
 62
     7
  6
CONTINUOUS
  0
LAYER
  2
DEFPOINTS
 70
    64
 62
     7
  6
CONTINUOUS
  0
LAYER
  2
SERVICESPACE
 70
    64
 62
     2
  6
DASHDOT
  0
LAYER
  2
SYMBOLLINE
 70
    64
 62
    15
  6
CONTINUOUS
  0
ENDTAB
  0
TABLE
  2
STYLE
 70
     1
  0
STYLE
  2
STANDARD
 70
     0
 40
64.0
 41
0.9
 50
0.0
 71
     0
 42
64.0
  3
SIMPLEX.shx
  4
BIGFONT.shx
  0
ENDTAB
  0
TABLE
  2
APPID
 70
    20
  0
APPID
  2
ACAD
 70
     0
  0
APPID
  2
ACADANNOTATIVE
 70
     0
  0
APPID
  2
AUTOCAD_POSTSCRIPT_FIGURE
 70
     0
  0
APPID
  2
ACAD_EXEMPT_FROM_CAD_STANDARDS
 70
     0
  0
APPID
  2
ACAD_PSEXT
 70
     0
  0
APPID
  2
ACAUTHENVIRON
 70
     0
  0
APPID
  2
GENIUS_GENOENT_13
 70
     0
  0
APPID
  2
GENIUS_GENCFG_13
 70
     0
  0
APPID
  2
GENIUS_GENCFG0_13
 70
     0
  0
APPID
  2
GENIUS_GENCFG1_13
 70
     0
  0
APPID
  2
GENIUS_GENCFG2_13
 70
     0
  0
APPID
  2
GENIUS_GENCFG3_13
 70
     0
  0
APPID
  2
GENIUS_GENCFG4_13
 70
     0
  0
APPID
  2
GENIUS_GEVCFG0_13
 70
     0
  0
APPID
  2
CONTENTBLOCKICON
 70
     0
  0
APPID
  2
CONTENTBLOCKDESCRIPTION
 70
     0
  0
APPID
  2
ACAD_NAV_VCDISPLAY
 70
     0
  0
APPID
  2
ACAD_MLEADERVER
 70
     0
  0
APPID
  2
ACDBDYNAMICBLOCKTRUENAME
 70
     0
  0
APPID
  2
ACDBDYNAMICBLOCKGUID
 70
     0
  0
ENDTAB
  0
TABLE
  2
DIMSTYLE
 70
     1
  0
DIMSTYLE
  2
STANDARD
 70
     0
  3

  4

  5

  6

  7

 40
1.0
 41
12.0
 42
20.0
 43
200.0
 44
20.0
 45
0.0
 46
0.0
 47
0.0
 48
0.0
140
64.0
141
0.09
142
0.0
143
25.399999999999999
144
1.0
145
0.0
146
1.0
147
25.0
 71
     0
 72
     0
 73
     0
 74
     0
 75
     0
 76
     0
 77
     1
 78
     8
170
     0
171
     2
172
     1
173
     0
174
     1
175
     0
176
     7
177
     7
178
     7
  0
ENDTAB
  0
TABLE
  2
VIEW
 70
     1
  0
VIEW
  2
ALL
 70
     0
 40
4282.6198079999986
 10
0.0
 20
41.309904000000003
 41
5940.0
 11
0.0
 21
0.0
 31
1.0
 12
0.0
 22
0.0
 32
0.0
 42
50.0
 43
0.0
 44
0.0
 50
0.0
 71
     0
  0
ENDTAB
  0
TABLE
  2
UCS
 70
     0
  0
ENDTAB
  0
TABLE
  2
VPORT
 70
     1
  0
VPORT
  2
*ACTIVE
 70
     0
 10
0.0
 20
0.0
 11
1.0
 21
1.0
 12
215.26338077995749
 22
152.68708271054399
 13
0.0
 23
0.0
 14
1.0
 24
1.0
 15
0.0
 25
0.0
 16
0.0
 26
0.0
 36
1.0
 17
0.0
 27
0.0
 37
0.0
 40
711.75447268131995
 41
1.946595460614152
 42
50.0
 43
0.0
 44
0.0
 50
0.0
 51
0.0
 71
     0
 72
  1000
 73
     1
 74
     3
 75
     0
 76
     0
 77
     0
 78
     0
  0
ENDTAB
  0
ENDSEC
  0
SECTION
  2
BLOCKS
  0
ENDSEC
  0
SECTION
  2
ENTITIES
  0
TEXT
  8
ETC
  6
CONTINUOUS
 62
    61
 10
174.13147188103079
 20
510.47063577482248
 30
0.0
 40
64.0
  1
V-08PTSD8_3
 41
0.9
  0
TEXT
  8
ETC
  6
CONTINUOUS
 62
    61
 10
169.9454778810306
 20
392.51532575999141
 30
0.0
 40
64.0
  1
換気扇
 41
0.9
  0
CIRCLE
  8
ARRANGE
  6
CONTINUOUS
 62
     1
 10
0.0
 20
0.0
 30
0.0
 40
40.0
  0
POINT
  8
ARRANGE
  6
CONTINUOUS
 62
     1
 10
0.0
 20
0.0
 30
0.0
  0
LINE
  8
BASIS
  6
DASHDOT
 62
     6
 10
0.0
 20
-109.2854010143142
 30
0.0
 11
0.0
 21
109.2854010143142
 31
0.0
  0
LINE
  8
BASIS
  6
DASHDOT
 62
     6
 10
-125.4561247050906
 20
0.0
 30
0.0
 11
125.4561247050906
 21
0.0
 31
0.0
  0
TEXT
  8
ETC
  6
CONTINUOUS
 62
    61
 10
220.64687612958639
 20
284.36655287376612
 30
0.0
 40
40.0
  1
V-08PTSD8
 41
0.9
  0
LINE
  8
DETAIL
  6
CONTINUOUS
 62
     5
 10
-84.003368174960869
 20
-94.965605247372054
 30
0.0
 11
84.003392612372224
 21
-94.965605247372054
 31
0.0
  0
LINE
  8
DETAIL
  6
CONTINUOUS
 62
     5
 10
-12.483152657358289
 20
-94.965635331525959
 30
0.0
 11
-12.48315246704863
 21
-98.985127586649128
 31
0.0
  0
ARC
  8
DETAIL
  6
CONTINUOUS
 62
     5
 10
-11.486544446683411
 20
-98.984932569683806
 30
0.0
 40
0.9966098936081126
 50
180.0112100753004
 51
269.9887899205014
  0
ARC
  8
DETAIL
  6
CONTINUOUS
 62
     5
 10
84.003392612372224
 20
74.037744762372299
 30
0.0
 40
0.996564785
 50
0.0
 51
90.0
  0
ARC
  8
DETAIL
  6
CONTINUOUS
 62
     5
 10
-84.003392612372224
 20
74.037744762372299
 30
0.0
 40
0.996564785
 50
90.0
 51
180.0
  0
ARC
  8
DETAIL
  6
CONTINUOUS
 62
     5
 10
84.003392612372224
 20
-93.969040462372149
 30
0.0
 40
0.996564785
 50
270.0
 51
0.0
  0
LINE
  8
DETAIL
  6
CONTINUOUS
 62
     5
 10
-84.604810503991985
 20
-66.969153552000193
 30
0.0
 11
-84.601331483372178
 21
-67.766405380000037
 31
0.0
  0
ARC
  8
DETAIL
  6
CONTINUOUS
 62
     5
 10
-84.003392612372224
 20
-93.96904045983969
 30
0.0
 40
0.99656478500001
 50
180.0
 51
270.00140498696408
  0
LINE
  8
DETAIL
  6
CONTINUOUS
 62
     5
 10
-84.99995739737227
 20
-67.766405380000037
 30
0.0
 11
-84.99995739737227
 21
-93.96904045983969
 31
0.0
  0
LINE
  8
DETAIL
  6
CONTINUOUS
 62
     5
 10
84.604810503992027
 20
-67.766405380000037
 30
0.0
 11
84.601331483372221
 21
-66.969153552000193
 31
0.0
  0
LINE
  8
DETAIL
  6
CONTINUOUS
 62
     5
 10
84.999957397372214
 20
-66.969153552000193
 30
0.0
 11
84.999957397372214
 21
74.037744762372299
 31
0.0
  0
LINE
  8
DETAIL
  6
CONTINUOUS
 62
     5
 10
84.999957397372214
 20
-93.969040462372149
 30
0.0
 11
84.999957397372214
 21
-67.766405380000037
 31
0.0
  0
ARC
  8
DETAIL
  6
CONTINUOUS
 62
     5
 10
11.486587682048709
 20
-98.98497580504872
 30
0.0
 40
0.996564785
 50
270.0
 51
0.0
  0
LINE
  8
DETAIL
  6
CONTINUOUS
 62
     5
 10
12.48315246704874
 20
-98.985127586649128
 30
0.0
 11
12.4831526574651
 21
-94.965605247372054
 31
0.0
  0
LINE
  8
DETAIL
  6
CONTINUOUS
 62
     5
 10
15.60212329356284
 20
-94.965544534752198
 30
0.0
 11
15.60224723612583
 21
-94.965578274250333
 31
0.0
  0
LINE
  8
DETAIL
  6
CONTINUOUS
 62
     5
 10
-11.486587682048651
 20
-99.981540590048638
 30
0.0
 11
11.486587682048709
 21
-99.981540590048638
 31
0.0
  0
LINE
  8
DETAIL
  6
CONTINUOUS
 62
     5
 10
-84.99995739737227
 20
74.037744762372299
 30
0.0
 11
-84.99995739737227
 21
-66.969153552000193
 31
0.0
  0
LINE
  8
DETAIL
  6
CONTINUOUS
 62
     5
 10
84.003392612372224
 20
75.034309547372217
 30
0.0
 11
-84.003392612372224
 21
75.034309547372217
 31
0.0
  0
ARC
  8
DETAIL
  6
CONTINUOUS
 62
     5
 10
75.042358875000033
 20
-3.9862591400001288
 30
0.0
 40
1.99312957
 50
0.0
 51
180.0
  0
LINE
  8
DETAIL
  6
CONTINUOUS
 62
     5
 10
77.035488445000041
 20
-9.9656478500000958
 30
0.0
 11
77.035488445000041
 21
-3.9862591400001288
 31
0.0
  0
ARC
  8
DETAIL
  6
CONTINUOUS
 62
     5
 10
75.042358875000033
 20
-9.9656478500000958
 30
0.0
 40
1.99312957
 50
180.0
 51
0.0
  0
LINE
  8
DETAIL
  6
CONTINUOUS
 62
     5
 10
73.049229305000054
 20
-9.9656478500000958
 30
0.0
 11
73.049229305000054
 21
-3.9862591400001288
 31
0.0
  0
LINE
  8
DETAIL
  6
CONTINUOUS
 62
     5
 10
-73.049229304999983
 20
-9.9656478500000958
 30
0.0
 11
-73.049229304999983
 21
-3.9862591400001288
 31
0.0
  0
ARC
  8
DETAIL
  6
CONTINUOUS
 62
     5
 10
-75.042358875000033
 20
-3.9862591400001288
 30
0.0
 40
1.99312957
 50
0.0
 51
180.0
  0
LINE
  8
DETAIL
  6
CONTINUOUS
 62
     5
 10
-77.035488444999999
 20
-9.9656478500000958
 30
0.0
 11
-77.035488444999999
 21
-3.9862591400001288
 31
0.0
  0
ARC
  8
DETAIL
  6
CONTINUOUS
 62
     5
 10
-75.042358875000033
 20
-9.9656478500000958
 30
0.0
 40
1.99312957
 50
180.0
 51
0.0
  0
LINE
  8
DETAIL
  6
CONTINUOUS
 62
     5
 10
-39.274612836320557
 20
-94.964557296550197
 30
0.0
 11
-39.268341681184381
 21
-95.323831535361123
 31
0.0
  0
ARC
  8
DETAIL
  6
CONTINUOUS
 62
     5
 10
-38.969417780124729
 20
-95.318613799291228
 30
0.0
 40
0.2989694355
 50
181.00000000000179
 51
246.5204698364013
  0
ARC
  8
DETAIL
  6
CONTINUOUS
 62
     5
 10
-34.879767474999987
 20
-85.903884467000012
 30
0.0
 40
10.56358672100002
 50
246.52042830709831
 51
266.05836339340078
  0
ARC
  8
DETAIL
  6
CONTINUOUS
 62
     5
 10
-35.626462152946658
 20
-96.740746250352998
 30
0.0
 40
0.2989694355000039
 50
11.18138455139877
 51
86.116956514605391
  0
ARC
  8
DETAIL
  6
CONTINUOUS
 62
     5
 10
-34.933079299734452
 20
-97.165066537500138
 30
0.0
 40
0.2989694355000119
 50
191.18138455141221
 51
270.0
  0
LINE
  8
DETAIL
  6
CONTINUOUS
 62
     5
 10
-35.333167692388031
 20
-96.682771404515407
 30
0.0
 11
-35.226373760292972
 21
-97.223041383238183
 31
0.0
  0
LINE
  8
DETAIL
  6
CONTINUOUS
 62
     5
 10
-34.933079299734452
 20
-97.464035973000236
 30
0.0
 11
-34.82645565026553
 21
-97.464035973000236
 31
0.0
  0
ARC
  8
DETAIL
  6
CONTINUOUS
 62
     5
 10
-34.82645565026553
 20
-97.165066537500138
 30
0.0
 40
0.2989694355000458
 50
270.0
 51
348.81861544860118
  0
LINE
  8
DETAIL
  6
CONTINUOUS
 62
     5
 10
-34.533161189706959
 20
-97.223041383238183
 30
0.0
 11
-34.426367257611901
 21
-96.682771404515407
 31
0.0
  0
ARC
  8
DETAIL
  6
CONTINUOUS
 62
     5
 10
-34.13307279705333
 20
-96.740746250352998
 30
0.0
 40
0.2989694354999363
 50
93.883055275796792
 51
168.81861544858779
  0
ARC
  8
DETAIL
  6
CONTINUOUS
 62
     5
 10
-34.879767474999987
 20
-85.903884467000012
 30
0.0
 40
10.563586721000039
 50
273.94329165469787
 51
293.47957170209861
  0
ARC
  8
DETAIL
  6
CONTINUOUS
 62
     5
 10
-30.790117169875369
 20
-95.318613799291228
 30
0.0
 40
0.2989694355000259
 50
293.47953048741152
 51
358.99999999999818
  0
LINE
  8
DETAIL
  6
CONTINUOUS
 62
     5
 10
-30.49119326891525
 20
-95.323831535361123
 30
0.0
 11
-30.484918351475471
 21
-94.964341758752312
 31
0.0
  0
LINE
  8
NOTE
  6
CONTINUOUS
 62
     4
 10
75.042358875000033
 20
-14.94847177499992
 30
0.0
 11
75.042358875000033
 21
2.6105641696376551
 31
0.0
  0
LINE
  8
NOTE
  6
CONTINUOUS
 62
     4
 10
68.6688013761717
 20
-3.9862591400003571
 30
0.0
 11
81.415916373828367
 21
-3.9862591400003571
 31
0.0
  0
LINE
  8
NOTE
  6
CONTINUOUS
 62
     4
 10
-68.592345024674898
 20
-3.9862591400001288
 30
0.0
 11
-81.49237272532514
 21
-3.9862591400001288
 31
0.0
  0
LINE
  8
NOTE
  6
CONTINUOUS
 62
     4
 10
-75.042358875000033
 20
-14.94847177499992
 30
0.0
 11
-75.042358875000033
 21
3.5017945794188559
 31
0.0
  0
LINE
  8
BASIS
  6
DASHDOT
 62
     6
 10
125.4561247050906
 20
-9.9656478500000958
 30
0.0
 11
-125.4561247050906
 21
-9.9656478500000958
 31
0.0
  0
LINE
  8
SIZE
  6
CONTINUOUS
 62
    30
 10
84.999957397372214
 20
94.037744762372299
 30
0.0
 11
84.999957397372214
 21
361.78215202628718
 31
0.0
  0
LINE
  8
SIZE
  6
CONTINUOUS
 62
    30
 10
-84.99995739737227
 20
94.037744762372299
 30
0.0
 11
-84.99995739737227
 21
361.78215202628718
 31
0.0
  0
LINE
  8
SIZE
  6
CONTINUOUS
 62
    30
 10
72.999957397372214
 20
341.78215202628718
 30
0.0
 11
-72.99995739737227
 21
341.78215202628718
 31
0.0
  0
CIRCLE
  8
SIZE
  6
CONTINUOUS
 62
    30
 10
84.999957397372214
 20
341.78215202628718
 30
0.0
 40
6.0
  0
LINE
  8
SIZE
  6
CONTINUOUS
 62
    30
 10
84.999957397372214
 20
341.78215202628718
 30
0.0
 11
72.999957397372214
 21
341.78215202628718
 31
0.0
  0
CIRCLE
  8
SIZE
  6
CONTINUOUS
 62
    30
 10
-84.99995739737227
 20
341.78215202628718
 30
0.0
 40
6.0
  0
LINE
  8
SIZE
  6
CONTINUOUS
 62
    30
 10
-84.99995739737227
 20
341.78215202628718
 30
0.0
 11
-72.99995739737227
 21
341.78215202628718
 31
0.0
  0
TEXT
  8
SIZE
  6
CONTINUOUS
 62
    30
 10
-105.0514285714286
 20
366.78215202628718
 30
0.0
 40
64.0
  1
□170
 41
0.9
 72
     1
 11
0.0
 21
366.78215202628718
 31
0.0
  0
LINE
  8
OUTLINE
  6
CONTINUOUS
 62
     3
 10
-84.003368174960869
 20
-94.965605247372054
 30
0.0
 11
84.003392612372224
 21
-94.965605247372054
 31
0.0
  0
LINE
  8
OUTLINE
  6
CONTINUOUS
 62
     3
 10
-12.483152657358289
 20
-94.965635331525959
 30
0.0
 11
-12.48315246704863
 21
-98.985127586649128
 31
0.0
  0
ARC
  8
OUTLINE
  6
CONTINUOUS
 62
     3
 10
-11.486544446683411
 20
-98.984932569683806
 30
0.0
 40
0.9966098936081126
 50
180.0112100753004
 51
269.9887899205014
  0
ARC
  8
OUTLINE
  6
CONTINUOUS
 62
     3
 10
84.003392612372224
 20
74.037744762372299
 30
0.0
 40
0.996564785
 50
0.0
 51
90.0
  0
ARC
  8
OUTLINE
  6
CONTINUOUS
 62
     3
 10
-84.003392612372224
 20
74.037744762372299
 30
0.0
 40
0.996564785
 50
90.0
 51
180.0
  0
ARC
  8
OUTLINE
  6
CONTINUOUS
 62
     3
 10
84.003392612372224
 20
-93.969040462372149
 30
0.0
 40
0.996564785
 50
270.0
 51
0.0
  0
LINE
  8
OUTLINE
  6
CONTINUOUS
 62
     3
 10
-84.604810503991985
 20
-66.969153552000193
 30
0.0
 11
-84.601331483372178
 21
-67.766405380000037
 31
0.0
  0
ARC
  8
OUTLINE
  6
CONTINUOUS
 62
     3
 10
-84.003392612372224
 20
-93.96904045983969
 30
0.0
 40
0.99656478500001
 50
180.0
 51
270.00140498696408
  0
LINE
  8
OUTLINE
  6
CONTINUOUS
 62
     3
 10
-84.99995739737227
 20
-67.766405380000037
 30
0.0
 11
-84.99995739737227
 21
-93.96904045983969
 31
0.0
  0
LINE
  8
OUTLINE
  6
CONTINUOUS
 62
     3
 10
84.604810503992027
 20
-67.766405380000037
 30
0.0
 11
84.601331483372221
 21
-66.969153552000193
 31
0.0
  0
LINE
  8
OUTLINE
  6
CONTINUOUS
 62
     3
 10
84.999957397372214
 20
-66.969153552000193
 30
0.0
 11
84.999957397372214
 21
74.037744762372299
 31
0.0
  0
LINE
  8
OUTLINE
  6
CONTINUOUS
 62
     3
 10
84.999957397372214
 20
-93.969040462372149
 30
0.0
 11
84.999957397372214
 21
-67.766405380000037
 31
0.0
  0
ARC
  8
OUTLINE
  6
CONTINUOUS
 62
     3
 10
11.486587682048709
 20
-98.98497580504872
 30
0.0
 40
0.996564785
 50
270.0
 51
0.0
  0
LINE
  8
OUTLINE
  6
CONTINUOUS
 62
     3
 10
12.48315246704874
 20
-98.985127586649128
 30
0.0
 11
12.4831526574651
 21
-94.965605247372054
 31
0.0
  0
LINE
  8
OUTLINE
  6
CONTINUOUS
 62
     3
 10
15.60212329356284
 20
-94.965544534752198
 30
0.0
 11
15.60224723612583
 21
-94.965578274250333
 31
0.0
  0
LINE
  8
OUTLINE
  6
CONTINUOUS
 62
     3
 10
-11.486587682048651
 20
-99.981540590048638
 30
0.0
 11
11.486587682048709
 21
-99.981540590048638
 31
0.0
  0
LINE
  8
OUTLINE
  6
CONTINUOUS
 62
     3
 10
-84.99995739737227
 20
74.037744762372299
 30
0.0
 11
-84.99995739737227
 21
-66.969153552000193
 31
0.0
  0
LINE
  8
OUTLINE
  6
CONTINUOUS
 62
     3
 10
84.003392612372224
 20
75.034309547372217
 30
0.0
 11
-84.003392612372224
 21
75.034309547372217
 31
0.0
  0
LINE
  8
NOTE
  6
CONTINUOUS
 62
     4
 10
-55.999999999999893
 20
36.036828854304993
 30
0.0
 11
-56.0
 21
44.406760382941229
 31
0.0
  0
CIRCLE
  8
DETAIL
  6
CONTINUOUS
 62
     5
 10
0.0
 20
0.0
 30
0.0
 40
23.0
  0
CIRCLE
  8
DETAIL
  6
CONTINUOUS
 62
     5
 10
0.0
 20
0.0
 30
0.0
 40
47.5
  0
LINE
  8
DETAIL
  6
CONTINUOUS
 62
     5
 10
84.999957397372214
 20
-66.969153552000193
 30
0.0
 11
-84.99995739737227
 21
-66.969153552000193
 31
0.0
  0
LINE
  8
DETAIL
  6
CONTINUOUS
 62
     5
 10
-84.99995739737227
 20
-67.766405380000037
 30
0.0
 11
84.999957397372214
 21
-67.766405380000037
 31
0.0
  0
LINE
  8
SIZE
  6
CONTINUOUS
 62
    30
 10
75.042358875000033
 20
20.996564784999919
 30
0.0
 11
75.042358875000033
 21
242.67387241090501
 31
0.0
  0
LINE
  8
SIZE
  6
CONTINUOUS
 62
    30
 10
-75.042358875000033
 20
20.996564784999919
 30
0.0
 11
-75.042358875000033
 21
242.67387241090501
 31
0.0
  0
LINE
  8
SIZE
  6
CONTINUOUS
 62
    30
 10
63.042358875000048
 20
222.67387241090501
 30
0.0
 11
-63.042358874999991
 21
222.67387241090501
 31
0.0
  0
CIRCLE
  8
SIZE
  6
CONTINUOUS
 62
    30
 10
75.042358875000033
 20
222.67387241090501
 30
0.0
 40
6.0
  0
LINE
  8
SIZE
  6
CONTINUOUS
 62
    30
 10
75.042358875000033
 20
222.67387241090501
 30
0.0
 11
63.042358875000048
 21
222.67387241090501
 31
0.0
  0
CIRCLE
  8
SIZE
  6
CONTINUOUS
 62
    30
 10
-75.042358875000033
 20
222.67387241090501
 30
0.0
 40
6.0
  0
LINE
  8
SIZE
  6
CONTINUOUS
 62
    30
 10
-75.042358875000033
 20
222.67387241090501
 30
0.0
 11
-63.042358874999991
 21
222.67387241090501
 31
0.0
  0
TEXT
  8
SIZE
  6
CONTINUOUS
 62
    30
 10
-68.571428571428569
 20
247.67387241090501
 30
0.0
 40
64.0
  1
150
 41
0.9
 72
     1
 11
0.0
 21
247.67387241090501
 31
0.0
  0
LINE
  8
SIZE
  6
CONTINUOUS
 62
    30
 10
-104.0033926123722
 20
75.034309547372217
 30
0.0
 11
-288.56918076702277
 21
75.034309547372288
 31
0.0
  0
LINE
  8
SIZE
  6
CONTINUOUS
 62
    30
 10
-145.45612470509059
 20
0.0
 30
0.0
 11
-288.56918076702277
 21
0.0000000000000568
 31
0.0
  0
LINE
  8
SIZE
  6
CONTINUOUS
 62
    30
 10
-268.56918076702277
 20
87.034309547372303
 30
0.0
 11
-268.56918076702277
 21
99.034309547372288
 31
0.0
  0
LINE
  8
SIZE
  6
CONTINUOUS
 62
    30
 10
-268.56918076702277
 20
-11.99999999999997
 30
0.0
 11
-268.56918076702277
 21
-23.999999999999972
 31
0.0
  0
LINE
  8
SIZE
  6
CONTINUOUS
 62
    30
 10
-268.56918076702277
 20
75.034309547372288
 30
0.0
 11
-268.56918076702277
 21
0.0000000000000284
 31
0.0
  0
CIRCLE
  8
SIZE
  6
CONTINUOUS
 62
    30
 10
-268.56918076702277
 20
75.034309547372288
 30
0.0
 40
6.0
  0
LINE
  8
SIZE
  6
CONTINUOUS
 62
    30
 10
-268.56918076702277
 20
75.034309547372288
 30
0.0
 11
-268.56918076702277
 21
87.034309547372303
 31
0.0
  0
CIRCLE
  8
SIZE
  6
CONTINUOUS
 62
    30
 10
-268.56918076702277
 20
0.0000000000000284
 30
0.0
 40
6.0
  0
LINE
  8
SIZE
  6
CONTINUOUS
 62
    30
 10
-268.56918076702277
 20
0.0000000000000284
 30
0.0
 11
-268.56918076702277
 21
-11.99999999999997
 31
0.0
  0
TEXT
  8
SIZE
  6
CONTINUOUS
 62
    30
 10
-293.56918076702277
 20
-9.1114166548853106
 30
0.0
 40
64.0
  1
75
 50
90.0
 41
0.9
 72
     1
 11
-293.56918076702277
 21
37.517154773686123
 31
0.0
  0
LINE
  8
SIZE
  6
CONTINUOUS
 62
    30
 10
-145.45612470509059
 20
0.0
 30
0.0
 11
-288.56918076702277
 21
0.0000000000000568
 31
0.0
  0
LINE
  8
SIZE
  6
CONTINUOUS
 62
    30
 10
-145.45612470509059
 20
-9.9656478500000958
 30
0.0
 11
-288.56918076702277
 21
-9.9656478500000407
 31
0.0
  0
LINE
  8
SIZE
  6
CONTINUOUS
 62
    30
 10
-268.56918076702277
 20
12.00000000000003
 30
0.0
 11
-268.56918076702277
 21
24.000000000000028
 31
0.0
  0
LINE
  8
SIZE
  6
CONTINUOUS
 62
    30
 10
-268.56918076702277
 20
-21.965647850000039
 30
0.0
 11
-268.56918076702277
 21
-166.25136213571429
 31
0.0
  0
LINE
  8
SIZE
  6
CONTINUOUS
 62
    30
 10
-268.56918076702277
 20
0.0000000000000284
 30
0.0
 11
-268.56918076702277
 21
-9.9656478500000407
 31
0.0
  0
CIRCLE
  8
SIZE
  6
CONTINUOUS
 62
    30
 10
-268.56918076702277
 20
0.0000000000000284
 30
0.0
 40
6.0
  0
LINE
  8
SIZE
  6
CONTINUOUS
 62
    30
 10
-268.56918076702277
 20
0.0000000000000284
 30
0.0
 11
-268.56918076702277
 21
12.00000000000003
 31
0.0
  0
CIRCLE
  8
SIZE
  6
CONTINUOUS
 62
    30
 10
-268.56918076702277
 20
-9.9656478500000407
 30
0.0
 40
6.0
  0
LINE
  8
SIZE
  6
CONTINUOUS
 62
    30
 10
-268.56918076702277
 20
-9.9656478500000407
 30
0.0
 11
-268.56918076702277
 21
-21.965647850000039
 31
0.0
  0
TEXT
  8
SIZE
  6
CONTINUOUS
 62
    30
 10
-293.56918076702277
 20
-141.25136213571429
 30
0.0
 40
64.0
  1
10
 50
90.0
 41
0.9
 72
     1
 11
-293.56918076702277
 21
-100.10850499285721
 31
0.0
  0
LINE
  8
SIZE
  6
CONTINUOUS
 62
    30
 10
-100.0251828
 20
-3.9862591400001288
 30
0.0
 11
-182.66656734869321
 21
-3.9862591400001008
 31
0.0
  0
LINE
  8
SIZE
  6
CONTINUOUS
 62
    30
 10
-145.45612470509059
 20
-9.9656478500000958
 30
0.0
 11
-182.66656734869321
 21
-9.9656478500000674
 31
0.0
  0
LINE
  8
SIZE
  6
CONTINUOUS
 62
    30
 10
-162.66656734869321
 20
8.0137408599998992
 30
0.0
 11
-162.66656734869321
 21
20.013740859999871
 31
0.0
  0
LINE
  8
SIZE
  6
CONTINUOUS
 62
    30
 10
-162.66656734869321
 20
-21.965647850000082
 30
0.0
 11
-162.66656734869321
 21
-119.6227907071429
 31
0.0
  0
LINE
  8
SIZE
  6
CONTINUOUS
 62
    30
 10
-162.66656734869321
 20
-3.9862591400001008
 30
0.0
 11
-162.66656734869321
 21
-9.9656478500000958
 31
0.0
  0
CIRCLE
  8
SIZE
  6
CONTINUOUS
 62
    30
 10
-162.66656734869321
 20
-3.9862591400001008
 30
0.0
 40
6.0
  0
LINE
  8
SIZE
  6
CONTINUOUS
 62
    30
 10
-162.66656734869321
 20
-3.9862591400001008
 30
0.0
 11
-162.66656734869321
 21
8.0137408599998992
 31
0.0
  0
CIRCLE
  8
SIZE
  6
CONTINUOUS
 62
    30
 10
-162.66656734869321
 20
-9.9656478500000958
 30
0.0
 40
6.0
  0
LINE
  8
SIZE
  6
CONTINUOUS
 62
    30
 10
-162.66656734869321
 20
-9.9656478500000958
 30
0.0
 11
-162.66656734869321
 21
-21.965647850000082
 31
0.0
  0
TEXT
  8
SIZE
  6
CONTINUOUS
 62
    30
 10
-187.66656734869321
 20
-94.622790707142968
 30
0.0
 40
64.0
  1
6
 50
90.0
 41
0.9
 72
     1
 11
-187.66656734869321
 21
-76.794219278571546
 31
0.0
  0
LINE
  8
SIZE
  6
CONTINUOUS
 62
    30
 10
-104.0033681749609
 20
-94.965605247372054
 30
0.0
 11
-145.14600761144911
 21
-94.965605247372054
 31
0.0
  0
LINE
  8
SIZE
  6
CONTINUOUS
 62
    30
 10
-20.0
 20
-99.981540590048638
 30
0.0
 11
-145.14600761144899
 21
-99.981540590048624
 31
0.0
  0
LINE
  8
SIZE
  6
CONTINUOUS
 62
    30
 10
-125.14600761144899
 20
-82.965605247372068
 30
0.0
 11
-125.14600761144899
 21
-70.965605247372068
 31
0.0
  0
LINE
  8
SIZE
  6
CONTINUOUS
 62
    30
 10
-125.14600761144899
 20
-111.9815405900486
 30
0.0
 11
-125.14600761144909
 21
-212.38154059004859
 31
0.0
  0
LINE
  8
SIZE
  6
CONTINUOUS
 62
    30
 10
-125.14600761144899
 20
-94.965605247372054
 30
0.0
 11
-125.14600761144899
 21
-99.981540590048624
 31
0.0
  0
CIRCLE
  8
SIZE
  6
CONTINUOUS
 62
    30
 10
-125.14600761144899
 20
-94.965605247372054
 30
0.0
 40
6.0
  0
LINE
  8
SIZE
  6
CONTINUOUS
 62
    30
 10
-125.14600761144899
 20
-94.965605247372054
 30
0.0
 11
-125.14600761144899
 21
-82.965605247372068
 31
0.0
  0
CIRCLE
  8
SIZE
  6
CONTINUOUS
 62
    30
 10
-125.14600761144899
 20
-99.981540590048624
 30
0.0
 40
6.0
  0
LINE
  8
SIZE
  6
CONTINUOUS
 62
    30
 10
-125.14600761144899
 20
-99.981540590048624
 30
0.0
 11
-125.14600761144899
 21
-111.9815405900486
 31
0.0
  0
TEXT
  8
SIZE
  6
CONTINUOUS
 62
    30
 10
-150.14600761144899
 20
-187.3815405900487
 30
0.0
 40
64.0
  1
5
 50
90.0
 41
0.9
 72
     1
 11
-150.14600761144899
 21
-168.18154059004871
 31
0.0
  0
LINE
  8
SIZE
  6
CONTINUOUS
 62
    30
 10
315.12406946658348
 20
-138.20342602654361
 30
0.0
 11
54.489963546136721
 21
-23.897570435939461
 31
0.0
  0
LINE
  8
SIZE
  6
CONTINUOUS
 62
    30
 10
-54.489963546136721
 20
23.897570435939461
 30
0.0
 11
-65.479536026029905
 21
28.717248507053309
 31
0.0
  0
TEXT
  8
SIZE
  6
CONTINUOUS
 62
    30
 10
156.07741002053419
 20
-41.15199852402349
 30
0.0
 40
64.0
  1
φ95
 50
336.31926715310823
 41
0.9
 72
     1
 11
235.7047123319883
 21
-76.074008776437068
 31
0.0
  0
LINE
  8
SIZE
  6
CONTINUOUS
 62
    30
 10
-43.500391066243651
 20
19.077892364825601
 30
0.0
 11
43.500391066243651
 21
-19.077892364825601
 31
0.0
  0
CIRCLE
  8
SIZE
  6
CONTINUOUS
 62
    30
 10
-43.500391066243651
 20
19.077892364825601
 30
0.0
 40
6.0
  0
LINE
  8
SIZE
  6
CONTINUOUS
 62
    30
 10
-43.500391066243651
 20
19.077892364825601
 30
0.0
 11
-54.489963546136778
 21
23.897570435939461
 31
0.0
  0
CIRCLE
  8
SIZE
  6
CONTINUOUS
 62
    30
 10
43.500391066243651
 20
-19.077892364825601
 30
0.0
 40
6.0
  0
LINE
  8
SIZE
  6
CONTINUOUS
 62
    30
 10
43.500391066243651
 20
-19.077892364825601
 30
0.0
 11
54.489963546136778
 21
-23.897570435939461
 31
0.0
  0
LINE
  8
SIZE
  6
CONTINUOUS
 62
    30
 10
322.79446329016292
 20
93.066308267394845
 30
0.0
 11
33.630142671410908
 21
9.6960561003196517
 31
0.0
  0
LINE
  8
SIZE
  6
CONTINUOUS
 62
    30
 10
-33.630142671410908
 20
-9.6960561003196517
 30
0.0
 11
-45.160477301608971
 21
-13.02041819185783
 31
0.0
  0
TEXT
  8
SIZE
  6
CONTINUOUS
 62
    30
 10
141.09628911668059
 20
66.698424587092433
 30
0.0
 40
64.0
  1
φ46
 50
16.083035903493059
 41
0.9
 72
     1
 11
223.32404693660709
 21
90.405875388461766
 31
0.0
  0
LINE
  8
SIZE
  6
CONTINUOUS
 62
    30
 10
-22.099808041212889
 20
-6.3716940087815033
 30
0.0
 11
22.099808041212889
 21
6.3716940087815033
 31
0.0
  0
CIRCLE
  8
SIZE
  6
CONTINUOUS
 62
    30
 10
-22.099808041212889
 20
-6.3716940087815033
 30
0.0
 40
6.0
  0
LINE
  8
SIZE
  6
CONTINUOUS
 62
    30
 10
-22.099808041212889
 20
-6.3716940087815033
 30
0.0
 11
-33.630142671410908
 21
-9.6960561003196517
 31
0.0
  0
CIRCLE
  8
SIZE
  6
CONTINUOUS
 62
    30
 10
22.099808041212889
 20
6.3716940087815033
 30
0.0
 40
6.0
  0
LINE
  8
SIZE
  6
CONTINUOUS
 62
    30
 10
22.099808041212889
 20
6.3716940087815033
 30
0.0
 11
33.630142671410908
 21
9.6960561003196801
 31
0.0
  0
TEXT
  8
NOTE
  6
CONTINUOUS
 62
     4
 10
-238.62105812989051
 20
118.47588348985229
 30
0.0
 40
64.0
  1
EL
 41
0.9
 72
     2
 11
-153.59248670131899
 21
118.47588348985229
 31
0.0
  0
TEXT
  8
NOTE
  6
CONTINUOUS
 62
     4
 10
137.70863110701569
 20
-223.40346941624509
 30
0.0
 40
64.0
  1
2-φ4×10
 41
0.9
  0
LINE
  8
NOTE
  6
CONTINUOUS
 62
     4
 10
-60.505660528616502
 20
44.275946970071907
 30
0.0
 11
-55.999999999999943
 21
40.0
 31
0.0
  0
LINE
  8
NOTE
  6
CONTINUOUS
 62
     4
 10
-55.999999999999943
 20
40.0
 30
0.0
 11
-62.039992149082593
 21
41.450239335082408
 31
0.0
  0
LINE
  8
NOTE
  6
CONTINUOUS
 62
     4
 10
-55.999999999999943
 20
40.0
 30
0.0
 11
-66.545652677699081
 21
45.726186305154322
 31
0.0
  0
LINE
  8
NOTE
  6
CONTINUOUS
 62
     4
 10
-66.545652677699081
 20
45.726186305154322
 30
0.0
 11
-141.59248670131899
 21
86.475883489852308
 31
0.0
  0
LINE
  8
NOTE
  6
CONTINUOUS
 62
     4
 10
-141.59248670131899
 20
86.475883489852308
 30
0.0
 11
-238.6210581298904
 21
86.475883489852308
 31
0.0
  0
LINE
  8
NOTE
  6
CONTINUOUS
 62
     4
 10
74.64192451452783
 20
-10.18499704484441
 30
0.0
 11
75.042358875000033
 21
-3.9862591400001288
 31
0.0
  0
LINE
  8
NOTE
  6
CONTINUOUS
 62
     4
 10
75.042358875000033
 20
-3.9862591400001288
 30
0.0
 11
77.79494989009055
 21
-9.5547366692394462
 31
0.0
  0
LINE
  8
NOTE
  6
CONTINUOUS
 62
     4
 10
75.042358875000033
 20
-3.9862591400001288
 30
0.0
 11
77.394515529618261
 21
-15.753474574083731
 31
0.0
  0
LINE
  8
NOTE
  6
CONTINUOUS
 62
     4
 10
77.394515529618261
 20
-15.753474574083731
 30
0.0
 11
128.01656119986231
 21
-269.00213296858919
 31
0.0
  0
LINE
  8
NOTE
  6
CONTINUOUS
 62
     4
 10
128.01656119986231
 20
-269.00213296858919
 30
0.0
 11
532.7937040570049
 21
-269.00213296858919
 31
0.0
  0
CIRCLE
  8
FIX
  6
CONTINUOUS
 62
    11
 10
75.042358875000033
 20
-3.986259140000044
 30
0.0
 40
5.0
  0
CIRCLE
  8
FIX
  6
CONTINUOUS
 62
    11
 10
-75.042358875000033
 20
-3.9862591400001288
 30
0.0
 40
5.0
  0
LINE
  8
NOTE
  6
CONTINUOUS
 62
     4
 10
-59.981877039825747
 20
40.0
 30
0.0
 11
-52.01812296017421
 21
40.0
 31
0.0
  0
ENDSEC
  0
EOF
