  0
SECTION
  2
HEADER
  9
$ACADVER
  1
AC1009
  9
$DWGCODEPAGE
  3
dos932
  9
$INSBASE
 10
0.0
 20
0.0
 30
0.0
  9
$EXTMIN
 10
-644.43052545472892
 20
-486.41966607703398
 30
-0.0015258207003583
  9
$EXTMAX
 10
793.07557281930349
 20
695.34302572177512
 30
0.0000000349246037
  9
$LIMMIN
 10
-2970.0
 20
-2100.0
  9
$LIMMAX
 10
2970.0
 20
2100.0
  9
$ORTHOMODE
 70
     1
  9
$REGENMODE
 70
     1
  9
$FILLMODE
 70
     1
  9
$QTEXTMODE
 70
     0
  9
$MIRRTEXT
 70
     0
  9
$LTSCALE
 40
20.0
  9
$ATTMODE
 70
     1
  9
$TEXTSIZE
 40
64.0
  9
$TRACEWID
 40
0.05
  9
$TEXTSTYLE
  7
STANDARD
  9
$CLAYER
  8
SIZE
  9
$CELTYPE
  6
CONTINUOUS
  9
$CECOLOR
 62
     7
  9
$DIMSCALE
 40
1.0
  9
$DIMASZ
 40
12.0
  9
$DIMEXO
 40
20.0
  9
$DIMDLI
 40
200.0
  9
$DIMRND
 40
0.0
  9
$DIMDLE
 40
0.0
  9
$DIMEXE
 40
20.0
  9
$DIMTP
 40
0.0
  9
$DIMTM
 40
0.0
  9
$DIMTXT
 40
64.0
  9
$DIMCEN
 40
0.09
  9
$DIMTSZ
 40
0.0
  9
$DIMTOL
 70
     0
  9
$DIMLIM
 70
     0
  9
$DIMTIH
 70
     0
  9
$DIMTOH
 70
     0
  9
$DIMSE1
 70
     0
  9
$DIMSE2
 70
     0
  9
$DIMTAD
 70
     1
  9
$DIMZIN
 70
     8
  9
$DIMBLK
  1

  9
$DIMASO
 70
     1
  9
$DIMSHO
 70
     0
  9
$DIMPOST
  1

  9
$DIMAPOST
  1

  9
$DIMALT
 70
     0
  9
$DIMALTD
 70
     2
  9
$DIMALTF
 40
25.399999999999999
  9
$DIMLFAC
 40
1.0
  9
$DIMTOFL
 70
     1
  9
$DIMTVP
 40
0.0
  9
$DIMTIX
 70
     1
  9
$DIMSOXD
 70
     0
  9
$DIMSAH
 70
     0
  9
$DIMBLK1
  1

  9
$DIMBLK2
  1

  9
$DIMSTYLE
  2
STANDARD
  9
$DIMCLRD
 70
     7
  9
$DIMCLRE
 70
     7
  9
$DIMCLRT
 70
     7
  9
$DIMTFAC
 40
1.0
  9
$DIMGAP
 40
25.0
  9
$LUNITS
 70
     2
  9
$LUPREC
 70
     4
  9
$SKETCHINC
 40
0.1
  9
$FILLETRAD
 40
3.0
  9
$AUNITS
 70
     1
  9
$AUPREC
 70
     3
  9
$MENU
  1
ACAD
  9
$ELEVATION
 40
0.0
  9
$PELEVATION
 40
0.0
  9
$THICKNESS
 40
0.0
  9
$LIMCHECK
 70
     0
  9
$CHAMFERA
 40
0.0
  9
$CHAMFERB
 40
0.0
  9
$SKPOLY
 70
     0
  9
$TDCREATE
 40
2453019.623009259
  9
$TDUPDATE
 40
2459356.658855313
  9
$TDINDWG
 40
1.7286270949
  9
$TDUSRTIMER
 40
1.7286270949
  9
$USRTIMER
 70
     1
  9
$ANGBASE
 50
0.0
  9
$ANGDIR
 70
     0
  9
$PDMODE
 70
     3
  9
$PDSIZE
 40
-2.0
  9
$PLINEWID
 40
0.0
  9
$SPLFRAME
 70
     0
  9
$SPLINETYPE
 70
     6
  9
$SPLINESEGS
 70
     8
  9
$SURFTAB1
 70
     6
  9
$SURFTAB2
 70
     6
  9
$SURFTYPE
 70
     6
  9
$SURFU
 70
     6
  9
$SURFV
 70
     6
  9
$UCSNAME
  2

  9
$UCSORG
 10
0.0
 20
0.0
 30
0.0
  9
$UCSXDIR
 10
1.0
 20
0.0
 30
0.0
  9
$UCSYDIR
 10
0.0
 20
1.0
 30
0.0
  9
$PUCSNAME
  2

  9
$PUCSORG
 10
0.0
 20
0.0
 30
0.0
  9
$PUCSXDIR
 10
1.0
 20
0.0
 30
0.0
  9
$PUCSYDIR
 10
0.0
 20
1.0
 30
0.0
  9
$USERI1
 70
     0
  9
$USERI2
 70
     0
  9
$USERI3
 70
     0
  9
$USERI4
 70
     0
  9
$USERI5
 70
     0
  9
$USERR1
 40
20.0
  9
$USERR2
 40
0.0
  9
$USERR3
 40
0.0
  9
$USERR4
 40
0.0
  9
$USERR5
 40
0.0
  9
$WORLDVIEW
 70
     1
  9
$SHADEDGE
 70
     3
  9
$SHADEDIF
 70
    70
  9
$TILEMODE
 70
     1
  9
$MAXACTVP
 70
    48
  9
$PINSBASE
 10
0.0
 20
0.0
 30
0.0
  9
$PLIMCHECK
 70
     0
  9
$PEXTMIN
 10
-100000000000000000000.0
 20
-100000000000000000000.0
 30
-100000000000000000000.0
  9
$PEXTMAX
 10
100000000000000000000.0
 20
100000000000000000000.0
 30
100000000000000000000.0
  9
$PLIMMIN
 10
0.0
 20
0.0
  9
$PLIMMAX
 10
12.0
 20
9.0
  9
$UNITMODE
 70
     0
  9
$VISRETAIN
 70
     0
  9
$PLINEGEN
 70
     0
  9
$PSLTSCALE
 70
     0
  9
$TREEDEPTH
 70
  3020
  9
$ATTDIA
 70
     0
  9
$ATTREQ
 70
     1
  9
$BLIPMODE
 70
     1
  9
$COORDS
 70
     1
  9
$DRAGMODE
 70
     2
  9
$OSMODE
 70
     0
  9
$HANDLING
 70
     0
  9
$HANDSEED
  5
5C5
  0
ENDSEC
  0
SECTION
  2
TABLES
  0
TABLE
  2
LTYPE
 70
     2
  0
LTYPE
  2
CONTINUOUS
 70
     0
  3
実線
 72
    65
 73
     0
 40
0.0
  0
LTYPE
  2
DASHDOT
 70
     0
  3
____ _ ____ _ ____ _ ____ _ ____ _ ____ _ ____
 72
    65
 73
     4
 40
5.5
 49
4.0
 49
-0.6
 49
0.3
 49
-0.6
  0
ENDTAB
  0
TABLE
  2
LAYER
 70
    12
  0
LAYER
  2
SIZE
 70
     0
 62
    30
  6
CONTINUOUS
  0
LAYER
  2
BASIS
 70
     0
 62
     6
  6
DASHDOT
  0
LAYER
  2
OUTLINE
 70
     0
 62
     3
  6
CONTINUOUS
  0
LAYER
  2
DETAIL
 70
     0
 62
     5
  6
CONTINUOUS
  0
LAYER
  2
ARRANGE
 70
     0
 62
     1
  6
CONTINUOUS
  0
LAYER
  2
ETC
 70
     0
 62
    61
  6
CONTINUOUS
  0
LAYER
  2
FIX
 70
     0
 62
    11
  6
CONTINUOUS
  0
LAYER
  2
NOTE
 70
     0
 62
     4
  6
CONTINUOUS
  0
LAYER
  2
0
 70
    64
 62
     7
  6
CONTINUOUS
  0
LAYER
  2
DEFPOINTS
 70
    64
 62
     7
  6
CONTINUOUS
  0
LAYER
  2
SERVICESPACE
 70
    64
 62
     2
  6
DASHDOT
  0
LAYER
  2
SYMBOLLINE
 70
    64
 62
    15
  6
CONTINUOUS
  0
ENDTAB
  0
TABLE
  2
STYLE
 70
     1
  0
STYLE
  2
STANDARD
 70
     0
 40
64.0
 41
0.9
 50
0.0
 71
     0
 42
64.0
  3
SIMPLEX.shx
  4
BIGFONT.shx
  0
ENDTAB
  0
TABLE
  2
APPID
 70
    20
  0
APPID
  2
ACAD
 70
     0
  0
APPID
  2
ACADANNOTATIVE
 70
     0
  0
APPID
  2
AUTOCAD_POSTSCRIPT_FIGURE
 70
     0
  0
APPID
  2
ACAD_EXEMPT_FROM_CAD_STANDARDS
 70
     0
  0
APPID
  2
ACAD_PSEXT
 70
     0
  0
APPID
  2
ACAUTHENVIRON
 70
     0
  0
APPID
  2
GENIUS_GENOENT_13
 70
     0
  0
APPID
  2
GENIUS_GENCFG_13
 70
     0
  0
APPID
  2
GENIUS_GENCFG0_13
 70
     0
  0
APPID
  2
GENIUS_GENCFG1_13
 70
     0
  0
APPID
  2
GENIUS_GENCFG2_13
 70
     0
  0
APPID
  2
GENIUS_GENCFG3_13
 70
     0
  0
APPID
  2
GENIUS_GENCFG4_13
 70
     0
  0
APPID
  2
GENIUS_GEVCFG0_13
 70
     0
  0
APPID
  2
CONTENTBLOCKICON
 70
     0
  0
APPID
  2
CONTENTBLOCKDESCRIPTION
 70
     0
  0
APPID
  2
ACAD_NAV_VCDISPLAY
 70
     0
  0
APPID
  2
ACAD_MLEADERVER
 70
     0
  0
APPID
  2
ACDBDYNAMICBLOCKTRUENAME
 70
     0
  0
APPID
  2
ACDBDYNAMICBLOCKGUID
 70
     0
  0
ENDTAB
  0
TABLE
  2
DIMSTYLE
 70
     1
  0
DIMSTYLE
  2
STANDARD
 70
     0
  3

  4

  5

  6

  7

 40
1.0
 41
12.0
 42
20.0
 43
200.0
 44
20.0
 45
0.0
 46
0.0
 47
0.0
 48
0.0
140
64.0
141
0.09
142
0.0
143
25.399999999999999
144
1.0
145
0.0
146
1.0
147
25.0
 71
     0
 72
     0
 73
     0
 74
     0
 75
     0
 76
     0
 77
     1
 78
     8
170
     0
171
     2
172
     1
173
     0
174
     1
175
     0
176
     7
177
     7
178
     7
  0
ENDTAB
  0
TABLE
  2
VIEW
 70
     1
  0
VIEW
  2
ALL
 70
     0
 40
4282.6198079999986
 10
0.0
 20
41.309904000000003
 41
5940.0
 11
0.0
 21
0.0
 31
1.0
 12
0.0
 22
0.0
 32
0.0
 42
50.0
 43
0.0
 44
0.0
 50
0.0
 71
     0
  0
ENDTAB
  0
TABLE
  2
UCS
 70
     0
  0
ENDTAB
  0
TABLE
  2
VPORT
 70
     1
  0
VPORT
  2
*ACTIVE
 70
     0
 10
0.0
 20
0.0
 11
1.0
 21
1.0
 12
74.322523682287169
 22
104.4616798223706
 13
0.0
 23
0.0
 14
1.0
 24
1.0
 15
0.0
 25
0.0
 16
0.0
 26
0.0
 36
1.0
 17
0.0
 27
0.0
 37
0.0
 40
1031.503525858898
 41
1.9148387096774191
 42
50.0
 43
0.0
 44
0.0
 50
0.0
 51
0.0
 71
     0
 72
  1000
 73
     1
 74
     3
 75
     0
 76
     0
 77
     0
 78
     0
  0
ENDTAB
  0
ENDSEC
  0
SECTION
  2
BLOCKS
  0
ENDSEC
  0
SECTION
  2
ENTITIES
  0
LINE
  8
BASIS
  6
DASHDOT
 62
     6
 10
0.0
 20
-109.2854010143142
 30
0.0
 11
0.0
 21
109.2854010143142
 31
0.0
  0
LINE
  8
BASIS
  6
DASHDOT
 62
     6
 10
-95.967552833830496
 20
0.0
 30
0.0
 11
95.967646960021952
 21
0.0
 31
0.0
  0
CIRCLE
  8
FIX
  6
CONTINUOUS
 62
    11
 10
0.0
 20
69.965255095611042
 30
0.0
 40
7.0441691683918863
  0
LINE
  8
NOTE
  6
CONTINUOUS
 62
     4
 10
0.0
 20
43.94343737316899
 30
0.0
 11
0.0
 21
95.98707281805315
 31
0.0
  0
LINE
  8
NOTE
  6
CONTINUOUS
 62
     4
 10
-26.021817722442051
 20
69.965255095611042
 30
0.0
 11
26.021817722442051
 21
69.965255095611042
 31
0.0
  0
CIRCLE
  8
FIX
  6
CONTINUOUS
 62
    11
 10
0.0
 20
5.9999999952671601
 30
0.0
 40
7.0441691683918863
  0
LINE
  8
NOTE
  6
CONTINUOUS
 62
     4
 10
0.0
 20
-20.021817727174891
 30
0.0
 11
0.0
 21
32.021817717709268
 31
0.0
  0
LINE
  8
NOTE
  6
CONTINUOUS
 62
     4
 10
-26.021817722442051
 20
5.9999999952671601
 30
0.0
 11
26.021817722442051
 21
5.9999999952672169
 31
0.0
  0
CIRCLE
  8
FIX
  6
CONTINUOUS
 62
    11
 10
0.0
 20
-69.999999944784179
 30
0.0
 40
7.0441691683918863
  0
LINE
  8
NOTE
  6
CONTINUOUS
 62
     4
 10
0.0
 20
-96.021817667226273
 30
0.0
 11
0.0
 21
-43.978182222342127
 31
0.0
  0
LINE
  8
NOTE
  6
CONTINUOUS
 62
     4
 10
-26.021817722442051
 20
-69.999999944784179
 30
0.0
 11
26.021817722442051
 21
-69.999999944784179
 31
0.0
  0
CIRCLE
  8
FIX
  6
CONTINUOUS
 62
    11
 10
0.0
 20
53.532760575954683
 30
0.0
 40
7.0441691683918863
  0
LINE
  8
NOTE
  6
CONTINUOUS
 62
     4
 10
0.0
 20
27.510942853512571
 30
0.0
 11
0.0
 21
79.554578298396777
 31
0.0
  0
LINE
  8
NOTE
  6
CONTINUOUS
 62
     4
 10
26.021817722442051
 20
53.532760575954683
 30
0.0
 11
-26.021817722442169
 21
53.53276057595474
 31
0.0
  0
LINE
  8
SIZE
  6
CONTINUOUS
 62
    30
 10
51.5
 20
93.5
 30
0.0
 11
51.5
 21
328.42618669078172
 31
0.0
  0
LINE
  8
SIZE
  6
CONTINUOUS
 62
    30
 10
0.0
 20
129.2854010143142
 30
0.0
 11
0.0
 21
328.42618669078172
 31
0.0
  0
LINE
  8
SIZE
  6
CONTINUOUS
 62
    30
 10
63.5
 20
308.42618669078172
 30
0.0
 11
75.5
 21
308.42618669078172
 31
0.0
  0
LINE
  8
SIZE
  6
CONTINUOUS
 62
    30
 10
-12.0
 20
308.42618669078172
 30
0.0
 11
-24.0
 21
308.42618669078172
 31
0.0
  0
LINE
  8
SIZE
  6
CONTINUOUS
 62
    30
 10
51.5
 20
308.42618669078172
 30
0.0
 11
0.0
 21
308.42618669078172
 31
0.0
  0
CIRCLE
  8
SIZE
  6
CONTINUOUS
 62
    30
 10
51.5
 20
308.42618669078172
 30
0.0
 40
6.0
  0
LINE
  8
SIZE
  6
CONTINUOUS
 62
    30
 10
51.5
 20
308.42618669078172
 30
0.0
 11
63.5
 21
308.42618669078172
 31
0.0
  0
CIRCLE
  8
SIZE
  6
CONTINUOUS
 62
    30
 10
0.0
 20
308.42618669078172
 30
0.0
 40
6.0
  0
LINE
  8
SIZE
  6
CONTINUOUS
 62
    30
 10
0.0
 20
308.42618669078172
 30
0.0
 11
-12.0
 21
308.42618669078172
 31
0.0
  0
TEXT
  8
SIZE
  6
CONTINUOUS
 62
    30
 10
-56.535714285714278
 20
333.42618669078172
 30
0.0
 40
64.0
  1
51.5
 41
0.9
 72
     1
 11
25.75
 21
333.42618669078172
 31
0.0
  0
LINE
  8
SIZE
  6
CONTINUOUS
 62
    30
 10
68.5
 20
80.0
 30
0.0
 11
271.84118884187183
 21
79.999999999999929
 31
0.0
  0
LINE
  8
SIZE
  6
CONTINUOUS
 62
    30
 10
68.5
 20
-80.000000000000043
 30
0.0
 11
271.84118884187183
 21
-80.000000000000099
 31
0.0
  0
LINE
  8
SIZE
  6
CONTINUOUS
 62
    30
 10
251.8411888418718
 20
-68.000000000000099
 30
0.0
 11
251.84118884187191
 21
67.999999999999929
 31
0.0
  0
LINE
  8
SIZE
  6
CONTINUOUS
 62
    30
 10
251.84118884187191
 20
79.999999999999929
 30
0.0
 11
251.84118884187191
 21
344.42285714285708
 31
0.0
  0
CIRCLE
  8
SIZE
  6
CONTINUOUS
 62
    30
 10
251.8411888418718
 20
-80.000000000000099
 30
0.0
 40
6.0
  0
LINE
  8
SIZE
  6
CONTINUOUS
 62
    30
 10
251.8411888418718
 20
-80.000000000000099
 30
0.0
 11
251.8411888418718
 21
-68.000000000000099
 31
0.0
  0
CIRCLE
  8
SIZE
  6
CONTINUOUS
 62
    30
 10
251.84118884187191
 20
79.999999999999929
 30
0.0
 40
6.0
  0
LINE
  8
SIZE
  6
CONTINUOUS
 62
    30
 10
251.84118884187191
 20
79.999999999999929
 30
0.0
 11
251.84118884187191
 21
67.999999999999929
 31
0.0
  0
TEXT
  8
SIZE
  6
CONTINUOUS
 62
    30
 10
226.8411888418718
 20
113.1599999999999
 30
0.0
 40
64.0
  1
□160
 50
90.0
 41
0.9
 72
     1
 11
226.8411888418718
 21
218.21142857142851
 31
0.0
  0
LINE
  8
SIZE
  6
CONTINUOUS
 62
    30
 10
-46.021817722442037
 20
69.965255095611042
 30
0.0
 11
-575.1592456340104
 21
69.965255095611212
 31
0.0
  0
LINE
  8
SIZE
  6
CONTINUOUS
 62
    30
 10
-115.9675528338305
 20
0.0
 30
0.0
 11
-575.1592456340104
 21
0.0000000000001137
 31
0.0
  0
LINE
  8
SIZE
  6
CONTINUOUS
 62
    30
 10
-555.1592456340104
 20
-11.99999999999989
 30
0.0
 11
-555.1592456340104
 21
-23.99999999999989
 31
0.0
  0
LINE
  8
SIZE
  6
CONTINUOUS
 62
    30
 10
-555.1592456340104
 20
81.965255095611226
 30
0.0
 11
-555.1592456340104
 21
242.0863185434647
 31
0.0
  0
LINE
  8
SIZE
  6
CONTINUOUS
 62
    30
 10
-555.1592456340104
 20
0.0000000000001137
 30
0.0
 11
-555.1592456340104
 21
69.965255095611212
 31
0.0
  0
CIRCLE
  8
SIZE
  6
CONTINUOUS
 62
    30
 10
-555.1592456340104
 20
0.0000000000001137
 30
0.0
 40
6.0
  0
LINE
  8
SIZE
  6
CONTINUOUS
 62
    30
 10
-555.1592456340104
 20
0.0000000000001137
 30
0.0
 11
-555.1592456340104
 21
-11.99999999999989
 31
0.0
  0
CIRCLE
  8
SIZE
  6
CONTINUOUS
 62
    30
 10
-555.1592456340104
 20
69.965255095611212
 30
0.0
 40
6.0
  0
LINE
  8
SIZE
  6
CONTINUOUS
 62
    30
 10
-555.1592456340104
 20
69.965255095611212
 30
0.0
 11
-555.1592456340104
 21
81.965255095611226
 31
0.0
  0
TEXT
  8
SIZE
  6
CONTINUOUS
 62
    30
 10
-580.1592456340104
 20
123.8291756863217
 30
0.0
 40
64.0
  1
70
 50
90.0
 41
0.9
 72
     1
 11
-580.1592456340104
 21
170.45774711489321
 31
0.0
  0
LINE
  8
SIZE
  6
CONTINUOUS
 62
    30
 10
-115.9675528338305
 20
0.0
 30
0.0
 11
-187.1591489740899
 21
0.0000000000000568
 31
0.0
  0
LINE
  8
SIZE
  6
CONTINUOUS
 62
    30
 10
-46.021817722442037
 20
5.9999999952671601
 30
0.0
 11
-187.1591489740899
 21
5.9999999952672169
 31
0.0
  0
LINE
  8
SIZE
  6
CONTINUOUS
 62
    30
 10
-167.1591489740899
 20
-12.0
 30
0.0
 11
-167.1591489740899
 21
-24.0
 31
0.0
  0
LINE
  8
SIZE
  6
CONTINUOUS
 62
    30
 10
-167.1591489740899
 20
17.99999999526722
 30
0.0
 11
-167.1591489740899
 21
170.41916868416109
 31
0.0
  0
LINE
  8
SIZE
  6
CONTINUOUS
 62
    30
 10
-167.1591489740899
 20
0.0
 30
0.0
 11
-167.1591489740899
 21
5.9999999952672169
 31
0.0
  0
CIRCLE
  8
SIZE
  6
CONTINUOUS
 62
    30
 10
-167.1591489740899
 20
0.0
 30
0.0
 40
6.0
  0
LINE
  8
SIZE
  6
CONTINUOUS
 62
    30
 10
-167.1591489740899
 20
0.0
 30
0.0
 11
-167.1591489740899
 21
-12.0
 31
0.0
  0
CIRCLE
  8
SIZE
  6
CONTINUOUS
 62
    30
 10
-167.1591489740899
 20
5.9999999952672169
 30
0.0
 40
6.0
  0
LINE
  8
SIZE
  6
CONTINUOUS
 62
    30
 10
-167.1591489740899
 20
5.9999999952672169
 30
0.0
 11
-167.1591489740899
 21
17.99999999526722
 31
0.0
  0
TEXT
  8
SIZE
  6
CONTINUOUS
 62
    30
 10
-192.1591489740899
 20
109.76202582701831
 30
0.0
 40
64.0
  1
6
 50
90.0
 41
0.9
 72
     1
 11
-192.1591489740899
 21
127.5905972555897
 31
0.0
  0
LINE
  8
SIZE
  6
CONTINUOUS
 62
    30
 10
-115.9675528338305
 20
0.0
 30
0.0
 11
-575.1592456340104
 21
0.0000000000001137
 31
0.0
  0
LINE
  8
SIZE
  6
CONTINUOUS
 62
    30
 10
-46.021817722442037
 20
-69.999999944784179
 30
0.0
 11
-575.1592456340104
 21
-69.999999944784008
 31
0.0
  0
LINE
  8
SIZE
  6
CONTINUOUS
 62
    30
 10
-555.1592456340104
 20
12.00000000000011
 30
0.0
 11
-555.1592456340104
 21
24.00000000000011
 31
0.0
  0
LINE
  8
SIZE
  6
CONTINUOUS
 62
    30
 10
-555.1592456340104
 20
-81.999999944784008
 30
0.0
 11
-555.15924563401052
 21
-260.66450131800451
 31
0.0
  0
LINE
  8
SIZE
  6
CONTINUOUS
 62
    30
 10
-555.1592456340104
 20
0.0000000000001137
 30
0.0
 11
-555.1592456340104
 21
-69.999999944784008
 31
0.0
  0
CIRCLE
  8
SIZE
  6
CONTINUOUS
 62
    30
 10
-555.1592456340104
 20
0.0000000000001137
 30
0.0
 40
6.0
  0
LINE
  8
SIZE
  6
CONTINUOUS
 62
    30
 10
-555.1592456340104
 20
0.0000000000001137
 30
0.0
 11
-555.1592456340104
 21
12.00000000000011
 31
0.0
  0
CIRCLE
  8
SIZE
  6
CONTINUOUS
 62
    30
 10
-555.1592456340104
 20
-69.999999944784008
 30
0.0
 40
6.0
  0
LINE
  8
SIZE
  6
CONTINUOUS
 62
    30
 10
-555.1592456340104
 20
-69.999999944784008
 30
0.0
 11
-555.1592456340104
 21
-81.999999944784008
 31
0.0
  0
TEXT
  8
SIZE
  6
CONTINUOUS
 62
    30
 10
-580.1592456340104
 20
-235.6645013180046
 30
0.0
 40
64.0
  1
70
 50
90.0
 41
0.9
 72
     1
 11
-580.1592456340104
 21
-189.03592988943311
 31
0.0
  0
LINE
  8
SIZE
  6
CONTINUOUS
 62
    30
 10
-19.491217322504891
 20
-79.999952993389229
 30
0.0
 11
-240.42806508033209
 21
-79.999952993389172
 31
0.0
  0
LINE
  8
SIZE
  6
CONTINUOUS
 62
    30
 10
-4.5
 20
-84.800000000098592
 30
0.0
 11
-240.42806508033209
 21
-84.800000000098535
 31
0.0
  0
LINE
  8
SIZE
  6
CONTINUOUS
 62
    30
 10
-220.42806508033209
 20
-67.999952993389172
 30
0.0
 11
-220.42806508033209
 21
-55.999952993389172
 31
0.0
  0
LINE
  8
SIZE
  6
CONTINUOUS
 62
    30
 10
-220.42806508033209
 20
-96.800000000098521
 30
0.0
 11
-220.42806508033209
 21
-209.7054340177352
 31
0.0
  0
LINE
  8
SIZE
  6
CONTINUOUS
 62
    30
 10
-220.42806508033209
 20
-79.999952993389172
 30
0.0
 11
-220.42806508033209
 21
-84.800000000098535
 31
0.0
  0
CIRCLE
  8
SIZE
  6
CONTINUOUS
 62
    30
 10
-220.42806508033209
 20
-79.999952993389172
 30
0.0
 40
6.0
  0
LINE
  8
SIZE
  6
CONTINUOUS
 62
    30
 10
-220.42806508033209
 20
-79.999952993389172
 30
0.0
 11
-220.42806508033209
 21
-67.999952993389172
 31
0.0
  0
CIRCLE
  8
SIZE
  6
CONTINUOUS
 62
    30
 10
-220.42806508033209
 20
-84.800000000098535
 30
0.0
 40
6.0
  0
LINE
  8
SIZE
  6
CONTINUOUS
 62
    30
 10
-220.42806508033209
 20
-84.800000000098535
 30
0.0
 11
-220.42806508033209
 21
-96.800000000098521
 31
0.0
  0
TEXT
  8
SIZE
  6
CONTINUOUS
 62
    30
 10
-245.42806508033209
 20
-184.70543401773531
 30
0.0
 40
64.0
  1
5
 50
90.0
 41
0.9
 72
     1
 11
-245.42806508033209
 21
-165.5054340177353
 31
0.0
  0
LINE
  8
SIZE
  6
CONTINUOUS
 62
    30
 10
-43.0
 20
-47.504089243498584
 30
0.0
 11
-452.25014154010307
 21
-47.50408924349847
 31
0.0
  0
LINE
  8
SIZE
  6
CONTINUOUS
 62
    30
 10
-43.000111265100031
 20
47.504636653301418
 30
0.0
 11
-452.25014154010307
 21
47.504636653301532
 31
0.0
  0
LINE
  8
SIZE
  6
CONTINUOUS
 62
    30
 10
-432.25014154010307
 20
-35.50408924349847
 30
0.0
 11
-432.25014154010307
 21
35.504636653301532
 31
0.0
  0
LINE
  8
SIZE
  6
CONTINUOUS
 62
    30
 10
-432.25014154010307
 20
47.504636653301532
 30
0.0
 11
-432.25014154010279
 21
270.9504957111152
 31
0.0
  0
CIRCLE
  8
SIZE
  6
CONTINUOUS
 62
    30
 10
-432.25014154010307
 20
-47.50408924349847
 30
0.0
 40
6.0
  0
LINE
  8
SIZE
  6
CONTINUOUS
 62
    30
 10
-432.25014154010307
 20
-47.50408924349847
 30
0.0
 11
-432.25014154010307
 21
-35.50408924349847
 31
0.0
  0
CIRCLE
  8
SIZE
  6
CONTINUOUS
 62
    30
 10
-432.25014154010307
 20
47.504636653301532
 30
0.0
 40
6.0
  0
LINE
  8
SIZE
  6
CONTINUOUS
 62
    30
 10
-432.25014154010307
 20
47.504636653301532
 30
0.0
 11
-432.25014154010307
 21
35.504636653301532
 31
0.0
  0
TEXT
  8
SIZE
  6
CONTINUOUS
 62
    30
 10
-467.91680820676959
 20
82.201924282543544
 30
0.0
 40
64.0
  1
φ95
 50
90.0
 41
0.9
 72
     1
 11
-467.91680820676959
 21
169.15049571111501
 31
0.0
  0
LINE
  8
SIZE
  6
CONTINUOUS
 62
    30
 10
-90.900000000000077
 20
-22.84972580959862
 30
0.0
 11
-309.72787987941678
 21
-22.849725809598571
 31
0.0
  0
LINE
  8
SIZE
  6
CONTINUOUS
 62
    30
 10
-89.64346593589994
 20
25.829570760301412
 30
0.0
 11
-309.72787987941678
 21
25.829570760301461
 31
0.0
  0
LINE
  8
SIZE
  6
CONTINUOUS
 62
    30
 10
-289.72787987941678
 20
-34.849725809598567
 30
0.0
 11
-289.72787987941678
 21
-46.849725809598567
 31
0.0
  0
LINE
  8
SIZE
  6
CONTINUOUS
 62
    30
 10
-289.72787987941678
 20
37.829570760301451
 30
0.0
 11
-289.72787987941678
 21
264.35006830833743
 31
0.0
  0
LINE
  8
SIZE
  6
CONTINUOUS
 62
    30
 10
-289.72787987941678
 20
-22.849725809598571
 30
0.0
 11
-289.72787987941678
 21
25.829570760301461
 31
0.0
  0
CIRCLE
  8
SIZE
  6
CONTINUOUS
 62
    30
 10
-289.72787987941678
 20
-22.849725809598571
 30
0.0
 40
6.0
  0
LINE
  8
SIZE
  6
CONTINUOUS
 62
    30
 10
-289.72787987941678
 20
-22.849725809598571
 30
0.0
 11
-289.72787987941678
 21
-34.849725809598567
 31
0.0
  0
CIRCLE
  8
SIZE
  6
CONTINUOUS
 62
    30
 10
-289.72787987941678
 20
25.829570760301461
 30
0.0
 40
6.0
  0
LINE
  8
SIZE
  6
CONTINUOUS
 62
    30
 10
-289.72787987941678
 20
25.829570760301461
 30
0.0
 11
-289.72787987941678
 21
37.829570760301451
 31
0.0
  0
TEXT
  8
SIZE
  6
CONTINUOUS
 62
    30
 10
-325.39454654608352
 20
78.344354022623151
 30
0.0
 40
64.0
  1
φ46
 50
90.0
 41
0.9
 72
     1
 11
-325.39454654608352
 21
163.92149687976601
 31
0.0
  0
LINE
  8
SIZE
  6
CONTINUOUS
 62
    30
 10
0.0
 20
-129.2854010143142
 30
0.0
 11
0.0
 21
-275.67477456083429
 31
0.0
  0
LINE
  8
SIZE
  6
CONTINUOUS
 62
    30
 10
-45.299999999999933
 20
-64.449453362802217
 30
0.0
 11
-45.299999999999933
 21
-275.67477456083429
 31
0.0
  0
LINE
  8
SIZE
  6
CONTINUOUS
 62
    30
 10
-57.299999999999933
 20
-255.67477456083429
 30
0.0
 11
-69.299999999999969
 21
-255.67477456083429
 31
0.0
  0
LINE
  8
SIZE
  6
CONTINUOUS
 62
    30
 10
12.0
 20
-255.67477456083429
 30
0.0
 11
249.5428571428572
 21
-255.67477456083429
 31
0.0
  0
LINE
  8
SIZE
  6
CONTINUOUS
 62
    30
 10
-45.299999999999933
 20
-255.67477456083429
 30
0.0
 11
0.0
 21
-255.67477456083429
 31
0.0
  0
CIRCLE
  8
SIZE
  6
CONTINUOUS
 62
    30
 10
-45.299999999999933
 20
-255.67477456083429
 30
0.0
 40
6.0
  0
LINE
  8
SIZE
  6
CONTINUOUS
 62
    30
 10
-45.299999999999933
 20
-255.67477456083429
 30
0.0
 11
-57.299999999999933
 21
-255.67477456083429
 31
0.0
  0
CIRCLE
  8
SIZE
  6
CONTINUOUS
 62
    30
 10
0.0
 20
-255.67477456083429
 30
0.0
 40
6.0
  0
LINE
  8
SIZE
  6
CONTINUOUS
 62
    30
 10
0.0
 20
-255.67477456083429
 30
0.0
 11
12.0
 21
-255.67477456083429
 31
0.0
  0
TEXT
  8
SIZE
  6
CONTINUOUS
 62
    30
 10
49.0
 20
-230.67477456083429
 30
0.0
 40
64.0
  1
45.5
 41
0.9
 72
     1
 11
136.7714285714286
 21
-230.67477456083429
 31
0.0
  0
LINE
  8
SIZE
  6
CONTINUOUS
 62
    30
 10
0.0
 20
-129.2854010143142
 30
0.0
 11
0.0
 21
-384.11544475201208
 31
0.0
  0
LINE
  8
SIZE
  6
CONTINUOUS
 62
    30
 10
-73.5
 20
-40.249591358498542
 30
0.0
 11
-73.5
 21
-384.11544475201208
 31
0.0
  0
LINE
  8
SIZE
  6
CONTINUOUS
 62
    30
 10
-85.5
 20
-364.11544475201208
 30
0.0
 11
-97.5
 21
-364.11544475201208
 31
0.0
  0
LINE
  8
SIZE
  6
CONTINUOUS
 62
    30
 10
12.0
 20
-364.11544475201208
 30
0.0
 11
249.5428571428572
 21
-364.11544475201208
 31
0.0
  0
LINE
  8
SIZE
  6
CONTINUOUS
 62
    30
 10
-73.5
 20
-364.11544475201208
 30
0.0
 11
0.0
 21
-364.11544475201208
 31
0.0
  0
CIRCLE
  8
SIZE
  6
CONTINUOUS
 62
    30
 10
-73.5
 20
-364.11544475201208
 30
0.0
 40
6.0
  0
LINE
  8
SIZE
  6
CONTINUOUS
 62
    30
 10
-73.5
 20
-364.11544475201208
 30
0.0
 11
-85.5
 21
-364.11544475201208
 31
0.0
  0
CIRCLE
  8
SIZE
  6
CONTINUOUS
 62
    30
 10
0.0
 20
-364.11544475201208
 30
0.0
 40
6.0
  0
LINE
  8
SIZE
  6
CONTINUOUS
 62
    30
 10
0.0
 20
-364.11544475201208
 30
0.0
 11
12.0
 21
-364.11544475201208
 31
0.0
  0
TEXT
  8
SIZE
  6
CONTINUOUS
 62
    30
 10
48.999999999999993
 20
-339.11544475201208
 30
0.0
 40
64.0
  1
73.5
 41
0.9
 72
     1
 11
136.7714285714286
 21
-339.11544475201208
 31
0.0
  0
TEXT
  8
NOTE
  6
CONTINUOUS
 62
     4
 10
-192.46429775451631
 20
441.41075589791092
 30
0.0
 40
64.0
  1
EL
 41
0.9
 72
     2
 11
-107.4357263259449
 21
441.41075589791092
 31
0.0
  0
TEXT
  8
NOTE
  6
CONTINUOUS
 62
     4
 10
-547.08943631225577
 20
323.02024387141552
 30
0.0
 40
64.0
  1
2-φ4×10
 41
0.9
 72
     2
 11
-145.53515059797019
 21
323.02024387141552
 31
0.0
  0
TEXT
  8
NOTE
  6
CONTINUOUS
 62
     4
 10
-572.58949409629815
 20
-440.90670839407028
 30
0.0
 40
64.0
  1
2-φ5×7
 41
0.9
 72
     2
 11
-214.9209226677267
 21
-440.90670839407028
 31
0.0
  0
LINE
  8
NOTE
  6
CONTINUOUS
 62
     4
 10
-3.106940281873563
 20
58.91157284028138
 30
0.0
 11
0.0
 21
53.532760575954683
 31
0.0
  0
LINE
  8
NOTE
  6
CONTINUOUS
 62
     4
 10
0.0
 20
53.532760575954683
 30
0.0
 11
-0.0012737193609382
 21
59.744418781912202
 31
0.0
  0
LINE
  8
NOTE
  6
CONTINUOUS
 62
     4
 10
0.0
 20
53.532760575954683
 30
0.0
 11
-3.1082140012345012
 21
65.123231046238857
 31
0.0
  0
LINE
  8
NOTE
  6
CONTINUOUS
 62
     4
 10
-3.1082140012345012
 20
65.123231046238857
 30
0.0
 11
-95.435726325944884
 21
409.41075589791092
 31
0.0
  0
LINE
  8
NOTE
  6
CONTINUOUS
 62
     4
 10
-95.435726325944884
 20
409.41075589791092
 30
0.0
 11
-192.46429775451631
 21
409.41075589791092
 31
0.0
  0
LINE
  8
NOTE
  6
CONTINUOUS
 62
     4
 10
-4.0013790337068258
 20
10.75117512554931
 30
0.0
 11
0.0
 21
5.9999999952671601
 31
0.0
  0
LINE
  8
NOTE
  6
CONTINUOUS
 62
     4
 10
0.0
 20
5.9999999952671601
 30
0.0
 11
-1.0896991127631279
 21
12.11532951489596
 31
0.0
  0
LINE
  8
NOTE
  6
CONTINUOUS
 62
     4
 10
0.0
 20
5.9999999952671601
 30
0.0
 11
-5.0910781464699539
 21
16.866504645178111
 31
0.0
  0
LINE
  8
NOTE
  6
CONTINUOUS
 62
     4
 10
-5.0910781464699539
 20
16.866504645178111
 30
0.0
 11
-133.53515059797019
 21
291.02024387141552
 31
0.0
  0
LINE
  8
NOTE
  6
CONTINUOUS
 62
     4
 10
-133.53515059797019
 20
291.02024387141552
 30
0.0
 11
-553.88419440662653
 21
291.02024387141552
 31
0.0
  0
LINE
  8
NOTE
  6
CONTINUOUS
 62
     4
 10
-1.1306675889366029
 20
-76.107887475946555
 30
0.0
 11
0.0
 21
-69.999999944784179
 31
0.0
  0
LINE
  8
NOTE
  6
CONTINUOUS
 62
     4
 10
0.0
 20
-69.999999944784179
 30
0.0
 11
-4.0331377400133306
 21
-74.724245838054415
 31
0.0
  0
LINE
  8
NOTE
  6
CONTINUOUS
 62
     4
 10
0.0
 20
-69.999999944784179
 30
0.0
 11
-5.1638053289498203
 21
-80.832133369216763
 31
0.0
  0
LINE
  8
NOTE
  6
CONTINUOUS
 62
     4
 10
-5.1638053289498203
 20
-80.832133369216763
 30
0.0
 11
-204.3910492507766
 21
-486.13489487674622
 31
0.0
  0
LINE
  8
NOTE
  6
CONTINUOUS
 62
     4
 10
-204.3910492507766
 20
-486.13489487674622
 30
0.0
 11
-580.21861032122388
 21
-486.13489487674622
 31
0.0
  0
TEXT
  8
ETC
  6
CONTINUOUS
 62
    61
 10
161.8450534705762
 20
631.16222488419021
 30
0.0
 40
64.0
  1
V-08PWXD4_5
 41
0.9
  0
TEXT
  8
ETC
  6
CONTINUOUS
 62
    61
 10
157.65905947057581
 20
513.20691486935903
 30
0.0
 40
64.0
  1
換気扇
 41
0.9
  0
TEXT
  8
ETC
  6
CONTINUOUS
 62
    61
 10
208.3604577191318
 20
405.05814198313368
 30
0.0
 40
40.0
  1
V-08PWXD4
 41
0.9
  0
CIRCLE
  8
ARRANGE
  6
CONTINUOUS
 62
     1
 10
0.0
 20
0.0
 30
0.0
 40
40.0
  0
POINT
  8
ARRANGE
  6
CONTINUOUS
 62
     1
 10
0.0
 20
0.0
 30
0.0
 50
180.0
  0
LINE
  8
DETAIL
  6
CONTINUOUS
 62
     5
 10
-45.299999999999947
 20
17.41985397450145
 30
0.0
 11
-45.350000000000144
 21
17.41985397450145
 31
0.0
  0
LINE
  8
DETAIL
  6
CONTINUOUS
 62
     5
 10
-45.299999999999947
 20
-31.026219239698609
 30
0.0
 11
-45.350000000000144
 21
-31.026219239698609
 31
0.0
  0
LINE
  8
DETAIL
  6
CONTINUOUS
 62
     5
 10
-46.049999999999947
 20
-31.726227883998551
 30
0.0
 11
-46.049999999999947
 21
-31.82621059539855
 31
0.0
  0
ARC
  8
DETAIL
  6
CONTINUOUS
 62
     5
 10
-45.350000000000144
 20
-31.72621923969859
 30
0.0
 40
0.70000000000004
 50
90.0
 51
180.00007265870241
  0
LINE
  8
DETAIL
  6
CONTINUOUS
 62
     5
 10
-45.299999999999947
 20
-46.813808977898582
 30
0.0
 11
-45.299999999999947
 21
13.100776112101411
 31
0.0
  0
ARC
  8
DETAIL
  6
CONTINUOUS
 62
     5
 10
-45.350000000000144
 20
-31.82621923969856
 30
0.0
 40
0.700000000000046
 50
179.9999273413041
 51
274.0960437581677
  0
LINE
  8
DETAIL
  6
CONTINUOUS
 62
     5
 10
-46.049999999999947
 20
13.900767467801421
 30
0.0
 11
-46.049999999999947
 21
13.800784756401409
 31
0.0
  0
LINE
  8
DETAIL
  6
CONTINUOUS
 62
     5
 10
-46.049999999999947
 20
16.719845330201391
 30
0.0
 11
-46.049999999999947
 21
16.619862618801388
 31
0.0
  0
ARC
  8
DETAIL
  6
CONTINUOUS
 62
     5
 10
-45.350000000000144
 20
16.719853974501401
 30
0.0
 40
0.70000000000004
 50
90.0
 51
180.00007265870241
  0
ARC
  8
DETAIL
  6
CONTINUOUS
 62
     5
 10
-45.350000000000144
 20
13.80077611210146
 30
0.0
 40
0.700000000000046
 50
179.9999273413041
 51
270.0
  0
ARC
  8
DETAIL
  6
CONTINUOUS
 62
     5
 10
-45.350000000000144
 20
13.900776112101431
 30
0.0
 40
0.70000000000004
 50
90.0
 51
180.00007265870241
  0
ARC
  8
DETAIL
  6
CONTINUOUS
 62
     5
 10
-45.350000000000144
 20
16.619853974501378
 30
0.0
 40
0.699999999999932
 50
179.9999273412943
 51
270.0
  0
LINE
  8
DETAIL
  6
CONTINUOUS
 62
     5
 10
-35.489761730500049
 20
48.94368018360143
 30
0.0
 11
0.0
 21
49.284548748101429
 31
0.0
  0
LINE
  8
DETAIL
  6
CONTINUOUS
 62
     5
 10
-32.8757389461
 20
40.038650619901382
 30
0.0
 11
-36.299999999999947
 21
40.160062237001448
 31
0.0
  0
LINE
  8
DETAIL
  6
CONTINUOUS
 62
     5
 10
-42.808532073700007
 20
47.154172979901382
 30
0.0
 11
0.0
 21
47.736244820150318
 31
0.0
  0
LINE
  8
DETAIL
  6
CONTINUOUS
 62
     5
 10
-40.976874964999979
 20
47.185008651601443
 30
0.0
 11
-35.696156664200089
 21
48.896904718901453
 31
0.0
  0
ARC
  8
DETAIL
  6
CONTINUOUS
 62
     5
 10
-35.484949529200087
 20
48.443704396701428
 30
0.0
 40
0.4999989370999461
 50
90.557192122192404
 51
114.9775528577954
  0
LINE
  8
DETAIL
  6
CONTINUOUS
 62
     5
 10
-23.5
 20
44.380959101101382
 30
0.0
 11
-23.5
 21
42.155115313201406
 31
0.0
  0
LINE
  8
DETAIL
  6
CONTINUOUS
 62
     5
 10
-36.299999999999947
 20
44.272564170101418
 30
0.0
 11
-23.5
 21
44.380959101101382
 31
0.0
  0
LINE
  8
DETAIL
  6
CONTINUOUS
 62
     5
 10
-23.5
 20
42.155115313201406
 30
0.0
 11
-36.299999999999947
 21
42.046720382201393
 31
0.0
  0
ARC
  8
DETAIL
  6
CONTINUOUS
 62
     5
 10
-42.799999999999947
 20
46.654245781501402
 30
0.0
 40
0.5
 50
90.977751084214987
 51
180.0
  0
LINE
  8
DETAIL
  6
CONTINUOUS
 62
     5
 10
-43.299999999999947
 20
46.654245781101451
 30
0.0
 11
-43.299999999999947
 21
25.944875589043761
 31
0.0
  0
LINE
  8
DETAIL
  6
CONTINUOUS
 62
     5
 10
-43.299999999999947
 20
44.500856091258129
 30
0.0
 11
-36.290057552675989
 21
44.54546983958204
 31
0.0
  0
LINE
  8
DETAIL
  6
CONTINUOUS
 62
     5
 10
-23.45383489070014
 20
39.69578521383238
 30
0.0
 11
-32.8757389461
 21
40.038650619901382
 31
0.0
  0
LINE
  8
DETAIL
  6
CONTINUOUS
 62
     5
 10
-36.299999999999947
 20
27.55682676810142
 30
0.0
 11
-23.45383489070014
 21
27.596567816420251
 31
0.0
  0
LINE
  8
DETAIL
  6
CONTINUOUS
 62
     5
 10
-36.300009055099963
 20
26.84914336780145
 30
0.0
 11
-36.296918049200031
 21
26.721488769301398
 31
0.0
  0
LINE
  8
DETAIL
  6
CONTINUOUS
 62
     5
 10
-36.296918049200031
 20
26.721488769301398
 30
0.0
 11
-36.275733257900129
 21
26.491636336801381
 31
0.0
  0
LINE
  8
DETAIL
  6
CONTINUOUS
 62
     5
 10
-36.275733257900129
 20
26.491636336801381
 30
0.0
 11
-36.256191351500092
 21
26.38301443450138
 31
0.0
  0
LINE
  8
DETAIL
  6
CONTINUOUS
 62
     5
 10
-36.299999999999947
 20
26.849293680401441
 30
0.0
 11
-36.290057552675989
 21
44.54546983958204
 31
0.0
  0
LINE
  8
DETAIL
  6
CONTINUOUS
 62
     5
 10
-23.45383489070014
 20
27.17649759291572
 30
0.0
 11
-23.45383489070014
 21
46.879028691301407
 31
0.0
  0
LINE
  8
DETAIL
  6
CONTINUOUS
 62
     5
 10
-45.299999999999947
 20
-44.449453362802217
 30
0.0
 11
-35.742845258899933
 21
-44.443580010098572
 31
0.0
  0
ARC
  8
DETAIL
  6
CONTINUOUS
 62
     5
 10
-44.799999999999947
 20
-46.813824486498611
 30
0.0
 40
0.499999999999984
 50
180.000013573198
 51
269.50000012079153
  0
LINE
  8
DETAIL
  6
CONTINUOUS
 62
     5
 10
-44.804363266699973
 20
-47.313805447998561
 30
0.0
 11
0.0
 21
-47.735696439271607
 31
0.0
  0
LINE
  8
DETAIL
  6
CONTINUOUS
 62
     5
 10
-35.742845258899933
 20
-44.443580010098572
 30
0.0
 11
-23.45383489070014
 21
-44.433121859398582
 31
0.0
  0
LINE
  8
DETAIL
  6
CONTINUOUS
 62
     5
 10
-28.35235721959998
 20
-24.703903604498581
 30
0.0
 11
-27.577833154100059
 21
-24.690384236598621
 31
0.0
  0
LINE
  8
DETAIL
  6
CONTINUOUS
 62
     5
 10
-31.299999999999951
 20
-28.892173176898549
 30
0.0
 11
-31.299999999999951
 21
-27.681899533098601
 31
0.0
  0
ARC
  8
DETAIL
  6
CONTINUOUS
 62
     5
 10
-27.700000000000049
 20
-17.691450370498561
 30
0.0
 40
7.0000000000000631
 50
271.0000000069009
 51
307.34534456550188
  0
ARC
  8
DETAIL
  6
CONTINUOUS
 62
     5
 10
-28.299999999999951
 20
-27.703446689898609
 30
0.0
 40
3.000000000000083
 50
91.000000004698919
 51
179.58873503739969
  0
ARC
  8
DETAIL
  6
CONTINUOUS
 62
     5
 10
-34.299999999999947
 20
-28.89217324109859
 30
0.0
 40
3.0
 50
275.21590856959909
 51
0.0000012254008508
  0
ARC
  8
DETAIL
  6
CONTINUOUS
 62
     5
 10
-33.800065575100007
 20
-34.369341473798563
 30
0.0
 40
2.4999302735000661
 50
95.215908571404341
 51
180.00066171950141
  0
LINE
  8
DETAIL
  6
CONTINUOUS
 62
     5
 10
-36.299999999999947
 20
-44.44404010349858
 30
0.0
 11
-36.299999999999947
 21
-34.369370441998569
 31
0.0
  0
LINE
  8
DETAIL
  6
CONTINUOUS
 62
     5
 10
-36.299999999999947
 20
-44.44404010349858
 30
0.0
 11
-36.299999999999947
 21
-34.369370345998561
 31
0.0
  0
LINE
  8
DETAIL
  6
CONTINUOUS
 62
     5
 10
-23.45383489070014
 20
-45.311762764098553
 30
0.0
 11
-23.45383489070014
 21
8.777199402001429
 31
0.0
  0
LINE
  8
DETAIL
  6
CONTINUOUS
 62
     5
 10
-43.434036271800103
 20
25.93655750740146
 30
0.0
 11
-23.45383489070014
 21
27.17649759291572
 31
0.0
  0
LINE
  8
DETAIL
  6
CONTINUOUS
 62
     5
 10
-40.939459056000032
 20
14.034719871401419
 30
0.0
 11
-43.435318966400018
 21
14.19006015880143
 31
0.0
  0
LINE
  8
DETAIL
  6
CONTINUOUS
 62
     5
 10
-43.299999999999947
 20
14.181638016601431
 30
0.0
 11
-43.299999999999947
 21
-44.448224262120497
 31
0.0
  0
LINE
  8
DETAIL
  6
CONTINUOUS
 62
     5
 10
-27.977001823599949
 20
13.224379156401429
 30
0.0
 11
-40.939459056000032
 21
14.034719871401419
 31
0.0
  0
LINE
  8
DETAIL
  6
CONTINUOUS
 62
     5
 10
-43.298550658199929
 20
-23.88295108699862
 30
0.0
 11
-45.299999999999947
 21
-23.922122681832889
 31
0.0
  0
LINE
  8
DETAIL
  6
CONTINUOUS
 62
     5
 10
-44.80154697310013
 20
27.530526281801428
 30
0.0
 11
-43.299999999999947
 21
27.535171485201431
 31
0.0
  0
LINE
  8
DETAIL
  6
CONTINUOUS
 62
     5
 10
-43.299999999999947
 20
26.32494371160141
 30
0.0
 11
-45.299999999999947
 21
26.28934221433434
 31
0.0
  0
ARC
  8
DETAIL
  6
CONTINUOUS
 62
     5
 10
-44.799999999999947
 20
27.030528674901401
 30
0.0
 40
0.5
 50
90.177270337308357
 51
180.0
  0
LINE
  8
DETAIL
  6
CONTINUOUS
 62
     5
 10
-45.299999999999947
 20
16.080827398178261
 30
0.0
 11
-45.299999999999947
 21
27.030528674901401
 31
0.0
  0
LINE
  8
DETAIL
  6
CONTINUOUS
 62
     5
 10
-33.869812283987812
 20
50.448927237746148
 30
0.0
 11
0.0
 21
50.731414309961387
 31
0.0
  0
ARC
  8
DETAIL
  6
CONTINUOUS
 62
     5
 10
-33.800000000000182
 20
42.449231853232789
 30
0.0
 40
7.9999999999999956
 50
90.50000000000459
 51
113.6989531831896
  0
ARC
  8
DETAIL
  6
CONTINUOUS
 62
     5
 10
-51.689090590102303
 20
27.393798587506179
 30
0.0
 40
1.8890905901022279
 50
269.26402476224177
 51
0.0
  0
LINE
  8
DETAIL
  6
CONTINUOUS
 62
     5
 10
-51.689090590102303
 20
25.504707997404012
 30
0.0
 11
-54.900000000000091
 21
25.504707997404012
 31
0.0
  0
LINE
  8
DETAIL
  6
CONTINUOUS
 62
     5
 10
-37.015448376536817
 20
49.774591348699737
 30
0.0
 11
-45.015448376536597
 21
47.26301119646115
 31
0.0
  0
LINE
  8
DETAIL
  6
CONTINUOUS
 62
     5
 10
-49.800000000000182
 20
27.393798587506179
 30
0.0
 11
-49.800000000000182
 21
39.937651700994309
 31
0.0
  0
ARC
  8
DETAIL
  6
CONTINUOUS
 62
     5
 10
-41.800000000000182
 20
39.937651700994309
 30
0.0
 40
8.0
 50
113.6989531831896
 51
180.0
  0
ARC
  8
DETAIL
  6
CONTINUOUS
 62
     5
 10
-42.800000000000182
 20
38.406607609099922
 30
0.0
 40
1.0
 50
119.9999999999925
 51
180.0
  0
LINE
  8
DETAIL
  6
CONTINUOUS
 62
     5
 10
-43.800000000000182
 20
27.533624679312819
 30
0.0
 11
-43.800000000000182
 21
38.406607609099922
 31
0.0
  0
LINE
  8
DETAIL
  6
CONTINUOUS
 62
     5
 10
-47.5
 20
17.40027419040138
 30
0.0
 11
-45.51440294947065
 21
17.40027419040138
 31
0.0
  0
LINE
  8
DETAIL
  6
CONTINUOUS
 62
     5
 10
-47.5
 20
-31.299725809598559
 30
0.0
 11
-45.905070584774187
 21
-31.299725809598559
 31
0.0
  0
ARC
  8
DETAIL
  6
CONTINUOUS
 62
     5
 10
-44.799999999999947
 20
-22.799725809598559
 30
0.0
 40
0.50000000000006
 50
90.0
 51
179.99993853920151
  0
LINE
  8
DETAIL
  6
CONTINUOUS
 62
     5
 10
-43.299999999999947
 20
-22.299725809598559
 30
0.0
 11
-44.799999999999947
 21
-22.299725809598559
 31
0.0
  0
ARC
  8
DETAIL
  6
CONTINUOUS
 62
     5
 10
-48.0
 20
-23.34972580959862
 30
0.0
 40
0.5
 50
9.0000000000050981
 51
90.0
  0
LINE
  8
DETAIL
  6
CONTINUOUS
 62
     5
 10
-45.299999999999947
 20
-7.4536802060985679
 30
0.0
 11
-46.100000000000144
 21
-7.4536802060985679
 31
0.0
  0
LINE
  8
DETAIL
  6
CONTINUOUS
 62
     5
 10
-45.299999999999947
 20
-16.02949234329861
 30
0.0
 11
-46.100000000000144
 21
-16.02949234329861
 31
0.0
  0
ARC
  8
DETAIL
  6
CONTINUOUS
 62
     5
 10
-70.900000000000091
 20
-20.249725809598601
 30
0.0
 40
2.599999999999965
 50
180.0
 51
270.0
  0
LINE
  8
DETAIL
  6
CONTINUOUS
 62
     5
 10
-70.900000000000091
 20
-22.84972580959862
 30
0.0
 11
-48.0
 21
-22.84972580959862
 31
0.0
  0
LINE
  8
DETAIL
  6
CONTINUOUS
 62
     5
 10
-73.49883833960007
 20
20.926776160001449
 30
0.0
 11
-73.490292365400137
 21
21.212404337801392
 31
0.0
  0
LINE
  8
DETAIL
  6
CONTINUOUS
 62
     5
 10
-73.490292365400137
 20
21.212404337801392
 30
0.0
 11
-73.446691661300065
 21
21.63369619160142
 31
0.0
  0
LINE
  8
DETAIL
  6
CONTINUOUS
 62
     5
 10
-73.446691661300065
 20
21.63369619160142
 30
0.0
 11
-73.361350713400043
 21
22.072093186601421
 31
0.0
  0
LINE
  8
DETAIL
  6
CONTINUOUS
 62
     5
 10
-73.361350713400043
 20
22.072093186601421
 30
0.0
 11
-73.230696816000091
 21
22.51833406390142
 31
0.0
  0
LINE
  8
DETAIL
  6
CONTINUOUS
 62
     5
 10
-73.230696816000091
 20
22.51833406390142
 30
0.0
 11
-73.053726004700138
 21
22.963509219101411
 31
0.0
  0
LINE
  8
DETAIL
  6
CONTINUOUS
 62
     5
 10
-73.053726004700138
 20
22.963509219101411
 30
0.0
 11
-72.829443509500152
 21
23.401210448101381
 31
0.0
  0
LINE
  8
DETAIL
  6
CONTINUOUS
 62
     5
 10
-72.829443509500152
 20
23.401210448101381
 30
0.0
 11
-72.559886073800044
 21
23.82367377190138
 31
0.0
  0
LINE
  8
DETAIL
  6
CONTINUOUS
 62
     5
 10
-73.5
 20
-20.249591358498549
 30
0.0
 11
-73.5
 21
20.925068707201429
 31
0.0
  0
LINE
  8
DETAIL
  6
CONTINUOUS
 62
     5
 10
-45.299999999999947
 20
16.080437493701421
 30
0.0
 11
-45.299999999999841
 21
13.102564109912979
 31
0.0
  0
LINE
  8
DETAIL
  6
CONTINUOUS
 62
     5
 10
-54.900000000000091
 20
22.071679321101389
 30
0.0
 11
-47.5
 21
22.071679321101389
 31
0.0
  0
LINE
  8
DETAIL
  6
CONTINUOUS
 62
     5
 10
-47.5
 20
23.015598793201381
 30
0.0
 11
-46.900000000000091
 21
23.015598793201381
 31
0.0
  0
LINE
  8
DETAIL
  6
CONTINUOUS
 62
     5
 10
-46.100000000000144
 20
23.41045566740144
 30
0.0
 11
-46.900000000000091
 21
23.41045566740144
 31
0.0
  0
LINE
  8
DETAIL
  6
CONTINUOUS
 62
     5
 10
-45.299999999999947
 20
24.000274190401399
 30
0.0
 11
-46.100000000000144
 21
24.000274190401399
 31
0.0
  0
LINE
  8
DETAIL
  6
CONTINUOUS
 62
     5
 10
-68.716644610200092
 20
25.918790716201389
 30
0.0
 11
-56.600000000000144
 21
25.918790716201389
 31
0.0
  0
LINE
  8
DETAIL
  6
CONTINUOUS
 62
     5
 10
-56.600000000000144
 20
26.518790716201408
 30
0.0
 11
-55.5
 21
26.518790716201408
 31
0.0
  0
LINE
  8
DETAIL
  6
CONTINUOUS
 62
     5
 10
-54.900000000000091
 20
22.071679321101389
 30
0.0
 11
-54.900000000000091
 21
25.91417536780142
 31
0.0
  0
LINE
  8
DETAIL
  6
CONTINUOUS
 62
     5
 10
-56.600000000000144
 20
22.818175690801411
 30
0.0
 11
-56.600000000000144
 21
26.51860883290141
 31
0.0
  0
LINE
  8
DETAIL
  6
CONTINUOUS
 62
     5
 10
-70.399296384100126
 20
25.61459237250142
 30
0.0
 11
-70.230681538700082
 21
25.674642522101411
 31
0.0
  0
LINE
  8
DETAIL
  6
CONTINUOUS
 62
     5
 10
-70.230681538700082
 20
25.674642522101411
 30
0.0
 11
-69.94077386640015
 21
25.761309440001408
 31
0.0
  0
LINE
  8
DETAIL
  6
CONTINUOUS
 62
     5
 10
-69.94077386640015
 20
25.761309440001408
 30
0.0
 11
-69.64346593589994
 21
25.829570760301412
 31
0.0
  0
LINE
  8
DETAIL
  6
CONTINUOUS
 62
     5
 10
-69.64346593589994
 20
25.829570760301412
 30
0.0
 11
-69.339352904700036
 21
25.87892160000143
 31
0.0
  0
LINE
  8
DETAIL
  6
CONTINUOUS
 62
     5
 10
-69.339352904700036
 20
25.87892160000143
 30
0.0
 11
-69.029056642199976
 21
25.908841071801419
 31
0.0
  0
LINE
  8
DETAIL
  6
CONTINUOUS
 62
     5
 10
-69.029056642199976
 20
25.908841071801419
 30
0.0
 11
-68.716620187200078
 21
25.91879111670141
 31
0.0
  0
LINE
  8
DETAIL
  6
CONTINUOUS
 62
     5
 10
-70.398819584200055
 20
25.614773309601389
 30
0.0
 11
-70.399312470100085
 21
25.614587100301431
 31
0.0
  0
LINE
  8
DETAIL
  6
CONTINUOUS
 62
     5
 10
-70.770260043899953
 20
25.43982108190141
 30
0.0
 11
-70.770747924200123
 21
25.43954235900145
 31
0.0
  0
LINE
  8
DETAIL
  6
CONTINUOUS
 62
     5
 10
-72.559886073800044
 20
23.82367377190138
 30
0.0
 11
-72.246574502400108
 21
24.225007581001421
 31
0.0
  0
LINE
  8
DETAIL
  6
CONTINUOUS
 62
     5
 10
-72.246574502400108
 20
24.225007581001421
 30
0.0
 11
-71.893276236200109
 21
24.59942878920145
 31
0.0
  0
LINE
  8
DETAIL
  6
CONTINUOUS
 62
     5
 10
-71.893276236200109
 20
24.59942878920145
 30
0.0
 11
-71.504078277200051
 21
24.94150178550143
 31
0.0
  0
LINE
  8
DETAIL
  6
CONTINUOUS
 62
     5
 10
-71.504078277200051
 20
24.94150178550143
 30
0.0
 11
-71.083653146700044
 21
25.247343720801439
 31
0.0
  0
LINE
  8
DETAIL
  6
CONTINUOUS
 62
     5
 10
-71.083653146700044
 20
25.247343720801439
 30
0.0
 11
-70.767417780400137
 21
25.441416561101448
 31
0.0
  0
ARC
  8
DETAIL
  6
CONTINUOUS
 62
     5
 10
-69.48070061049998
 20
23.18441043510143
 30
0.0
 40
2.5980114048000398
 50
110.6950770585958
 51
119.77169782900221
  0
ARC
  8
DETAIL
  6
CONTINUOUS
 62
     5
 10
-55.5
 20
25.918790716201389
 30
0.0
 40
0.600000000000022
 50
0.0
 51
90.0
  0
LINE
  8
DETAIL
  6
CONTINUOUS
 62
     5
 10
-46.900000000000091
 20
-31.299725809598559
 30
0.0
 11
-46.900000000000318
 21
23.41045566740144
 31
0.0
  0
LINE
  8
DETAIL
  6
CONTINUOUS
 62
     5
 10
-46.100000000000144
 20
-31.299725809598559
 30
0.0
 11
-46.100000000000144
 21
24.000274190401399
 31
0.0
  0
LINE
  8
DETAIL
  6
CONTINUOUS
 62
     5
 10
-47.5
 20
-31.799999999999951
 30
0.0
 11
-47.5
 21
23.015598793201381
 31
0.0
  0
LINE
  8
DETAIL
  6
CONTINUOUS
 62
     5
 10
-47.5
 20
9.9000000000000341
 30
0.0
 11
-48.430127018900073
 21
9.9000000000000341
 31
0.0
  0
LINE
  8
DETAIL
  6
CONTINUOUS
 62
     5
 10
-50.179454343299987
 20
16.19998884670008
 30
0.0
 11
-50.141374125000077
 21
16.17800322239998
 31
0.0
  0
ARC
  8
DETAIL
  6
CONTINUOUS
 62
     5
 10
-44.100000000000144
 20
13.899999999999981
 30
0.0
 40
6.4565857850998434
 50
186.67056334699811
 51
200.65980733110001
  0
ARC
  8
DETAIL
  6
CONTINUOUS
 62
     5
 10
-44.100000000000144
 20
13.899999999999981
 30
0.0
 40
6.4565857850999899
 50
159.3401926688957
 51
173.32943665299871
  0
ARC
  8
DETAIL
  6
CONTINUOUS
 62
     5
 10
-48.430127018900073
 20
16.399999999999981
 30
0.0
 40
1.4999999999999261
 50
90.0
 51
149.99999999999699
  0
ARC
  8
DETAIL
  6
CONTINUOUS
 62
     5
 10
-48.430127018900073
 20
11.399999999999981
 30
0.0
 40
1.499999999999944
 50
210.00000000000301
 51
270.0
  0
LINE
  8
DETAIL
  6
CONTINUOUS
 62
     5
 10
-49.729165124600058
 20
10.649999999999981
 30
0.0
 11
-50.175223208000027
 21
11.588796206900099
 31
0.0
  0
LINE
  8
DETAIL
  6
CONTINUOUS
 62
     5
 10
-50.141374125000077
 20
13.149999999999981
 30
0.0
 11
-50.170033141500198
 21
13.526181606500071
 31
0.0
  0
LINE
  8
DETAIL
  6
CONTINUOUS
 62
     5
 10
-50.169926120500122
 20
14.275929477000149
 30
0.0
 11
-50.141374125000077
 21
14.649999999999981
 31
0.0
  0
LINE
  8
DETAIL
  6
CONTINUOUS
 62
     5
 10
-50.179473661400152
 20
13.899999999999981
 30
0.0
 11
-50.169926120500122
 21
14.275929477000149
 31
0.0
  0
LINE
  8
DETAIL
  6
CONTINUOUS
 62
     5
 10
-50.170033141500198
 20
13.526181606500071
 30
0.0
 11
-50.179473661400152
 21
13.899999999999981
 31
0.0
  0
LINE
  8
DETAIL
  6
CONTINUOUS
 62
     5
 10
-49.729165124600058
 20
17.149999999999981
 30
0.0
 11
-50.175223208000027
 21
16.211203793000038
 31
0.0
  0
LINE
  8
DETAIL
  6
CONTINUOUS
 62
     5
 10
-50.141374125000077
 20
11.62199677759997
 30
0.0
 11
-50.179454343299987
 21
11.60001115329999
 31
0.0
  0
LINE
  8
DETAIL
  6
CONTINUOUS
 62
     5
 10
-50.512877669200179
 20
13.149999999999981
 30
0.0
 11
-50.141374125000077
 21
13.149999999999981
 31
0.0
  0
LINE
  8
DETAIL
  6
CONTINUOUS
 62
     5
 10
-50.512877669200179
 20
14.649999999999981
 30
0.0
 11
-50.141374125000077
 21
14.649999999999981
 31
0.0
  0
LINE
  8
DETAIL
  6
CONTINUOUS
 62
     5
 10
-47.5
 20
17.900000000000031
 30
0.0
 11
-48.430127018900073
 21
17.900000000000031
 31
0.0
  0
LINE
  8
DETAIL
  6
CONTINUOUS
 62
     5
 10
-50.179454343299987
 20
-25.500011153299969
 30
0.0
 11
-50.141374125000077
 21
-25.521996777599949
 31
0.0
  0
ARC
  8
DETAIL
  6
CONTINUOUS
 62
     5
 10
-44.100000000000144
 20
-27.799999999999951
 30
0.0
 40
6.4565857850999038
 50
186.67056334700121
 51
200.65980733110001
  0
ARC
  8
DETAIL
  6
CONTINUOUS
 62
     5
 10
-44.100000000000144
 20
-27.799999999999951
 30
0.0
 40
6.4565857850999757
 50
159.3401926689001
 51
173.32943665300189
  0
ARC
  8
DETAIL
  6
CONTINUOUS
 62
     5
 10
-48.430127018900073
 20
-25.299999999999951
 30
0.0
 40
1.499999999999954
 50
90.0
 51
149.99999999999699
  0
ARC
  8
DETAIL
  6
CONTINUOUS
 62
     5
 10
-48.430127018900073
 20
-30.299999999999951
 30
0.0
 40
1.5
 50
210.00000000000301
 51
270.0
  0
LINE
  8
DETAIL
  6
CONTINUOUS
 62
     5
 10
-49.729165124600058
 20
-31.049999999999951
 30
0.0
 11
-50.175223208000027
 21
-30.1112037931
 31
0.0
  0
LINE
  8
DETAIL
  6
CONTINUOUS
 62
     5
 10
-50.169926120500122
 20
-27.424070523000012
 30
0.0
 11
-50.141374125000077
 21
-27.049999999999901
 31
0.0
  0
LINE
  8
DETAIL
  6
CONTINUOUS
 62
     5
 10
-50.179473661400152
 20
-27.799999999999951
 30
0.0
 11
-50.169926120500122
 21
-27.424070523000012
 31
0.0
  0
LINE
  8
DETAIL
  6
CONTINUOUS
 62
     5
 10
-50.170033141500198
 20
-28.173818393499971
 30
0.0
 11
-50.179473661400152
 21
-27.799999999999951
 31
0.0
  0
LINE
  8
DETAIL
  6
CONTINUOUS
 62
     5
 10
-50.141374125000077
 20
-28.549999999999951
 30
0.0
 11
-50.170033141500198
 21
-28.173818393499971
 31
0.0
  0
LINE
  8
DETAIL
  6
CONTINUOUS
 62
     5
 10
-49.729165124600058
 20
-24.549999999999901
 30
0.0
 11
-50.175223208000027
 21
-25.48879620699995
 31
0.0
  0
LINE
  8
DETAIL
  6
CONTINUOUS
 62
     5
 10
-50.141374125000077
 20
-30.07800322239996
 30
0.0
 11
-50.179454343299987
 21
-30.099988846700061
 31
0.0
  0
LINE
  8
DETAIL
  6
CONTINUOUS
 62
     5
 10
-47.5
 20
-31.799999999999951
 30
0.0
 11
-48.430127018900073
 21
-31.799999999999951
 31
0.0
  0
LINE
  8
DETAIL
  6
CONTINUOUS
 62
     5
 10
-50.512877669200179
 20
-28.549999999999951
 30
0.0
 11
-50.141374125000077
 21
-28.549999999999951
 31
0.0
  0
LINE
  8
DETAIL
  6
CONTINUOUS
 62
     5
 10
-50.512877669200179
 20
-27.049999999999901
 30
0.0
 11
-50.141374125000077
 21
-27.049999999999901
 31
0.0
  0
LINE
  8
DETAIL
  6
CONTINUOUS
 62
     5
 10
-47.5
 20
-23.799999999999951
 30
0.0
 11
-48.430127018900073
 21
-23.799999999999951
 31
0.0
  0
ARC
  8
DETAIL
  6
CONTINUOUS
 62
     5
 10
-43.085353497168633
 20
16.40012415419795
 30
0.0
 40
2.2376011023867668
 50
188.2139702863434
 51
261.00187858300751
  0
ARC
  8
DETAIL
  6
CONTINUOUS
 62
     5
 10
-28.55551860136438
 20
8.1121613801287822
 30
0.0
 40
5.1448471555715596
 50
7.4270019945532946
 51
83.543671858908809
  0
LINE
  8
DETAIL
  6
CONTINUOUS
 62
     5
 10
-56.600000000000144
 20
22.818175690801411
 30
0.0
 11
-54.900000000000091
 21
22.071679321101389
 31
0.0
  0
ARC
  8
DETAIL
  6
CONTINUOUS
 62
     5
 10
-43.075518692687979
 20
23.7238195158825
 30
0.0
 40
2.2415941366901442
 50
99.203336278190136
 51
172.9157035134875
  0
LINE
  8
OUTLINE
  6
CONTINUOUS
 62
     3
 10
-46.049999999999947
 20
-31.726227883998551
 30
0.0
 11
-46.049999999999947
 21
-31.82621059539855
 31
0.0
  0
ARC
  8
OUTLINE
  6
CONTINUOUS
 62
     3
 10
-45.350000000000144
 20
-31.72621923969859
 30
0.0
 40
0.70000000000004
 50
142.46280480556251
 51
180.00007265870241
  0
LINE
  8
OUTLINE
  6
CONTINUOUS
 62
     3
 10
-45.299999999999947
 20
-46.813808977898582
 30
0.0
 11
-45.299999999999947
 21
-32.524431241887036
 31
0.0
  0
ARC
  8
OUTLINE
  6
CONTINUOUS
 62
     3
 10
-45.350000000000144
 20
-31.82621923969856
 30
0.0
 40
0.700000000000046
 50
179.9999273413041
 51
274.0960437581677
  0
ARC
  8
OUTLINE
  6
CONTINUOUS
 62
     3
 10
-44.799999999999947
 20
-46.813824486498611
 30
0.0
 40
0.499999999999984
 50
180.000013573198
 51
269.50000012079153
  0
LINE
  8
OUTLINE
  6
CONTINUOUS
 62
     3
 10
-44.804363266699973
 20
-47.313805447998561
 30
0.0
 11
0.0
 21
-47.735696439271607
 31
0.0
  0
LINE
  8
OUTLINE
  6
CONTINUOUS
 62
     3
 10
-33.869812283987812
 20
50.448927237746148
 30
0.0
 11
0.0
 21
50.731414309961387
 31
0.0
  0
ARC
  8
OUTLINE
  6
CONTINUOUS
 62
     3
 10
-33.800000000000182
 20
42.449231853232789
 30
0.0
 40
7.9999999999999956
 50
90.50000000000459
 51
113.6989531831896
  0
ARC
  8
OUTLINE
  6
CONTINUOUS
 62
     3
 10
-51.689090590102303
 20
27.393798587506179
 30
0.0
 40
1.8890905901022279
 50
269.26402476224177
 51
0.0
  0
LINE
  8
OUTLINE
  6
CONTINUOUS
 62
     3
 10
-51.689090590102303
 20
25.504707997404012
 30
0.0
 11
-54.900000000000091
 21
25.504707997404012
 31
0.0
  0
LINE
  8
OUTLINE
  6
CONTINUOUS
 62
     3
 10
-37.015448376536817
 20
49.774591348699737
 30
0.0
 11
-45.015448376536597
 21
47.26301119646115
 31
0.0
  0
LINE
  8
OUTLINE
  6
CONTINUOUS
 62
     3
 10
-49.800000000000182
 20
27.393798587506179
 30
0.0
 11
-49.800000000000182
 21
39.937651700994309
 31
0.0
  0
ARC
  8
OUTLINE
  6
CONTINUOUS
 62
     3
 10
-41.800000000000182
 20
39.937651700994309
 30
0.0
 40
8.0
 50
113.6989531831896
 51
180.0
  0
LINE
  8
OUTLINE
  6
CONTINUOUS
 62
     3
 10
-47.5
 20
-31.299725809598559
 30
0.0
 11
-45.905070584774187
 21
-31.299725809598559
 31
0.0
  0
ARC
  8
OUTLINE
  6
CONTINUOUS
 62
     3
 10
-48.0
 20
-23.34972580959862
 30
0.0
 40
0.5
 50
9.0000000000050981
 51
90.0
  0
ARC
  8
OUTLINE
  6
CONTINUOUS
 62
     3
 10
-70.900000000000091
 20
-20.249725809598601
 30
0.0
 40
2.599999999999965
 50
180.0
 51
270.0
  0
LINE
  8
OUTLINE
  6
CONTINUOUS
 62
     3
 10
-70.900000000000091
 20
-22.84972580959862
 30
0.0
 11
-48.0
 21
-22.84972580959862
 31
0.0
  0
LINE
  8
OUTLINE
  6
CONTINUOUS
 62
     3
 10
-73.49883833960007
 20
20.926776160001449
 30
0.0
 11
-73.490292365400137
 21
21.212404337801392
 31
0.0
  0
LINE
  8
OUTLINE
  6
CONTINUOUS
 62
     3
 10
-73.490292365400137
 20
21.212404337801392
 30
0.0
 11
-73.446691661300065
 21
21.63369619160142
 31
0.0
  0
LINE
  8
OUTLINE
  6
CONTINUOUS
 62
     3
 10
-73.446691661300065
 20
21.63369619160142
 30
0.0
 11
-73.361350713400043
 21
22.072093186601421
 31
0.0
  0
LINE
  8
OUTLINE
  6
CONTINUOUS
 62
     3
 10
-73.361350713400043
 20
22.072093186601421
 30
0.0
 11
-73.230696816000091
 21
22.51833406390142
 31
0.0
  0
LINE
  8
OUTLINE
  6
CONTINUOUS
 62
     3
 10
-73.230696816000091
 20
22.51833406390142
 30
0.0
 11
-73.053726004700138
 21
22.963509219101411
 31
0.0
  0
LINE
  8
OUTLINE
  6
CONTINUOUS
 62
     3
 10
-73.053726004700138
 20
22.963509219101411
 30
0.0
 11
-72.829443509500152
 21
23.401210448101381
 31
0.0
  0
LINE
  8
OUTLINE
  6
CONTINUOUS
 62
     3
 10
-72.829443509500152
 20
23.401210448101381
 30
0.0
 11
-72.559886073800044
 21
23.82367377190138
 31
0.0
  0
LINE
  8
OUTLINE
  6
CONTINUOUS
 62
     3
 10
-73.5
 20
-20.249591358498549
 30
0.0
 11
-73.5
 21
20.925068707201429
 31
0.0
  0
LINE
  8
OUTLINE
  6
CONTINUOUS
 62
     3
 10
-68.716644610200092
 20
25.918790716201389
 30
0.0
 11
-56.600000000000144
 21
25.918790716201389
 31
0.0
  0
LINE
  8
OUTLINE
  6
CONTINUOUS
 62
     3
 10
-56.600000000000144
 20
26.518790716201408
 30
0.0
 11
-55.5
 21
26.518790716201408
 31
0.0
  0
LINE
  8
OUTLINE
  6
CONTINUOUS
 62
     3
 10
-54.900000000000091
 20
25.504707997404012
 30
0.0
 11
-54.900000000000091
 21
25.91417536780142
 31
0.0
  0
LINE
  8
OUTLINE
  6
CONTINUOUS
 62
     3
 10
-56.600000000000144
 20
25.918790716201389
 30
0.0
 11
-56.600000000000144
 21
26.51860883290141
 31
0.0
  0
LINE
  8
OUTLINE
  6
CONTINUOUS
 62
     3
 10
-70.399296384100126
 20
25.61459237250142
 30
0.0
 11
-70.230681538700082
 21
25.674642522101411
 31
0.0
  0
LINE
  8
OUTLINE
  6
CONTINUOUS
 62
     3
 10
-70.230681538700082
 20
25.674642522101411
 30
0.0
 11
-69.94077386640015
 21
25.761309440001408
 31
0.0
  0
LINE
  8
OUTLINE
  6
CONTINUOUS
 62
     3
 10
-69.94077386640015
 20
25.761309440001408
 30
0.0
 11
-69.64346593589994
 21
25.829570760301412
 31
0.0
  0
LINE
  8
OUTLINE
  6
CONTINUOUS
 62
     3
 10
-69.64346593589994
 20
25.829570760301412
 30
0.0
 11
-69.339352904700036
 21
25.87892160000143
 31
0.0
  0
LINE
  8
OUTLINE
  6
CONTINUOUS
 62
     3
 10
-69.339352904700036
 20
25.87892160000143
 30
0.0
 11
-69.029056642199976
 21
25.908841071801419
 31
0.0
  0
LINE
  8
OUTLINE
  6
CONTINUOUS
 62
     3
 10
-69.029056642199976
 20
25.908841071801419
 30
0.0
 11
-68.716620187200078
 21
25.91879111670141
 31
0.0
  0
LINE
  8
OUTLINE
  6
CONTINUOUS
 62
     3
 10
-70.398819584200055
 20
25.614773309601389
 30
0.0
 11
-70.399312470100085
 21
25.614587100301431
 31
0.0
  0
LINE
  8
OUTLINE
  6
CONTINUOUS
 62
     3
 10
-70.770260043899953
 20
25.43982108190141
 30
0.0
 11
-70.770747924200123
 21
25.43954235900145
 31
0.0
  0
LINE
  8
OUTLINE
  6
CONTINUOUS
 62
     3
 10
-72.559886073800044
 20
23.82367377190138
 30
0.0
 11
-72.246574502400108
 21
24.225007581001421
 31
0.0
  0
LINE
  8
OUTLINE
  6
CONTINUOUS
 62
     3
 10
-72.246574502400108
 20
24.225007581001421
 30
0.0
 11
-71.893276236200109
 21
24.59942878920145
 31
0.0
  0
LINE
  8
OUTLINE
  6
CONTINUOUS
 62
     3
 10
-71.893276236200109
 20
24.59942878920145
 30
0.0
 11
-71.504078277200051
 21
24.94150178550143
 31
0.0
  0
LINE
  8
OUTLINE
  6
CONTINUOUS
 62
     3
 10
-71.504078277200051
 20
24.94150178550143
 30
0.0
 11
-71.083653146700044
 21
25.247343720801439
 31
0.0
  0
LINE
  8
OUTLINE
  6
CONTINUOUS
 62
     3
 10
-71.083653146700044
 20
25.247343720801439
 30
0.0
 11
-70.767417780400137
 21
25.441416561101448
 31
0.0
  0
ARC
  8
OUTLINE
  6
CONTINUOUS
 62
     3
 10
-69.48070061049998
 20
23.18441043510143
 30
0.0
 40
2.5980114048000398
 50
110.6950770585958
 51
119.77169782900221
  0
ARC
  8
OUTLINE
  6
CONTINUOUS
 62
     3
 10
-55.5
 20
25.918790716201389
 30
0.0
 40
0.600000000000022
 50
0.0
 51
90.0
  0
LINE
  8
OUTLINE
  6
CONTINUOUS
 62
     3
 10
-47.5
 20
-31.799999999999951
 30
0.0
 11
-47.5
 21
-31.299725809598559
 31
0.0
  0
LINE
  8
OUTLINE
  6
CONTINUOUS
 62
     3
 10
-50.179454343299987
 20
-25.500011153299969
 30
0.0
 11
-50.141374125000077
 21
-25.521996777599949
 31
0.0
  0
ARC
  8
OUTLINE
  6
CONTINUOUS
 62
     3
 10
-44.100000000000144
 20
-27.799999999999951
 30
0.0
 40
6.4565857850999038
 50
186.67056334700121
 51
200.65980733110001
  0
ARC
  8
OUTLINE
  6
CONTINUOUS
 62
     3
 10
-44.100000000000144
 20
-27.799999999999951
 30
0.0
 40
6.4565857850999757
 50
159.3401926689001
 51
173.32943665299871
  0
ARC
  8
OUTLINE
  6
CONTINUOUS
 62
     3
 10
-48.430127018900073
 20
-25.299999999999951
 30
0.0
 40
1.499999999999954
 50
90.0
 51
149.99999999999699
  0
ARC
  8
OUTLINE
  6
CONTINUOUS
 62
     3
 10
-48.430127018900073
 20
-30.299999999999951
 30
0.0
 40
1.5
 50
210.00000000000301
 51
270.0
  0
LINE
  8
OUTLINE
  6
CONTINUOUS
 62
     3
 10
-49.729165124600058
 20
-31.049999999999951
 30
0.0
 11
-50.175223208000027
 21
-30.1112037931
 31
0.0
  0
LINE
  8
OUTLINE
  6
CONTINUOUS
 62
     3
 10
-50.169926120500122
 20
-27.424070523000012
 30
0.0
 11
-50.141374125000077
 21
-27.049999999999901
 31
0.0
  0
LINE
  8
OUTLINE
  6
CONTINUOUS
 62
     3
 10
-50.179473661400152
 20
-27.799999999999951
 30
0.0
 11
-50.169926120500122
 21
-27.424070523000012
 31
0.0
  0
LINE
  8
OUTLINE
  6
CONTINUOUS
 62
     3
 10
-50.170033141500198
 20
-28.173818393499971
 30
0.0
 11
-50.179473661400152
 21
-27.799999999999951
 31
0.0
  0
LINE
  8
OUTLINE
  6
CONTINUOUS
 62
     3
 10
-50.141374125000077
 20
-28.549999999999951
 30
0.0
 11
-50.170033141500198
 21
-28.173818393499971
 31
0.0
  0
LINE
  8
OUTLINE
  6
CONTINUOUS
 62
     3
 10
-49.729165124600058
 20
-24.549999999999901
 30
0.0
 11
-50.175223208000027
 21
-25.48879620699995
 31
0.0
  0
LINE
  8
OUTLINE
  6
CONTINUOUS
 62
     3
 10
-50.141374125000077
 20
-30.07800322239996
 30
0.0
 11
-50.179454343299987
 21
-30.099988846700061
 31
0.0
  0
LINE
  8
OUTLINE
  6
CONTINUOUS
 62
     3
 10
-47.5
 20
-31.799999999999951
 30
0.0
 11
-48.430127018900073
 21
-31.799999999999951
 31
0.0
  0
LINE
  8
OUTLINE
  6
CONTINUOUS
 62
     3
 10
-50.512877669200179
 20
-28.549999999999951
 30
0.0
 11
-50.141374125000077
 21
-28.549999999999951
 31
0.0
  0
LINE
  8
OUTLINE
  6
CONTINUOUS
 62
     3
 10
-50.512877669200179
 20
-27.049999999999901
 30
0.0
 11
-50.141374125000077
 21
-27.049999999999901
 31
0.0
  0
LINE
  8
OUTLINE
  6
CONTINUOUS
 62
     3
 10
-47.5
 20
-23.799999999999951
 30
0.0
 11
-48.430127018900073
 21
-23.799999999999951
 31
0.0
  0
ARC
  8
DETAIL
  6
CONTINUOUS
 62
     5
 10
0.5
 20
-79.491187152899954
 30
0.0
 40
0.500000000000014
 50
180.0010485776013
 51
270.99998170168573
  0
LINE
  8
DETAIL
  6
CONTINUOUS
 62
     5
 10
0.0
 20
79.491196303500146
 30
0.0
 11
0.0
 21
-79.491196303499962
 31
0.0
  0
ARC
  8
DETAIL
  6
CONTINUOUS
 62
     5
 10
21.5
 20
-78.624563776000002
 30
0.0
 40
1.0
 50
271.00000000019719
 51
0.0
  0
LINE
  8
DETAIL
  6
CONTINUOUS
 62
     5
 10
16.5
 20
-84.800000000098592
 30
0.0
 11
15.5
 21
-84.800000000098592
 31
0.0
  0
LINE
  8
DETAIL
  6
CONTINUOUS
 62
     5
 10
15.0
 20
-80.246977722529493
 30
0.0
 11
15.0
 21
-84.300000000098592
 31
0.0
  0
LINE
  8
DETAIL
  6
CONTINUOUS
 62
     5
 10
17.0
 20
-80.194612527735657
 30
0.0
 11
17.0
 21
-84.300000000098592
 31
0.0
  0
ARC
  8
DETAIL
  6
CONTINUOUS
 62
     5
 10
15.5
 20
-84.300000000098592
 30
0.0
 40
0.5
 50
180.0
 51
270.0
  0
ARC
  8
DETAIL
  6
CONTINUOUS
 62
     5
 10
16.5
 20
-84.300000000098592
 30
0.0
 40
0.5
 50
270.0
 51
0.0
  0
LINE
  8
DETAIL
  6
CONTINUOUS
 62
     5
 10
21.517452406439588
 20
-79.624411471101041
 30
0.0
 11
0.5087262032998297
 21
-79.991120151099992
 31
0.0
  0
ARC
  8
DETAIL
  6
CONTINUOUS
 62
     5
 10
14.5
 20
-80.246977722529493
 30
0.0
 40
0.499999999999978
 50
0.0
 51
91.000000000184187
  0
ARC
  8
DETAIL
  6
CONTINUOUS
 62
     5
 10
17.5
 20
-80.194612527735657
 30
0.0
 40
0.5
 50
91.000000000184187
 51
180.0
  0
LINE
  8
DETAIL
  6
CONTINUOUS
 62
     5
 10
15.0
 20
-84.300000000098692
 30
0.0
 11
14.80000000000018
 21
-84.300000000098592
 31
0.0
  0
LINE
  8
DETAIL
  6
CONTINUOUS
 62
     5
 10
15.0
 20
-83.300000000098692
 30
0.0
 11
14.80000000000018
 21
-83.300000000098592
 31
0.0
  0
LINE
  8
DETAIL
  6
CONTINUOUS
 62
     5
 10
14.400000000000089
 20
-83.700000000098541
 30
0.0
 11
14.400000000000089
 21
-83.900000000098586
 31
0.0
  0
ARC
  8
DETAIL
  6
CONTINUOUS
 62
     5
 10
14.80000000000018
 20
-83.900000000098586
 30
0.0
 40
0.3999999999999779
 50
180.0
 51
270.0
  0
ARC
  8
DETAIL
  6
CONTINUOUS
 62
     5
 10
14.80000000000018
 20
-83.700000000098541
 30
0.0
 40
0.3999999999999779
 50
90.0
 51
180.0
  0
LINE
  8
DETAIL
  6
CONTINUOUS
 62
     5
 10
22.49999372699995
 20
-78.624563775995
 30
0.0
 11
22.49999372699995
 21
12.018970296605181
 31
0.0
  0
LINE
  8
DETAIL
  6
CONTINUOUS
 62
     5
 10
23.67156660220007
 20
10.67157287530517
 30
0.0
 11
24.679892714299971
 21
11.67989898730502
 31
0.0
  0
ARC
  8
DETAIL
  6
CONTINUOUS
 62
     5
 10
22.699993727000219
 20
13.659797974605
 30
0.0
 40
2.8000000000000118
 50
314.99999999999568
 51
0.0
  0
ARC
  8
DETAIL
  6
CONTINUOUS
 62
     5
 10
26.49999372699995
 20
7.843145750505073
 30
0.0
 40
4.0
 50
134.99999999999571
 51
180.0
  0
ARC
  8
DETAIL
  6
CONTINUOUS
 62
     5
 10
22.699993727000219
 20
13.659797974605
 30
0.0
 40
1.0
 50
314.99999999999568
 51
0.0
  0
ARC
  8
DETAIL
  6
CONTINUOUS
 62
     5
 10
21.199993727000219
 20
16.933333333304969
 30
0.0
 40
2.8000000000000118
 50
326.05207347300183
 51
0.0
  0
ARC
  8
DETAIL
  6
CONTINUOUS
 62
     5
 10
28.49999372699995
 20
12.019068383204971
 30
0.0
 40
5.9999999999999716
 50
146.05178175240201
 51
180.0009366585015
  0
LINE
  8
DETAIL
  6
CONTINUOUS
 62
     5
 10
23.40710050820007
 20
12.95269119350519
 30
0.0
 11
22.501013898599918
 21
12.04660458390504
 31
0.0
  0
LINE
  8
DETAIL
  6
CONTINUOUS
 62
     5
 10
23.699993727000219
 20
15.675912300205029
 30
0.0
 11
23.699993727000219
 21
13.659797974605
 31
0.0
  0
LINE
  8
DETAIL
  6
CONTINUOUS
 62
     5
 10
25.49999372699995
 20
13.659797974605
 30
0.0
 11
25.49999372699995
 21
49.840202025405013
 31
0.0
  0
ARC
  8
DETAIL
  6
CONTINUOUS
 62
     5
 10
22.699993727000219
 20
49.840202025405013
 30
0.0
 40
2.799999999999975
 50
0.0
 51
45.00000000000432
  0
LINE
  8
DETAIL
  6
CONTINUOUS
 62
     5
 10
24.679892714299971
 20
51.820101012704981
 30
0.0
 11
23.99999372699995
 21
52.500000000005002
 31
0.0
  0
LINE
  8
DETAIL
  6
CONTINUOUS
 62
     5
 10
23.99999372699995
 20
16.933333333304969
 30
0.0
 11
23.99999372699995
 21
78.598381178604996
 31
0.0
  0
ARC
  8
DETAIL
  6
CONTINUOUS
 62
     5
 10
22.99999372699995
 20
78.598381288099972
 30
0.0
 40
0.999999999999996
 50
359.99999372640002
 51
88.999640526000022
  0
LINE
  8
DETAIL
  6
CONTINUOUS
 62
     5
 10
0.5087262032998297
 20
79.991120151100176
 30
0.0
 11
23.01745240650007
 21
79.598228873800053
 31
0.0
  0
ARC
  8
DETAIL
  6
CONTINUOUS
 62
     5
 10
0.5
 20
79.491190320800115
 30
0.0
 40
0.500000000000096
 50
89.000011964109447
 51
179.99931442789779
  0
LINE
  8
DETAIL
  6
CONTINUOUS
 62
     5
 10
51.5
 20
73.5
 30
0.0
 11
49.5
 21
75.5
 31
0.0
  0
LINE
  8
DETAIL
  6
CONTINUOUS
 62
     5
 10
37.5
 20
70.627421973982791
 30
0.0
 11
37.5
 21
80.0
 31
0.0
  0
LINE
  8
DETAIL
  6
CONTINUOUS
 62
     5
 10
49.5
 20
-79.000000000000043
 30
0.0
 11
49.5
 21
79.0
 31
0.0
  0
LINE
  8
DETAIL
  6
CONTINUOUS
 62
     5
 10
44.5
 20
-80.000000000000043
 30
0.0
 11
44.5
 21
80.0
 31
0.0
  0
LINE
  8
DETAIL
  6
CONTINUOUS
 62
     5
 10
51.5
 20
-73.500000000000043
 30
0.0
 11
51.5
 21
73.5
 31
0.0
  0
LINE
  8
DETAIL
  6
CONTINUOUS
 62
     5
 10
24.982547060600151
 20
59.154085072899989
 30
0.0
 11
24.981096483800229
 21
59.15777765020016
 31
0.0
  0
LINE
  8
DETAIL
  6
CONTINUOUS
 62
     5
 10
25.5
 20
70.836882753100099
 30
0.0
 11
25.5
 21
71.464623014900098
 31
0.0
  0
LINE
  8
DETAIL
  6
CONTINUOUS
 62
     5
 10
44.5
 20
70.50523651946969
 30
0.0
 11
24.982547593599971
 21
70.845914918500057
 31
0.0
  0
ARC
  8
DETAIL
  6
CONTINUOUS
 62
     5
 10
25.0
 20
71.845762613600073
 30
0.0
 40
1.000000000000014
 50
180.0
 51
268.99999999999818
  0
ARC
  8
DETAIL
  6
CONTINUOUS
 62
     5
 10
25.0
 20
58.154238307800142
 30
0.0
 40
0.9999995394000201
 50
91.00000092129423
 51
180.00005279050339
  0
ARC
  8
DETAIL
  6
CONTINUOUS
 62
     5
 10
22.699999999999822
 20
71.464663351600166
 30
0.0
 40
2.799999999999971
 50
359.99999883390058
 51
62.311779400705447
  0
LINE
  8
DETAIL
  6
CONTINUOUS
 62
     5
 10
44.5
 20
59.494763480530537
 30
0.0
 11
24.982547593599971
 21
59.15408508150017
 31
0.0
  0
ARC
  8
DETAIL
  6
CONTINUOUS
 62
     5
 10
48.5
 20
79.0
 30
0.0
 40
1.0
 50
0.0
 51
90.0
  0
LINE
  8
DETAIL
  6
CONTINUOUS
 62
     5
 10
48.5
 20
80.0
 30
0.0
 11
37.5
 21
80.0
 31
0.0
  0
LINE
  8
DETAIL
  6
CONTINUOUS
 62
     5
 10
23.5
 20
-70.500000000000071
 30
0.0
 11
44.5
 21
-70.500000000000071
 31
0.0
  0
LINE
  8
DETAIL
  6
CONTINUOUS
 62
     5
 10
23.5
 20
-59.500000000000057
 30
0.0
 11
44.5
 21
-59.500000000000057
 31
0.0
  0
ARC
  8
DETAIL
  6
CONTINUOUS
 62
     5
 10
23.5
 20
-58.500000000000057
 30
0.0
 40
1.0
 50
180.0
 51
270.0
  0
ARC
  8
DETAIL
  6
CONTINUOUS
 62
     5
 10
23.5
 20
-71.500000000000071
 30
0.0
 40
1.0
 50
90.0
 51
180.0
  0
ARC
  8
DETAIL
  6
CONTINUOUS
 62
     5
 10
48.5
 20
-79.000000000000043
 30
0.0
 40
1.0
 50
270.0
 51
0.0
  0
LINE
  8
DETAIL
  6
CONTINUOUS
 62
     5
 10
48.5
 20
-80.000000000000043
 30
0.0
 11
44.5
 21
-80.000000000000043
 31
0.0
  0
LINE
  8
DETAIL
  6
CONTINUOUS
 62
     5
 10
51.5
 20
-73.500000000000043
 30
0.0
 11
49.5
 21
-75.500000000000043
 31
0.0
  0
ARC
  8
OUTLINE
  6
CONTINUOUS
 62
     3
 10
0.5
 20
-79.491187152899954
 30
0.0
 40
0.500000000000014
 50
180.0010485776013
 51
270.99998170168573
  0
LINE
  8
OUTLINE
  6
CONTINUOUS
 62
     3
 10
0.0
 20
79.491196303500146
 30
0.0
 11
0.0
 21
-79.491196303499962
 31
0.0
  0
ARC
  8
OUTLINE
  6
CONTINUOUS
 62
     3
 10
21.5
 20
-78.624563776000002
 30
0.0
 40
1.0
 50
271.00000000019719
 51
0.0
  0
LINE
  8
OUTLINE
  6
CONTINUOUS
 62
     3
 10
16.5
 20
-84.800000000098592
 30
0.0
 11
15.5
 21
-84.800000000098592
 31
0.0
  0
LINE
  8
OUTLINE
  6
CONTINUOUS
 62
     3
 10
15.0
 20
-80.246977722529493
 30
0.0
 11
15.0
 21
-84.300000000098592
 31
0.0
  0
LINE
  8
OUTLINE
  6
CONTINUOUS
 62
     3
 10
17.0
 20
-80.194612527735657
 30
0.0
 11
17.0
 21
-84.300000000098592
 31
0.0
  0
ARC
  8
OUTLINE
  6
CONTINUOUS
 62
     3
 10
15.5
 20
-84.300000000098592
 30
0.0
 40
0.5
 50
180.0
 51
270.0
  0
ARC
  8
OUTLINE
  6
CONTINUOUS
 62
     3
 10
16.5
 20
-84.300000000098592
 30
0.0
 40
0.5
 50
270.0
 51
0.0
  0
LINE
  8
OUTLINE
  6
CONTINUOUS
 62
     3
 10
21.517452406439588
 20
-79.624411471101041
 30
0.0
 11
0.5087262032998297
 21
-79.991120151099992
 31
0.0
  0
ARC
  8
OUTLINE
  6
CONTINUOUS
 62
     3
 10
14.5
 20
-80.246977722529493
 30
0.0
 40
0.499999999999978
 50
0.0
 51
91.000000000184187
  0
ARC
  8
OUTLINE
  6
CONTINUOUS
 62
     3
 10
17.5
 20
-80.194612527735657
 30
0.0
 40
0.5
 50
91.000000000184187
 51
180.0
  0
LINE
  8
OUTLINE
  6
CONTINUOUS
 62
     3
 10
15.0
 20
-84.300000000098692
 30
0.0
 11
14.80000000000018
 21
-84.300000000098592
 31
0.0
  0
LINE
  8
OUTLINE
  6
CONTINUOUS
 62
     3
 10
15.0
 20
-83.300000000098692
 30
0.0
 11
14.80000000000018
 21
-83.300000000098592
 31
0.0
  0
LINE
  8
OUTLINE
  6
CONTINUOUS
 62
     3
 10
14.400000000000089
 20
-83.700000000098541
 30
0.0
 11
14.400000000000089
 21
-83.900000000098586
 31
0.0
  0
ARC
  8
OUTLINE
  6
CONTINUOUS
 62
     3
 10
14.80000000000018
 20
-83.900000000098586
 30
0.0
 40
0.3999999999999779
 50
180.0
 51
270.0
  0
ARC
  8
OUTLINE
  6
CONTINUOUS
 62
     3
 10
14.80000000000018
 20
-83.700000000098541
 30
0.0
 40
0.3999999999999779
 50
90.0
 51
180.0
  0
LINE
  8
OUTLINE
  6
CONTINUOUS
 62
     3
 10
22.49999372699995
 20
-78.624563775995
 30
0.0
 11
22.49999372699995
 21
12.018970296605181
 31
0.0
  0
ARC
  8
OUTLINE
  6
CONTINUOUS
 62
     3
 10
21.199993727000219
 20
16.933333333304969
 30
0.0
 40
2.8000000000000118
 50
326.05207347300183
 51
0.0
  0
ARC
  8
OUTLINE
  6
CONTINUOUS
 62
     3
 10
28.49999372699995
 20
12.019068383204971
 30
0.0
 40
5.9999999999999716
 50
146.05178175240201
 51
180.0009366585015
  0
LINE
  8
OUTLINE
  6
CONTINUOUS
 62
     3
 10
23.99999372699995
 20
16.933333333304969
 30
0.0
 11
23.99999372699995
 21
78.598381178604996
 31
0.0
  0
ARC
  8
OUTLINE
  6
CONTINUOUS
 62
     3
 10
22.99999372699995
 20
78.598381288099972
 30
0.0
 40
0.999999999999996
 50
359.99999372640002
 51
88.999640526000022
  0
LINE
  8
OUTLINE
  6
CONTINUOUS
 62
     3
 10
0.5087262032998297
 20
79.991120151100176
 30
0.0
 11
23.01745240650007
 21
79.598228873800053
 31
0.0
  0
ARC
  8
OUTLINE
  6
CONTINUOUS
 62
     3
 10
0.5
 20
79.491190320800115
 30
0.0
 40
0.500000000000096
 50
89.000011964109447
 51
179.99931442789779
  0
LINE
  8
OUTLINE
  6
CONTINUOUS
 62
     3
 10
51.5
 20
73.5
 30
0.0
 11
49.5
 21
75.5
 31
0.0
  0
LINE
  8
OUTLINE
  6
CONTINUOUS
 62
     3
 10
37.5
 20
70.627421973982791
 30
0.0
 11
37.5
 21
80.0
 31
0.0
  0
LINE
  8
OUTLINE
  6
CONTINUOUS
 62
     3
 10
49.5
 20
-79.000000000000043
 30
0.0
 11
49.5
 21
79.0
 31
0.0
  0
LINE
  8
OUTLINE
  6
CONTINUOUS
 62
     3
 10
44.5
 20
-80.000000000000043
 30
0.0
 11
44.5
 21
80.0
 31
0.0
  0
LINE
  8
OUTLINE
  6
CONTINUOUS
 62
     3
 10
51.5
 20
-73.500000000000043
 30
0.0
 11
51.5
 21
73.5
 31
0.0
  0
LINE
  8
OUTLINE
  6
CONTINUOUS
 62
     3
 10
25.5
 20
70.836882753100099
 30
0.0
 11
25.5
 21
71.464623014900098
 31
0.0
  0
LINE
  8
OUTLINE
  6
CONTINUOUS
 62
     3
 10
44.5
 20
70.50523651946969
 30
0.0
 11
24.982547593599971
 21
70.845914918500057
 31
0.0
  0
ARC
  8
OUTLINE
  6
CONTINUOUS
 62
     3
 10
25.0
 20
71.845762613600073
 30
0.0
 40
1.000000000000014
 50
180.0
 51
268.99999999999818
  0
ARC
  8
OUTLINE
  6
CONTINUOUS
 62
     3
 10
22.699999999999822
 20
71.464663351600166
 30
0.0
 40
2.799999999999971
 50
359.99999883390058
 51
62.311779400709177
  0
ARC
  8
OUTLINE
  6
CONTINUOUS
 62
     3
 10
48.5
 20
79.0
 30
0.0
 40
1.0
 50
0.0
 51
90.0
  0
LINE
  8
OUTLINE
  6
CONTINUOUS
 62
     3
 10
48.5
 20
80.0
 30
0.0
 11
37.5
 21
80.0
 31
0.0
  0
LINE
  8
OUTLINE
  6
CONTINUOUS
 62
     3
 10
23.5
 20
-70.500000000000071
 30
0.0
 11
44.5
 21
-70.500000000000071
 31
0.0
  0
ARC
  8
OUTLINE
  6
CONTINUOUS
 62
     3
 10
23.5
 20
-71.500000000000071
 30
0.0
 40
1.0
 50
90.0
 51
180.0
  0
ARC
  8
OUTLINE
  6
CONTINUOUS
 62
     3
 10
48.5
 20
-79.000000000000043
 30
0.0
 40
1.0
 50
270.0
 51
0.0
  0
LINE
  8
OUTLINE
  6
CONTINUOUS
 62
     3
 10
48.5
 20
-80.000000000000043
 30
0.0
 11
44.5
 21
-80.000000000000043
 31
0.0
  0
LINE
  8
OUTLINE
  6
CONTINUOUS
 62
     3
 10
51.5
 20
-73.500000000000043
 30
0.0
 11
49.5
 21
-75.500000000000043
 31
0.0
  0
LINE
  8
OUTLINE
  6
CONTINUOUS
 62
     3
 10
-47.506155829702443
 20
-23.27150857707846
 30
0.0
 11
-47.499999466898089
 21
-23.799999345736008
 31
0.0
  0
ENDSEC
  0
EOF
