  0
SECTION
  2
HEADER
  9
$ACADVER
  1
AC1009
  9
$DWGCODEPAGE
  3
dos932
  9
$INSBASE
 10
0.0
 20
0.0
 30
0.0
  9
$EXTMIN
 10
-633.55406059831694
 20
-300.56761507942252
 30
-0.0015258207003583
  9
$EXTMAX
 10
810.74982821097183
 20
650.48218582580012
 30
0.0000000349246037
  9
$LIMMIN
 10
-2970.0
 20
-2100.0
  9
$LIMMAX
 10
2970.0
 20
2100.0
  9
$ORTHOMODE
 70
     1
  9
$REGENMODE
 70
     1
  9
$FILLMODE
 70
     1
  9
$QTEXTMODE
 70
     0
  9
$MIRRTEXT
 70
     0
  9
$LTSCALE
 40
20.0
  9
$ATTMODE
 70
     1
  9
$TEXTSIZE
 40
64.0
  9
$TRACEWID
 40
0.05
  9
$TEXTSTYLE
  7
STANDARD
  9
$CLAYER
  8
SIZE
  9
$CELTYPE
  6
CONTINUOUS
  9
$CECOLOR
 62
     7
  9
$DIMSCALE
 40
1.0
  9
$DIMASZ
 40
12.0
  9
$DIMEXO
 40
20.0
  9
$DIMDLI
 40
200.0
  9
$DIMRND
 40
0.0
  9
$DIMDLE
 40
0.0
  9
$DIMEXE
 40
20.0
  9
$DIMTP
 40
0.0
  9
$DIMTM
 40
0.0
  9
$DIMTXT
 40
64.0
  9
$DIMCEN
 40
0.09
  9
$DIMTSZ
 40
0.0
  9
$DIMTOL
 70
     0
  9
$DIMLIM
 70
     0
  9
$DIMTIH
 70
     0
  9
$DIMTOH
 70
     0
  9
$DIMSE1
 70
     0
  9
$DIMSE2
 70
     0
  9
$DIMTAD
 70
     1
  9
$DIMZIN
 70
     8
  9
$DIMBLK
  1

  9
$DIMASO
 70
     1
  9
$DIMSHO
 70
     0
  9
$DIMPOST
  1

  9
$DIMAPOST
  1

  9
$DIMALT
 70
     0
  9
$DIMALTD
 70
     2
  9
$DIMALTF
 40
25.399999999999999
  9
$DIMLFAC
 40
1.0
  9
$DIMTOFL
 70
     1
  9
$DIMTVP
 40
0.0
  9
$DIMTIX
 70
     1
  9
$DIMSOXD
 70
     0
  9
$DIMSAH
 70
     0
  9
$DIMBLK1
  1

  9
$DIMBLK2
  1

  9
$DIMSTYLE
  2
STANDARD
  9
$DIMCLRD
 70
     7
  9
$DIMCLRE
 70
     7
  9
$DIMCLRT
 70
     7
  9
$DIMTFAC
 40
1.0
  9
$DIMGAP
 40
25.0
  9
$LUNITS
 70
     2
  9
$LUPREC
 70
     4
  9
$SKETCHINC
 40
0.1
  9
$FILLETRAD
 40
3.0
  9
$AUNITS
 70
     1
  9
$AUPREC
 70
     3
  9
$MENU
  1
ACAD
  9
$ELEVATION
 40
0.0
  9
$PELEVATION
 40
0.0
  9
$THICKNESS
 40
0.0
  9
$LIMCHECK
 70
     0
  9
$CHAMFERA
 40
0.0
  9
$CHAMFERB
 40
0.0
  9
$SKPOLY
 70
     0
  9
$TDCREATE
 40
2453019.623009259
  9
$TDUPDATE
 40
2459356.658900637
  9
$TDINDWG
 40
1.7287428356
  9
$TDUSRTIMER
 40
1.7287428356
  9
$USRTIMER
 70
     1
  9
$ANGBASE
 50
0.0
  9
$ANGDIR
 70
     0
  9
$PDMODE
 70
     3
  9
$PDSIZE
 40
-2.0
  9
$PLINEWID
 40
0.0
  9
$SPLFRAME
 70
     0
  9
$SPLINETYPE
 70
     6
  9
$SPLINESEGS
 70
     8
  9
$SURFTAB1
 70
     6
  9
$SURFTAB2
 70
     6
  9
$SURFTYPE
 70
     6
  9
$SURFU
 70
     6
  9
$SURFV
 70
     6
  9
$UCSNAME
  2

  9
$UCSORG
 10
0.0
 20
0.0
 30
0.0
  9
$UCSXDIR
 10
1.0
 20
0.0
 30
0.0
  9
$UCSYDIR
 10
0.0
 20
1.0
 30
0.0
  9
$PUCSNAME
  2

  9
$PUCSORG
 10
0.0
 20
0.0
 30
0.0
  9
$PUCSXDIR
 10
1.0
 20
0.0
 30
0.0
  9
$PUCSYDIR
 10
0.0
 20
1.0
 30
0.0
  9
$USERI1
 70
     0
  9
$USERI2
 70
     0
  9
$USERI3
 70
     0
  9
$USERI4
 70
     0
  9
$USERI5
 70
     0
  9
$USERR1
 40
20.0
  9
$USERR2
 40
0.0
  9
$USERR3
 40
0.0
  9
$USERR4
 40
0.0
  9
$USERR5
 40
0.0
  9
$WORLDVIEW
 70
     1
  9
$SHADEDGE
 70
     3
  9
$SHADEDIF
 70
    70
  9
$TILEMODE
 70
     1
  9
$MAXACTVP
 70
    48
  9
$PINSBASE
 10
0.0
 20
0.0
 30
0.0
  9
$PLIMCHECK
 70
     0
  9
$PEXTMIN
 10
-100000000000000000000.0
 20
-100000000000000000000.0
 30
-100000000000000000000.0
  9
$PEXTMAX
 10
100000000000000000000.0
 20
100000000000000000000.0
 30
100000000000000000000.0
  9
$PLIMMIN
 10
0.0
 20
0.0
  9
$PLIMMAX
 10
12.0
 20
9.0
  9
$UNITMODE
 70
     0
  9
$VISRETAIN
 70
     0
  9
$PLINEGEN
 70
     0
  9
$PSLTSCALE
 70
     0
  9
$TREEDEPTH
 70
  3020
  9
$ATTDIA
 70
     0
  9
$ATTREQ
 70
     1
  9
$BLIPMODE
 70
     1
  9
$COORDS
 70
     1
  9
$DRAGMODE
 70
     2
  9
$OSMODE
 70
     0
  9
$HANDLING
 70
     0
  9
$HANDSEED
  5
444
  0
ENDSEC
  0
SECTION
  2
TABLES
  0
TABLE
  2
LTYPE
 70
     2
  0
LTYPE
  2
CONTINUOUS
 70
     0
  3
実線
 72
    65
 73
     0
 40
0.0
  0
LTYPE
  2
DASHDOT
 70
     0
  3
____ _ ____ _ ____ _ ____ _ ____ _ ____ _ ____
 72
    65
 73
     4
 40
5.5
 49
4.0
 49
-0.6
 49
0.3
 49
-0.6
  0
ENDTAB
  0
TABLE
  2
LAYER
 70
    12
  0
LAYER
  2
SIZE
 70
     0
 62
    30
  6
CONTINUOUS
  0
LAYER
  2
BASIS
 70
     0
 62
     6
  6
DASHDOT
  0
LAYER
  2
OUTLINE
 70
     0
 62
     3
  6
CONTINUOUS
  0
LAYER
  2
DETAIL
 70
     0
 62
     5
  6
CONTINUOUS
  0
LAYER
  2
ARRANGE
 70
     0
 62
     1
  6
CONTINUOUS
  0
LAYER
  2
ETC
 70
     0
 62
    61
  6
CONTINUOUS
  0
LAYER
  2
FIX
 70
     0
 62
    11
  6
CONTINUOUS
  0
LAYER
  2
NOTE
 70
     0
 62
     4
  6
CONTINUOUS
  0
LAYER
  2
0
 70
    64
 62
     7
  6
CONTINUOUS
  0
LAYER
  2
DEFPOINTS
 70
    64
 62
     7
  6
CONTINUOUS
  0
LAYER
  2
SERVICESPACE
 70
    64
 62
     2
  6
DASHDOT
  0
LAYER
  2
SYMBOLLINE
 70
    64
 62
    15
  6
CONTINUOUS
  0
ENDTAB
  0
TABLE
  2
STYLE
 70
     1
  0
STYLE
  2
STANDARD
 70
     0
 40
64.0
 41
0.9
 50
0.0
 71
     0
 42
64.0
  3
SIMPLEX.shx
  4
BIGFONT.shx
  0
ENDTAB
  0
TABLE
  2
APPID
 70
    20
  0
APPID
  2
ACAD
 70
     0
  0
APPID
  2
ACADANNOTATIVE
 70
     0
  0
APPID
  2
AUTOCAD_POSTSCRIPT_FIGURE
 70
     0
  0
APPID
  2
ACAD_EXEMPT_FROM_CAD_STANDARDS
 70
     0
  0
APPID
  2
ACAD_PSEXT
 70
     0
  0
APPID
  2
ACAUTHENVIRON
 70
     0
  0
APPID
  2
GENIUS_GENOENT_13
 70
     0
  0
APPID
  2
GENIUS_GENCFG_13
 70
     0
  0
APPID
  2
GENIUS_GENCFG0_13
 70
     0
  0
APPID
  2
GENIUS_GENCFG1_13
 70
     0
  0
APPID
  2
GENIUS_GENCFG2_13
 70
     0
  0
APPID
  2
GENIUS_GENCFG3_13
 70
     0
  0
APPID
  2
GENIUS_GENCFG4_13
 70
     0
  0
APPID
  2
GENIUS_GEVCFG0_13
 70
     0
  0
APPID
  2
CONTENTBLOCKICON
 70
     0
  0
APPID
  2
CONTENTBLOCKDESCRIPTION
 70
     0
  0
APPID
  2
ACAD_NAV_VCDISPLAY
 70
     0
  0
APPID
  2
ACAD_MLEADERVER
 70
     0
  0
APPID
  2
ACDBDYNAMICBLOCKTRUENAME
 70
     0
  0
APPID
  2
ACDBDYNAMICBLOCKGUID
 70
     0
  0
ENDTAB
  0
TABLE
  2
DIMSTYLE
 70
     1
  0
DIMSTYLE
  2
STANDARD
 70
     0
  3

  4

  5

  6

  7

 40
1.0
 41
12.0
 42
20.0
 43
200.0
 44
20.0
 45
0.0
 46
0.0
 47
0.0
 48
0.0
140
64.0
141
0.09
142
0.0
143
25.399999999999999
144
1.0
145
0.0
146
1.0
147
25.0
 71
     0
 72
     0
 73
     0
 74
     0
 75
     0
 76
     0
 77
     1
 78
     8
170
     0
171
     2
172
     1
173
     0
174
     1
175
     0
176
     7
177
     7
178
     7
  0
ENDTAB
  0
TABLE
  2
VIEW
 70
     1
  0
VIEW
  2
ALL
 70
     0
 40
4282.6198079999986
 10
0.0
 20
41.309904000000003
 41
5940.0
 11
0.0
 21
0.0
 31
1.0
 12
0.0
 22
0.0
 32
0.0
 42
50.0
 43
0.0
 44
0.0
 50
0.0
 71
     0
  0
ENDTAB
  0
TABLE
  2
UCS
 70
     0
  0
ENDTAB
  0
TABLE
  2
VPORT
 70
     1
  0
VPORT
  2
*ACTIVE
 70
     0
 10
0.0
 20
0.0
 11
1.0
 21
1.0
 12
88.597883806327431
 22
174.9572853731888
 13
0.0
 23
0.0
 14
1.0
 24
1.0
 15
0.0
 25
0.0
 16
0.0
 26
0.0
 36
1.0
 17
0.0
 27
0.0
 37
0.0
 40
802.31191655903888
 41
1.946595460614152
 42
50.0
 43
0.0
 44
0.0
 50
0.0
 51
0.0
 71
     0
 72
  1000
 73
     1
 74
     3
 75
     0
 76
     0
 77
     0
 78
     0
  0
ENDTAB
  0
ENDSEC
  0
SECTION
  2
BLOCKS
  0
ENDSEC
  0
SECTION
  2
ENTITIES
  0
LINE
  8
BASIS
  6
DASHDOT
 62
     6
 10
0.0
 20
-109.2854010143142
 30
0.0
 11
0.0
 21
109.2854010143142
 31
0.0
  0
LINE
  8
BASIS
  6
DASHDOT
 62
     6
 10
95.967552833830496
 20
0.0
 30
0.0
 11
-95.967646960021909
 21
0.0
 31
0.0
  0
CIRCLE
  8
FIX
  6
CONTINUOUS
 62
    11
 10
69.945735111388331
 20
0.0
 30
0.0
 40
7.0441691683918863
  0
LINE
  8
NOTE
  6
CONTINUOUS
 62
     4
 10
69.945735111388331
 20
-26.021817722442051
 30
0.0
 11
69.945735111388331
 21
26.021817722442051
 31
0.0
  0
CIRCLE
  8
FIX
  6
CONTINUOUS
 62
    11
 10
-69.945829237579858
 20
0.0
 30
0.0
 40
7.0441691683918863
  0
LINE
  8
NOTE
  6
CONTINUOUS
 62
     4
 10
-69.945829237579858
 20
-26.021817722442051
 30
0.0
 11
-69.945829237579858
 21
26.021817722442051
 31
0.0
  0
LINE
  8
NOTE
  6
CONTINUOUS
 62
     4
 10
-43.924011515137749
 20
0.0
 30
0.0
 11
-95.967646960021909
 21
0.0
 31
0.0
  0
TEXT
  8
NOTE
  6
CONTINUOUS
 62
     4
 10
142.25035519483211
 20
57.07725143514746
 30
0.0
 40
64.0
  1
2-φ4×10
 41
0.9
  0
LINE
  8
NOTE
  6
CONTINUOUS
 62
     4
 10
76.10311955087127
 20
0.8193388520101621
 30
0.0
 11
69.945735111388331
 21
0.0
 31
0.0
  0
LINE
  8
NOTE
  6
CONTINUOUS
 62
     4
 10
69.945735111388331
 20
0.0
 30
0.0
 11
74.868511322141558
 21
3.788267898240917
 31
0.0
  0
LINE
  8
NOTE
  6
CONTINUOUS
 62
     4
 10
69.945735111388331
 20
0.0
 30
0.0
 11
81.025895761624497
 21
4.6076067502510236
 31
0.0
  0
LINE
  8
NOTE
  6
CONTINUOUS
 62
     4
 10
81.025895761624497
 20
4.6076067502510236
 30
0.0
 11
130.25035519483211
 21
25.077251435147449
 31
0.0
  0
LINE
  8
NOTE
  6
CONTINUOUS
 62
     4
 10
130.25035519483211
 20
25.077251435147449
 30
0.0
 11
545.30022400314976
 21
25.077251435147449
 31
0.0
  0
LINE
  8
SIZE
  6
CONTINUOUS
 62
    30
 10
-47.565451508399917
 20
36.0
 30
0.0
 11
-47.56545150839986
 21
444.60736373078117
 31
0.0
  0
LINE
  8
SIZE
  6
CONTINUOUS
 62
    30
 10
47.565451508400201
 20
36.0
 30
0.0
 11
47.565451508400201
 21
444.60736373078117
 31
0.0
  0
LINE
  8
SIZE
  6
CONTINUOUS
 62
    30
 10
35.565451508400201
 20
424.60736373078117
 30
0.0
 11
-35.56545150839986
 21
424.60736373078117
 31
0.0
  0
LINE
  8
SIZE
  6
CONTINUOUS
 62
    30
 10
-47.56545150839986
 20
424.60736373078117
 30
0.0
 11
-302.82522764969173
 21
424.60736373078117
 31
0.0
  0
CIRCLE
  8
SIZE
  6
CONTINUOUS
 62
    30
 10
47.565451508400201
 20
424.60736373078117
 30
0.0
 40
6.0
  0
LINE
  8
SIZE
  6
CONTINUOUS
 62
    30
 10
47.565451508400201
 20
424.60736373078117
 30
0.0
 11
35.565451508400201
 21
424.60736373078117
 31
0.0
  0
CIRCLE
  8
SIZE
  6
CONTINUOUS
 62
    30
 10
-47.56545150839986
 20
424.60736373078117
 30
0.0
 40
6.0
  0
LINE
  8
SIZE
  6
CONTINUOUS
 62
    30
 10
-47.56545150839986
 20
424.60736373078117
 30
0.0
 11
-35.56545150839986
 21
424.60736373078117
 31
0.0
  0
TEXT
  8
SIZE
  6
CONTINUOUS
 62
    30
 10
-287.97379907826308
 20
460.27403039744797
 30
0.0
 40
64.0
  1
φ95
 41
0.9
 72
     1
 11
-201.02522764969169
 21
460.27403039744797
 31
0.0
  0
LINE
  8
SIZE
  6
CONTINUOUS
 62
    30
 10
-22.849999999999909
 20
90.900000000000034
 30
0.0
 11
-22.849999999999909
 21
305.83208030509172
 31
0.0
  0
LINE
  8
SIZE
  6
CONTINUOUS
 62
    30
 10
22.850000000000019
 20
90.900000000000034
 30
0.0
 11
22.850000000000019
 21
305.83208030509172
 31
0.0
  0
LINE
  8
SIZE
  6
CONTINUOUS
 62
    30
 10
34.850000000000023
 20
285.83208030509172
 30
0.0
 11
46.850000000000023
 21
285.83208030509172
 31
0.0
  0
LINE
  8
SIZE
  6
CONTINUOUS
 62
    30
 10
-34.849999999999909
 20
285.83208030509172
 30
0.0
 11
-291.17183651357288
 21
285.83208030509172
 31
0.0
  0
LINE
  8
SIZE
  6
CONTINUOUS
 62
    30
 10
22.850000000000019
 20
285.83208030509172
 30
0.0
 11
-22.849999999999909
 21
285.83208030509172
 31
0.0
  0
CIRCLE
  8
SIZE
  6
CONTINUOUS
 62
    30
 10
22.850000000000019
 20
285.83208030509172
 30
0.0
 40
6.0
  0
LINE
  8
SIZE
  6
CONTINUOUS
 62
    30
 10
22.850000000000019
 20
285.83208030509172
 30
0.0
 11
34.850000000000023
 21
285.83208030509172
 31
0.0
  0
CIRCLE
  8
SIZE
  6
CONTINUOUS
 62
    30
 10
-22.849999999999909
 20
285.83208030509172
 30
0.0
 40
6.0
  0
LINE
  8
SIZE
  6
CONTINUOUS
 62
    30
 10
-22.849999999999909
 20
285.83208030509172
 30
0.0
 11
-34.849999999999909
 21
285.83208030509172
 31
0.0
  0
TEXT
  8
SIZE
  6
CONTINUOUS
 62
    30
 10
-276.32040794214419
 20
321.49874697175858
 30
0.0
 40
64.0
  1
φ46
 41
0.9
 72
     1
 11
-190.74326508500141
 21
321.49874697175858
 31
0.0
  0
LINE
  8
SIZE
  6
CONTINUOUS
 62
    30
 10
79.991120151099949
 20
-68.367030657353496
 30
0.0
 11
79.991120151099949
 21
-203.78040948729091
 31
0.0
  0
LINE
  8
SIZE
  6
CONTINUOUS
 62
    30
 10
-80.0
 20
-68.5
 30
0.0
 11
-80.0
 21
-203.78040948729091
 31
0.0
  0
LINE
  8
SIZE
  6
CONTINUOUS
 62
    30
 10
-68.0
 20
-183.78040948729091
 30
0.0
 11
67.991120151099935
 21
-183.78040948729091
 31
0.0
  0
LINE
  8
SIZE
  6
CONTINUOUS
 62
    30
 10
79.991120151099949
 20
-183.78040948729091
 30
0.0
 11
344.41397729395692
 21
-183.78040948729091
 31
0.0
  0
CIRCLE
  8
SIZE
  6
CONTINUOUS
 62
    30
 10
-80.0
 20
-183.78040948729091
 30
0.0
 40
6.0
  0
LINE
  8
SIZE
  6
CONTINUOUS
 62
    30
 10
-80.0
 20
-183.78040948729091
 30
0.0
 11
-68.0
 21
-183.78040948729091
 31
0.0
  0
CIRCLE
  8
SIZE
  6
CONTINUOUS
 62
    30
 10
79.991120151099949
 20
-183.78040948729091
 30
0.0
 40
6.0
  0
LINE
  8
SIZE
  6
CONTINUOUS
 62
    30
 10
79.991120151099949
 20
-183.78040948729091
 30
0.0
 11
67.991120151099935
 21
-183.78040948729091
 31
0.0
  0
TEXT
  8
SIZE
  6
CONTINUOUS
 62
    30
 10
113.1511201510999
 20
-158.78040948729091
 30
0.0
 40
64.0
  1
□160
 41
0.9
 72
     1
 11
218.20254872252849
 21
-158.78040948729091
 31
0.0
  0
LINE
  8
SIZE
  6
CONTINUOUS
 62
    30
 10
-115.9676469600219
 20
0.0
 30
0.0
 11
-170.61946277524021
 21
0.0000000000000568
 31
0.0
  0
LINE
  8
SIZE
  6
CONTINUOUS
 62
    30
 10
-93.5
 20
-51.5
 30
0.0
 11
-170.61946277524021
 21
-51.499999999999972
 31
0.0
  0
LINE
  8
SIZE
  6
CONTINUOUS
 62
    30
 10
-150.61946277524021
 20
12.0
 30
0.0
 11
-150.61946277524021
 21
24.00000000000006
 31
0.0
  0
LINE
  8
SIZE
  6
CONTINUOUS
 62
    30
 10
-150.61946277524021
 20
-63.499999999999972
 30
0.0
 11
-150.61946277524029
 21
-300.55714285714248
 31
0.0
  0
LINE
  8
SIZE
  6
CONTINUOUS
 62
    30
 10
-150.61946277524021
 20
0.0000000000000568
 30
0.0
 11
-150.61946277524021
 21
-51.499999999999972
 31
0.0
  0
CIRCLE
  8
SIZE
  6
CONTINUOUS
 62
    30
 10
-150.61946277524021
 20
0.0000000000000568
 30
0.0
 40
6.0
  0
LINE
  8
SIZE
  6
CONTINUOUS
 62
    30
 10
-150.61946277524021
 20
0.0000000000000568
 30
0.0
 11
-150.61946277524021
 21
12.0
 31
0.0
  0
CIRCLE
  8
SIZE
  6
CONTINUOUS
 62
    30
 10
-150.61946277524021
 20
-51.499999999999972
 30
0.0
 40
6.0
  0
LINE
  8
SIZE
  6
CONTINUOUS
 62
    30
 10
-150.61946277524021
 20
-51.499999999999972
 30
0.0
 11
-150.61946277524021
 21
-63.499999999999972
 31
0.0
  0
TEXT
  8
SIZE
  6
CONTINUOUS
 62
    30
 10
-175.61946277524021
 20
-275.55714285714259
 30
0.0
 40
64.0
  1
51.5
 50
90.0
 41
0.9
 72
     1
 11
-175.61946277524021
 21
-193.27142857142829
 31
0.0
  0
LINE
  8
SIZE
  6
CONTINUOUS
 62
    30
 10
-115.9676469600219
 20
0.0
 30
0.0
 11
-291.28298809060823
 21
0.0000000000000568
 31
0.0
  0
LINE
  8
SIZE
  6
CONTINUOUS
 62
    30
 10
-65.400883952299921
 20
45.300000000000011
 30
0.0
 11
-291.28298809060823
 21
45.300000000000068
 31
0.0
  0
LINE
  8
SIZE
  6
CONTINUOUS
 62
    30
 10
-271.28298809060828
 20
57.300000000000068
 30
0.0
 11
-271.28298809060828
 21
69.300000000000068
 31
0.0
  0
LINE
  8
SIZE
  6
CONTINUOUS
 62
    30
 10
-271.28298809060828
 20
-11.99999999999994
 30
0.0
 11
-271.2829880906084
 21
-252.5343361641215
 31
0.0
  0
LINE
  8
SIZE
  6
CONTINUOUS
 62
    30
 10
-271.28298809060828
 20
45.300000000000068
 30
0.0
 11
-271.28298809060828
 21
0.0000000000000568
 31
0.0
  0
CIRCLE
  8
SIZE
  6
CONTINUOUS
 62
    30
 10
-271.28298809060828
 20
45.300000000000068
 30
0.0
 40
6.0
  0
LINE
  8
SIZE
  6
CONTINUOUS
 62
    30
 10
-271.28298809060828
 20
45.300000000000068
 30
0.0
 11
-271.28298809060828
 21
57.300000000000068
 31
0.0
  0
CIRCLE
  8
SIZE
  6
CONTINUOUS
 62
    30
 10
-271.28298809060828
 20
0.0000000000000568
 30
0.0
 40
6.0
  0
LINE
  8
SIZE
  6
CONTINUOUS
 62
    30
 10
-271.28298809060828
 20
0.0000000000000568
 30
0.0
 11
-271.28298809060828
 21
-11.99999999999994
 31
0.0
  0
TEXT
  8
SIZE
  6
CONTINUOUS
 62
    30
 10
-296.28298809060823
 20
-227.53433616412161
 30
0.0
 40
64.0
  1
45.5
 50
90.0
 41
0.9
 72
     1
 11
-296.28298809060823
 21
-139.76290759269301
 31
0.0
  0
LINE
  8
SIZE
  6
CONTINUOUS
 62
    30
 10
-115.9676469600219
 20
0.0
 30
0.0
 11
-392.79516282935492
 21
0.0000000000001137
 31
0.0
  0
LINE
  8
SIZE
  6
CONTINUOUS
 62
    30
 10
-40.24987299599978
 20
73.5
 30
0.0
 11
-392.79516282935492
 21
73.500000000000099
 31
0.0
  0
LINE
  8
SIZE
  6
CONTINUOUS
 62
    30
 10
-372.79516282935492
 20
-11.99999999999989
 30
0.0
 11
-372.79516282935492
 21
-23.99999999999989
 31
0.0
  0
LINE
  8
SIZE
  6
CONTINUOUS
 62
    30
 10
-372.79516282935492
 20
85.500000000000099
 30
0.0
 11
-372.79516282935492
 21
97.500000000000128
 31
0.0
  0
LINE
  8
SIZE
  6
CONTINUOUS
 62
    30
 10
-372.79516282935492
 20
0.0000000000001137
 30
0.0
 11
-372.79516282935492
 21
73.500000000000099
 31
0.0
  0
CIRCLE
  8
SIZE
  6
CONTINUOUS
 62
    30
 10
-372.79516282935492
 20
0.0000000000001137
 30
0.0
 40
6.0
  0
LINE
  8
SIZE
  6
CONTINUOUS
 62
    30
 10
-372.79516282935492
 20
0.0000000000001137
 30
0.0
 11
-372.79516282935492
 21
-11.99999999999989
 31
0.0
  0
CIRCLE
  8
SIZE
  6
CONTINUOUS
 62
    30
 10
-372.79516282935492
 20
73.500000000000099
 30
0.0
 40
6.0
  0
LINE
  8
SIZE
  6
CONTINUOUS
 62
    30
 10
-372.79516282935492
 20
73.500000000000099
 30
0.0
 11
-372.79516282935492
 21
85.500000000000099
 31
0.0
  0
TEXT
  8
SIZE
  6
CONTINUOUS
 62
    30
 10
-397.79516282935492
 20
-51.021428571428586
 30
0.0
 40
64.0
  1
73.5
 50
90.0
 41
0.9
 72
     1
 11
-397.79516282935492
 21
36.75
 31
0.0
  0
CIRCLE
  8
FIX
  6
CONTINUOUS
 62
    11
 10
61.083635828478243
 20
0.0
 30
0.0
 40
7.0441691683918863
  0
LINE
  8
NOTE
  6
CONTINUOUS
 62
     4
 10
61.083635828478243
 20
-26.021817722442051
 30
0.0
 11
61.083635828478243
 21
26.021817722442108
 31
0.0
  0
LINE
  8
NOTE
  6
CONTINUOUS
 62
     4
 10
87.105453550920302
 20
0.0
 30
0.0
 11
35.061818106036178
 21
0.0000000000000568
 31
0.0
  0
LINE
  8
NOTE
  6
CONTINUOUS
 62
     4
 10
64.584921032657917
 20
5.1308577459322464
 30
0.0
 11
61.083635828478243
 21
0.0000000000000568
 31
0.0
  0
LINE
  8
NOTE
  6
CONTINUOUS
 62
     4
 10
61.083635828478243
 20
0.0000000000000568
 30
0.0
 11
61.550399554071987
 21
6.1940964566650223
 31
0.0
  0
LINE
  8
NOTE
  6
CONTINUOUS
 62
     4
 10
61.083635828478243
 20
0.0000000000000568
 30
0.0
 11
65.051684758251682
 21
11.32495420259727
 31
0.0
  0
LINE
  8
NOTE
  6
CONTINUOUS
 62
     4
 10
65.051684758251682
 20
11.32495420259727
 30
0.0
 11
128.95396177172009
 21
191.7835389778347
 31
0.0
  0
LINE
  8
NOTE
  6
CONTINUOUS
 62
     4
 10
128.95396177172009
 20
191.7835389778347
 30
0.0
 11
225.9825332002915
 21
191.7835389778347
 31
0.0
  0
TEXT
  8
NOTE
  6
CONTINUOUS
 62
     4
 10
140.95396177172009
 20
223.7835389778347
 30
0.0
 40
64.0
  1
EL
 41
0.9
  0
LINE
  8
SIZE
  6
CONTINUOUS
 62
    30
 10
-69.945829237579858
 20
46.021817722442037
 30
0.0
 11
-69.945829237579801
 21
576.95786533593764
 31
0.0
  0
LINE
  8
SIZE
  6
CONTINUOUS
 62
    30
 10
69.945735111388331
 20
46.021817722442037
 30
0.0
 11
69.945735111388458
 21
576.95786533593764
 31
0.0
  0
LINE
  8
SIZE
  6
CONTINUOUS
 62
    30
 10
57.945735111388437
 20
556.95786533593764
 30
0.0
 11
-57.945829237579787
 21
556.95786533593764
 31
0.0
  0
LINE
  8
SIZE
  6
CONTINUOUS
 62
    30
 10
-69.945829237579801
 20
556.95786533593764
 30
0.0
 11
-269.08868638043703
 21
556.95786533593764
 31
0.0
  0
CIRCLE
  8
SIZE
  6
CONTINUOUS
 62
    30
 10
69.945735111388458
 20
556.95786533593764
 30
0.0
 40
6.0
  0
LINE
  8
SIZE
  6
CONTINUOUS
 62
    30
 10
69.945735111388458
 20
556.95786533593764
 30
0.0
 11
57.945735111388437
 21
556.95786533593764
 31
0.0
  0
CIRCLE
  8
SIZE
  6
CONTINUOUS
 62
    30
 10
-69.945829237579801
 20
556.95786533593764
 30
0.0
 40
6.0
  0
LINE
  8
SIZE
  6
CONTINUOUS
 62
    30
 10
-69.945829237579801
 20
556.95786533593764
 30
0.0
 11
-57.945829237579787
 21
556.95786533593764
 31
0.0
  0
TEXT
  8
SIZE
  6
CONTINUOUS
 62
    30
 10
-244.088686380437
 20
581.95786533593764
 30
0.0
 40
64.0
  1
140
 41
0.9
 72
     1
 11
-175.51725780900841
 21
581.95786533593764
 31
0.0
  0
LINE
  8
NOTE
  6
CONTINUOUS
 62
     4
 10
-75.523687394678575
 20
2.7335320867491082
 30
0.0
 11
-69.945829237579858
 21
0.0
 31
0.0
  0
LINE
  8
NOTE
  6
CONTINUOUS
 62
     4
 10
-69.945829237579858
 20
0.0
 30
0.0
 11
-73.409622286795582
 21
5.1562425274810826
 31
0.0
  0
LINE
  8
NOTE
  6
CONTINUOUS
 62
     4
 10
-69.945829237579858
 20
0.0
 30
0.0
 11
-78.987480443894299
 21
7.8897746142301903
 31
0.0
  0
LINE
  8
NOTE
  6
CONTINUOUS
 62
     4
 10
-78.987480443894299
 20
7.8897746142303058
 30
0.0
 11
-260.30582491478918
 21
166.10875902956249
 31
0.0
  0
LINE
  8
NOTE
  6
CONTINUOUS
 62
     4
 10
-260.30582491478918
 20
166.10875902956249
 30
0.0
 11
-633.30955636608326
 21
166.10875902956249
 31
0.0
  0
TEXT
  8
NOTE
  6
CONTINUOUS
 62
     4
 10
-629.9743963433607
 20
198.10875902956249
 30
0.0
 40
64.0
  1
2-φ5×7
 41
0.9
 72
     2
 11
-272.30582491478918
 21
198.10875902956249
 31
0.0
  0
LINE
  8
DETAIL
  6
CONTINUOUS
 62
     5
 10
-13.416839999999979
 20
-9.9999999999998863
 30
0.0
 11
13.416839999999979
 21
-9.9999999999998863
 31
0.0
  0
LINE
  8
DETAIL
  6
CONTINUOUS
 62
     5
 10
13.416839999999979
 20
-9.9999999999998863
 30
0.0
 11
13.416839999999979
 21
-11.828977667474019
 31
0.0
  0
LINE
  8
DETAIL
  6
CONTINUOUS
 62
     5
 10
13.416839999999979
 20
-11.828977667474019
 30
0.0
 11
-13.416839999999979
 21
-11.828977667474019
 31
0.0
  0
LINE
  8
DETAIL
  6
CONTINUOUS
 62
     5
 10
-13.416839999999979
 20
-11.828977667474019
 30
0.0
 11
-13.416839999999979
 21
-9.9999999999998863
 31
0.0
  0
CIRCLE
  8
ARRANGE
  6
CONTINUOUS
 62
     1
 10
0.0
 20
0.0
 30
0.0
 40
40.0
  0
POINT
  8
ARRANGE
  6
CONTINUOUS
 62
     1
 10
0.0
 20
0.0
 30
0.0
  0
LINE
  8
DETAIL
  6
CONTINUOUS
 62
     5
 10
27.663746407300099
 20
45.300000000000011
 30
0.0
 11
47.009754282539568
 21
45.299999959333597
 31
0.0
  0
LINE
  8
DETAIL
  6
CONTINUOUS
 62
     5
 10
19.83438607410017
 20
44.791273796800063
 30
0.0
 11
19.860454222300181
 21
43.29783058930002
 31
0.0
  0
LINE
  8
DETAIL
  6
CONTINUOUS
 62
     5
 10
26.54915754310014
 20
45.300000000000011
 30
0.0
 11
26.54915754310014
 21
46.300000000000011
 31
0.0
  0
ARC
  8
DETAIL
  6
CONTINUOUS
 62
     5
 10
27.249157543099951
 20
46.300000000000011
 30
0.0
 40
0.699999999999988
 50
90.0
 51
180.0
  0
ARC
  8
DETAIL
  6
CONTINUOUS
 62
     5
 10
27.349157543100091
 20
46.300000000000011
 30
0.0
 40
0.700000000000046
 50
0.0
 51
90.0
  0
ARC
  8
DETAIL
  6
CONTINUOUS
 62
     5
 10
28.37521797310001
 20
46.300000000000011
 30
0.0
 40
0.700000000000046
 50
0.0
 51
90.0
  0
ARC
  8
DETAIL
  6
CONTINUOUS
 62
     5
 10
20.334309921699969
 20
44.800000000000011
 30
0.0
 40
0.499999999999986
 50
97.583333333011069
 51
181.00000000039921
  0
LINE
  8
DETAIL
  6
CONTINUOUS
 62
     5
 10
28.04915754310014
 20
45.300000000000011
 30
0.0
 11
28.04915754310014
 21
46.300000000000011
 31
0.0
  0
LINE
  8
DETAIL
  6
CONTINUOUS
 62
     5
 10
29.075217973100049
 20
45.300000000000011
 30
0.0
 11
29.075217973100049
 21
46.300000000000011
 31
0.0
  0
LINE
  8
DETAIL
  6
CONTINUOUS
 62
     5
 10
27.249157543099951
 20
47.0
 30
0.0
 11
27.349157543100091
 21
47.0
 31
0.0
  0
LINE
  8
DETAIL
  6
CONTINUOUS
 62
     5
 10
28.275217973100101
 20
47.0
 30
0.0
 11
28.37521797310001
 21
47.0
 31
0.0
  0
ARC
  8
DETAIL
  6
CONTINUOUS
 62
     5
 10
28.275217973100101
 20
46.300000000000011
 30
0.0
 40
0.699999999999988
 50
90.0
 51
131.51978623389371
  0
LINE
  8
DETAIL
  6
CONTINUOUS
 62
     5
 10
27.575506225200119
 20
47.5
 30
0.0
 11
27.575506225200119
 21
46.960813112400047
 31
0.0
  0
LINE
  8
DETAIL
  6
CONTINUOUS
 62
     5
 10
22.85000000000014
 20
70.900000000000034
 30
0.0
 11
22.85000000000014
 21
50.015565344500033
 31
0.0
  0
ARC
  8
DETAIL
  6
CONTINUOUS
 62
     5
 10
20.25
 20
70.900000000000034
 30
0.0
 40
2.600000000000021
 50
0.0
 51
90.0
  0
LINE
  8
DETAIL
  6
CONTINUOUS
 62
     5
 10
-20.249872995999791
 20
73.5
 30
0.0
 11
20.249864222399989
 21
73.5
 31
0.0
  0
LINE
  8
DETAIL
  6
CONTINUOUS
 62
     5
 10
27.477570086300151
 20
48.619415189800009
 30
0.0
 11
27.575506225200119
 21
47.5
 31
0.0
  0
ARC
  8
DETAIL
  6
CONTINUOUS
 62
     5
 10
26.182516978799871
 20
48.506112724199973
 30
0.0
 40
1.299999999999998
 50
4.9999999999993374
 51
74.119149991695167
  0
LINE
  8
DETAIL
  6
CONTINUOUS
 62
     5
 10
20.67344236410008
 20
48.619415189800009
 30
0.0
 11
20.575506225199891
 21
47.5
 31
0.0
  0
ARC
  8
DETAIL
  6
CONTINUOUS
 62
     5
 10
24.075506225200119
 20
41.100000000000023
 30
0.0
 40
9.0000000000000195
 50
74.119149991695167
 51
105.8808500083049
  0
ARC
  8
DETAIL
  6
CONTINUOUS
 62
     5
 10
21.968495471600139
 20
48.506112724199973
 30
0.0
 40
1.2999999999999841
 50
105.8808500083049
 51
175.00000000000071
  0
LINE
  8
OUTLINE
  6
CONTINUOUS
 62
     3
 10
29.075217973100049
 20
45.300000000000011
 30
0.0
 11
47.009754282539568
 21
45.299999959333597
 31
0.0
  0
ARC
  8
OUTLINE
  6
CONTINUOUS
 62
     3
 10
27.349157543100091
 20
46.300000000000011
 30
0.0
 40
0.700000000000046
 50
48.587787462655257
 51
71.134041336704442
  0
ARC
  8
OUTLINE
  6
CONTINUOUS
 62
     3
 10
28.37521797310001
 20
46.300000000000011
 30
0.0
 40
0.700000000000046
 50
0.0
 51
90.0
  0
LINE
  8
OUTLINE
  6
CONTINUOUS
 62
     3
 10
29.075217973100049
 20
45.300000000000011
 30
0.0
 11
29.075217973100049
 21
46.300000000000011
 31
0.0
  0
LINE
  8
OUTLINE
  6
CONTINUOUS
 62
     3
 10
28.275217973100101
 20
47.0
 30
0.0
 11
28.37521797310001
 21
47.0
 31
0.0
  0
ARC
  8
OUTLINE
  6
CONTINUOUS
 62
     3
 10
28.275217973100101
 20
46.300000000000011
 30
0.0
 40
0.699999999999988
 50
90.0
 51
131.51978623389371
  0
LINE
  8
OUTLINE
  6
CONTINUOUS
 62
     3
 10
27.575506225200119
 20
47.5
 30
0.0
 11
27.575506225200119
 21
46.960813112400047
 31
0.0
  0
LINE
  8
OUTLINE
  6
CONTINUOUS
 62
     3
 10
22.85000000000014
 20
70.900000000000034
 30
0.0
 11
22.85000000000014
 21
50.015565344500033
 31
0.0
  0
ARC
  8
OUTLINE
  6
CONTINUOUS
 62
     3
 10
20.25
 20
70.900000000000034
 30
0.0
 40
2.600000000000021
 50
0.0
 51
90.0
  0
LINE
  8
OUTLINE
  6
CONTINUOUS
 62
     3
 10
-20.249872995999791
 20
73.5
 30
0.0
 11
20.249864222399989
 21
73.5
 31
0.0
  0
LINE
  8
OUTLINE
  6
CONTINUOUS
 62
     3
 10
27.477570086300151
 20
48.619415189800009
 30
0.0
 11
27.575506225200119
 21
47.5
 31
0.0
  0
ARC
  8
OUTLINE
  6
CONTINUOUS
 62
     3
 10
26.182516978799871
 20
48.506112724199973
 30
0.0
 40
1.299999999999998
 50
4.9999999999993374
 51
74.119149991695167
  0
ARC
  8
OUTLINE
  6
CONTINUOUS
 62
     3
 10
24.075506225200119
 20
41.100000000000023
 30
0.0
 40
9.0000000000000195
 50
74.119149991695167
 51
97.826127976147433
  0
ARC
  8
DETAIL
  6
CONTINUOUS
 62
     5
 10
79.491187152900011
 20
-0.5
 30
0.0
 40
0.500000000000014
 50
359.00001829831427
 51
89.998951422398733
  0
LINE
  8
DETAIL
  6
CONTINUOUS
 62
     5
 10
-79.491196303500146
 20
0.0
 30
0.0
 11
79.491196303500146
 21
0.0
 31
0.0
  0
ARC
  8
DETAIL
  6
CONTINUOUS
 62
     5
 10
78.629314253439361
 20
-22.998986241753979
 30
0.0
 40
1.0
 50
270.0
 51
358.99999999980281
  0
LINE
  8
DETAIL
  6
CONTINUOUS
 62
     5
 10
79.629161948595538
 20
-23.016438648194711
 30
0.0
 11
79.991120151099949
 21
-0.5087262032998297
 31
0.0
  0
LINE
  8
DETAIL
  6
CONTINUOUS
 62
     5
 10
78.629314253439361
 20
-23.998986241753979
 30
0.0
 11
-78.598381178604996
 21
-23.99999372699995
 31
0.0
  0
ARC
  8
DETAIL
  6
CONTINUOUS
 62
     5
 10
-78.598381288099972
 20
-22.99999372699995
 30
0.0
 40
0.999999999999996
 50
181.00035947399999
 51
270.00000627359998
  0
LINE
  8
DETAIL
  6
CONTINUOUS
 62
     5
 10
-79.991120151100176
 20
-0.5087262032998297
 30
0.0
 11
-79.598228873800053
 21
-23.01745240650007
 31
0.0
  0
ARC
  8
DETAIL
  6
CONTINUOUS
 62
     5
 10
-79.491190320800115
 20
-0.5
 30
0.0
 40
0.500000000000096
 50
90.000685572108779
 51
180.99998803589051
  0
LINE
  8
DETAIL
  6
CONTINUOUS
 62
     5
 10
-73.5
 20
-51.5
 30
0.0
 11
-75.5
 21
-49.5
 31
0.0
  0
LINE
  8
DETAIL
  6
CONTINUOUS
 62
     5
 10
79.0
 20
-49.5
 30
0.0
 11
-79.0
 21
-49.5
 31
0.0
  0
LINE
  8
DETAIL
  6
CONTINUOUS
 62
     5
 10
80.0
 20
-44.5
 30
0.0
 11
-80.0
 21
-44.5
 31
0.0
  0
LINE
  8
DETAIL
  6
CONTINUOUS
 62
     5
 10
73.5
 20
-51.5
 30
0.0
 11
-73.5
 21
-51.5
 31
0.0
  0
ARC
  8
DETAIL
  6
CONTINUOUS
 62
     5
 10
-79.0
 20
-48.5
 30
0.0
 40
1.0
 50
180.0
 51
270.0
  0
LINE
  8
DETAIL
  6
CONTINUOUS
 62
     5
 10
-80.0
 20
-48.5
 30
0.0
 11
-80.0
 21
-44.5
 31
0.0
  0
LINE
  8
DETAIL
  6
CONTINUOUS
 62
     5
 10
70.5
 20
-23.999038332857591
 30
0.0
 11
70.5
 21
-44.5
 31
0.0
  0
LINE
  8
DETAIL
  6
CONTINUOUS
 62
     5
 10
59.5
 20
-23.999108818770878
 30
0.0
 11
59.5
 21
-44.5
 31
0.0
  0
ARC
  8
DETAIL
  6
CONTINUOUS
 62
     5
 10
79.0
 20
-48.5
 30
0.0
 40
1.0
 50
270.0
 51
0.0
  0
LINE
  8
DETAIL
  6
CONTINUOUS
 62
     5
 10
80.0
 20
-48.5
 30
0.0
 11
80.0
 21
-44.5
 31
0.0
  0
LINE
  8
DETAIL
  6
CONTINUOUS
 62
     5
 10
73.5
 20
-51.5
 30
0.0
 11
75.5
 21
-49.5
 31
0.0
  0
LINE
  8
DETAIL
  6
CONTINUOUS
 62
     5
 10
-70.5
 20
-23.999038332857591
 30
0.0
 11
-70.5
 21
-44.5
 31
0.0
  0
LINE
  8
DETAIL
  6
CONTINUOUS
 62
     5
 10
-59.5
 20
-23.999108818770878
 30
0.0
 11
-59.5
 21
-44.5
 31
0.0
  0
ARC
  8
OUTLINE
  6
CONTINUOUS
 62
     3
 10
79.491187152900011
 20
-0.5
 30
0.0
 40
0.500000000000014
 50
359.00001829831427
 51
89.998951422398733
  0
LINE
  8
OUTLINE
  6
CONTINUOUS
 62
     3
 10
-79.491196303500146
 20
0.0
 30
0.0
 11
79.491196303500146
 21
0.0
 31
0.0
  0
ARC
  8
OUTLINE
  6
CONTINUOUS
 62
     3
 10
78.629314253439361
 20
-22.998986241753979
 30
0.0
 40
1.0
 50
270.0
 51
358.99999999980281
  0
LINE
  8
OUTLINE
  6
CONTINUOUS
 62
     3
 10
79.629161948595538
 20
-23.016438648194711
 30
0.0
 11
79.991120151099949
 21
-0.5087262032998297
 31
0.0
  0
LINE
  8
OUTLINE
  6
CONTINUOUS
 62
     3
 10
78.629314253439361
 20
-23.998986241753979
 30
0.0
 11
-78.598381178604996
 21
-23.99999372699995
 31
0.0
  0
ARC
  8
OUTLINE
  6
CONTINUOUS
 62
     3
 10
-78.598381288099972
 20
-22.99999372699995
 30
0.0
 40
0.999999999999996
 50
181.00035947399999
 51
270.00000627359998
  0
LINE
  8
OUTLINE
  6
CONTINUOUS
 62
     3
 10
-79.991120151100176
 20
-0.5087262032998297
 30
0.0
 11
-79.598228873800053
 21
-23.01745240650007
 31
0.0
  0
ARC
  8
OUTLINE
  6
CONTINUOUS
 62
     3
 10
-79.491190320800115
 20
-0.5
 30
0.0
 40
0.500000000000096
 50
90.000685572108779
 51
180.99998803589051
  0
LINE
  8
OUTLINE
  6
CONTINUOUS
 62
     3
 10
-73.5
 20
-51.5
 30
0.0
 11
-75.5
 21
-49.5
 31
0.0
  0
LINE
  8
OUTLINE
  6
CONTINUOUS
 62
     3
 10
79.0
 20
-49.5
 30
0.0
 11
-79.0
 21
-49.5
 31
0.0
  0
LINE
  8
OUTLINE
  6
CONTINUOUS
 62
     3
 10
80.0
 20
-44.5
 30
0.0
 11
-80.0
 21
-44.5
 31
0.0
  0
LINE
  8
OUTLINE
  6
CONTINUOUS
 62
     3
 10
73.5
 20
-51.5
 30
0.0
 11
-73.5
 21
-51.5
 31
0.0
  0
ARC
  8
OUTLINE
  6
CONTINUOUS
 62
     3
 10
-79.0
 20
-48.5
 30
0.0
 40
1.0
 50
180.0
 51
270.0
  0
LINE
  8
OUTLINE
  6
CONTINUOUS
 62
     3
 10
-80.0
 20
-48.5
 30
0.0
 11
-80.0
 21
-44.5
 31
0.0
  0
LINE
  8
OUTLINE
  6
CONTINUOUS
 62
     3
 10
70.5
 20
-23.999038332857591
 30
0.0
 11
70.5
 21
-44.5
 31
0.0
  0
ARC
  8
OUTLINE
  6
CONTINUOUS
 62
     3
 10
79.0
 20
-48.5
 30
0.0
 40
1.0
 50
270.0
 51
0.0
  0
LINE
  8
OUTLINE
  6
CONTINUOUS
 62
     3
 10
80.0
 20
-48.5
 30
0.0
 11
80.0
 21
-44.5
 31
0.0
  0
LINE
  8
OUTLINE
  6
CONTINUOUS
 62
     3
 10
73.5
 20
-51.5
 30
0.0
 11
75.5
 21
-49.5
 31
0.0
  0
LINE
  8
OUTLINE
  6
CONTINUOUS
 62
     3
 10
-70.5
 20
-23.999038332857591
 30
0.0
 11
-70.5
 21
-44.5
 31
0.0
  0
LINE
  8
DETAIL
  6
CONTINUOUS
 62
     5
 10
26.88985206320012
 20
46.900000000000091
 30
0.0
 11
-26.88985206320012
 21
46.900000000000091
 31
0.0
  0
LINE
  8
DETAIL
  6
CONTINUOUS
 62
     5
 10
19.860416355095371
 20
43.300000000000011
 30
0.0
 11
-19.860416355095371
 21
43.300000000000011
 31
0.0
  0
LINE
  8
DETAIL
  6
CONTINUOUS
 62
     5
 10
-27.663746407300099
 20
45.300000000000011
 30
0.0
 11
-47.009754282539546
 21
45.299999959333597
 31
0.0
  0
LINE
  8
DETAIL
  6
CONTINUOUS
 62
     5
 10
-47.009754282539546
 20
45.299999959333597
 30
0.0
 11
-47.405081393023011
 21
0.0
 31
0.0
  0
LINE
  8
DETAIL
  6
CONTINUOUS
 62
     5
 10
-19.83438607410017
 20
44.791273796800063
 30
0.0
 11
-19.860454222300181
 21
43.29783058930002
 31
0.0
  0
LINE
  8
DETAIL
  6
CONTINUOUS
 62
     5
 10
-26.54915754310014
 20
45.300000000000011
 30
0.0
 11
-26.54915754310014
 21
46.300000000000011
 31
0.0
  0
ARC
  8
DETAIL
  6
CONTINUOUS
 62
     5
 10
-27.249157543099951
 20
46.300000000000011
 30
0.0
 40
0.699999999999988
 50
0.0
 51
90.0
  0
ARC
  8
DETAIL
  6
CONTINUOUS
 62
     5
 10
-27.349157543100091
 20
46.300000000000011
 30
0.0
 40
0.700000000000046
 50
90.0
 51
180.0
  0
ARC
  8
DETAIL
  6
CONTINUOUS
 62
     5
 10
-28.37521797310001
 20
46.300000000000011
 30
0.0
 40
0.700000000000046
 50
90.0
 51
180.0
  0
ARC
  8
DETAIL
  6
CONTINUOUS
 62
     5
 10
-20.334309921699969
 20
44.800000000000011
 30
0.0
 40
0.499999999999986
 50
358.99999999960079
 51
82.416666666988931
  0
LINE
  8
DETAIL
  6
CONTINUOUS
 62
     5
 10
-28.04915754310014
 20
45.300000000000011
 30
0.0
 11
-28.04915754310014
 21
46.300000000000011
 31
0.0
  0
LINE
  8
DETAIL
  6
CONTINUOUS
 62
     5
 10
-29.075217973100049
 20
45.300000000000011
 30
0.0
 11
-29.075217973100049
 21
46.300000000000011
 31
0.0
  0
LINE
  8
DETAIL
  6
CONTINUOUS
 62
     5
 10
-26.54915754310014
 20
46.100000000000023
 30
0.0
 11
26.54915754310014
 21
46.100000000000023
 31
0.0
  0
LINE
  8
DETAIL
  6
CONTINUOUS
 62
     5
 10
-27.663746407300099
 20
45.300000000000011
 30
0.0
 11
27.663746407300099
 21
45.300000000000011
 31
0.0
  0
LINE
  8
DETAIL
  6
CONTINUOUS
 62
     5
 10
-27.249157543099951
 20
47.0
 30
0.0
 11
-27.349157543100091
 21
47.0
 31
0.0
  0
LINE
  8
DETAIL
  6
CONTINUOUS
 62
     5
 10
-28.275217973100101
 20
47.0
 30
0.0
 11
-28.37521797310001
 21
47.0
 31
0.0
  0
ARC
  8
DETAIL
  6
CONTINUOUS
 62
     5
 10
-28.275217973100101
 20
46.300000000000011
 30
0.0
 40
0.699999999999988
 50
48.480213766106267
 51
90.0
  0
LINE
  8
DETAIL
  6
CONTINUOUS
 62
     5
 10
-27.575506225200119
 20
47.5
 30
0.0
 11
-27.575506225200119
 21
46.960813112400047
 31
0.0
  0
LINE
  8
DETAIL
  6
CONTINUOUS
 62
     5
 10
27.575286309399871
 20
47.5
 30
0.0
 11
-27.575286309399871
 21
47.5
 31
0.0
  0
LINE
  8
DETAIL
  6
CONTINUOUS
 62
     5
 10
-22.85000000000014
 20
70.900000000000034
 30
0.0
 11
-22.85000000000014
 21
50.015565344500033
 31
0.0
  0
ARC
  8
DETAIL
  6
CONTINUOUS
 62
     5
 10
-20.25
 20
70.900000000000034
 30
0.0
 40
2.600000000000021
 50
90.0
 51
180.0
  0
LINE
  8
DETAIL
  6
CONTINUOUS
 62
     5
 10
20.249872995999791
 20
73.5
 30
0.0
 11
-20.249864222399989
 21
73.5
 31
0.0
  0
LINE
  8
DETAIL
  6
CONTINUOUS
 62
     5
 10
-27.477570086300151
 20
48.619415189800009
 30
0.0
 11
-27.575506225200119
 21
47.5
 31
0.0
  0
ARC
  8
DETAIL
  6
CONTINUOUS
 62
     5
 10
-26.182516978799871
 20
48.506112724199973
 30
0.0
 40
1.299999999999998
 50
105.8808500083049
 51
175.00000000000071
  0
LINE
  8
DETAIL
  6
CONTINUOUS
 62
     5
 10
-20.67344236410008
 20
48.619415189800009
 30
0.0
 11
-20.575506225199891
 21
47.5
 31
0.0
  0
ARC
  8
DETAIL
  6
CONTINUOUS
 62
     5
 10
-24.075506225200119
 20
41.100000000000023
 30
0.0
 40
9.0000000000000195
 50
74.119149991695167
 51
105.8808500083049
  0
ARC
  8
DETAIL
  6
CONTINUOUS
 62
     5
 10
-21.968495471600139
 20
48.506112724199973
 30
0.0
 40
1.2999999999999841
 50
4.9999999999993374
 51
74.119149991695167
  0
LINE
  8
OUTLINE
  6
CONTINUOUS
 62
     3
 10
-29.075217973100049
 20
45.300000000000011
 30
0.0
 11
-47.009754282539546
 21
45.299999959333597
 31
0.0
  0
LINE
  8
OUTLINE
  6
CONTINUOUS
 62
     3
 10
-47.009754282539546
 20
45.299999959333597
 30
0.0
 11
-47.405081393023011
 21
0.0
 31
0.0
  0
ARC
  8
OUTLINE
  6
CONTINUOUS
 62
     3
 10
-27.349157543100091
 20
46.300000000000011
 30
0.0
 40
0.700000000000046
 50
108.8659586632956
 51
131.4122125373448
  0
ARC
  8
OUTLINE
  6
CONTINUOUS
 62
     3
 10
-28.37521797310001
 20
46.300000000000011
 30
0.0
 40
0.700000000000046
 50
90.0
 51
180.0
  0
LINE
  8
OUTLINE
  6
CONTINUOUS
 62
     3
 10
-29.075217973100049
 20
45.300000000000011
 30
0.0
 11
-29.075217973100049
 21
46.300000000000011
 31
0.0
  0
LINE
  8
OUTLINE
  6
CONTINUOUS
 62
     3
 10
-28.275217973100101
 20
47.0
 30
0.0
 11
-28.37521797310001
 21
47.0
 31
0.0
  0
ARC
  8
OUTLINE
  6
CONTINUOUS
 62
     3
 10
-28.275217973100101
 20
46.300000000000011
 30
0.0
 40
0.699999999999988
 50
48.480213766106267
 51
90.0
  0
LINE
  8
OUTLINE
  6
CONTINUOUS
 62
     3
 10
-27.575506225200119
 20
47.5
 30
0.0
 11
-27.575506225200119
 21
46.960813112400047
 31
0.0
  0
LINE
  8
OUTLINE
  6
CONTINUOUS
 62
     3
 10
-22.85000000000014
 20
70.900000000000034
 30
0.0
 11
-22.85000000000014
 21
50.015565344500033
 31
0.0
  0
ARC
  8
OUTLINE
  6
CONTINUOUS
 62
     3
 10
-20.25
 20
70.900000000000034
 30
0.0
 40
2.600000000000021
 50
90.0
 51
180.0
  0
LINE
  8
OUTLINE
  6
CONTINUOUS
 62
     3
 10
20.249872995999791
 20
73.5
 30
0.0
 11
-20.249864222399989
 21
73.5
 31
0.0
  0
LINE
  8
OUTLINE
  6
CONTINUOUS
 62
     3
 10
-27.477570086300151
 20
48.619415189800009
 30
0.0
 11
-27.575506225200119
 21
47.5
 31
0.0
  0
ARC
  8
OUTLINE
  6
CONTINUOUS
 62
     3
 10
-26.182516978799871
 20
48.506112724199973
 30
0.0
 40
1.299999999999998
 50
105.8808500083049
 51
175.00000000000071
  0
ARC
  8
OUTLINE
  6
CONTINUOUS
 62
     3
 10
-24.075506225200119
 20
41.100000000000023
 30
0.0
 40
9.0000000000000195
 50
82.173872023852596
 51
105.8808500083049
  0
LINE
  8
DETAIL
  6
CONTINUOUS
 62
     5
 10
47.009754282539568
 20
45.299999959333597
 30
0.0
 11
47.405081393023011
 21
0.0
 31
0.0
  0
LINE
  8
OUTLINE
  6
CONTINUOUS
 62
     3
 10
47.009754282539568
 20
45.299999959333597
 30
0.0
 11
47.405081393023011
 21
0.0
 31
0.0
  0
TEXT
  8
ETC
  6
CONTINUOUS
 62
    61
 10
182.5605198462745
 20
586.39466802052016
 30
0.0
 40
64.0
  1
V-08PWXD4_6
 41
0.9
  0
TEXT
  8
ETC
  6
CONTINUOUS
 62
    61
 10
178.37452584627411
 20
468.43935800568892
 30
0.0
 40
64.0
  1
換気扇
 41
0.9
  0
TEXT
  8
ETC
  6
CONTINUOUS
 62
    61
 10
229.07592409483021
 20
360.2905851194638
 30
0.0
 40
40.0
  1
V-08PWXD4
 41
0.9
  0
ENDSEC
  0
EOF
