  0
SECTION
  2
HEADER
  9
$ACADVER
  1
AC1009
  9
$DWGCODEPAGE
  3
dos932
  9
$INSBASE
 10
0.0
 20
0.0
 30
0.0
  9
$EXTMIN
 10
-486.72178503675792
 20
-306.01500278107778
 30
-0.0015258207003583
  9
$EXTMAX
 10
819.36036288896503
 20
804.29077975485779
 30
0.0000000349246037
  9
$LIMMIN
 10
-2970.0
 20
-2100.0
  9
$LIMMAX
 10
2970.0
 20
2100.0
  9
$ORTHOMODE
 70
     1
  9
$REGENMODE
 70
     1
  9
$FILLMODE
 70
     1
  9
$QTEXTMODE
 70
     0
  9
$MIRRTEXT
 70
     0
  9
$LTSCALE
 40
20.0
  9
$ATTMODE
 70
     1
  9
$TEXTSIZE
 40
64.0
  9
$TRACEWID
 40
0.05
  9
$TEXTSTYLE
  7
STANDARD
  9
$CLAYER
  8
SIZE
  9
$CELTYPE
  6
CONTINUOUS
  9
$CECOLOR
 62
     7
  9
$DIMSCALE
 40
1.0
  9
$DIMASZ
 40
12.0
  9
$DIMEXO
 40
20.0
  9
$DIMDLI
 40
200.0
  9
$DIMRND
 40
0.0
  9
$DIMDLE
 40
0.0
  9
$DIMEXE
 40
20.0
  9
$DIMTP
 40
0.0
  9
$DIMTM
 40
0.0
  9
$DIMTXT
 40
64.0
  9
$DIMCEN
 40
0.09
  9
$DIMTSZ
 40
0.0
  9
$DIMTOL
 70
     0
  9
$DIMLIM
 70
     0
  9
$DIMTIH
 70
     0
  9
$DIMTOH
 70
     0
  9
$DIMSE1
 70
     0
  9
$DIMSE2
 70
     0
  9
$DIMTAD
 70
     1
  9
$DIMZIN
 70
     8
  9
$DIMBLK
  1

  9
$DIMASO
 70
     1
  9
$DIMSHO
 70
     0
  9
$DIMPOST
  1

  9
$DIMAPOST
  1

  9
$DIMALT
 70
     0
  9
$DIMALTD
 70
     2
  9
$DIMALTF
 40
25.399999999999999
  9
$DIMLFAC
 40
1.0
  9
$DIMTOFL
 70
     1
  9
$DIMTVP
 40
0.0
  9
$DIMTIX
 70
     1
  9
$DIMSOXD
 70
     0
  9
$DIMSAH
 70
     0
  9
$DIMBLK1
  1

  9
$DIMBLK2
  1

  9
$DIMSTYLE
  2
STANDARD
  9
$DIMCLRD
 70
     7
  9
$DIMCLRE
 70
     7
  9
$DIMCLRT
 70
     7
  9
$DIMTFAC
 40
1.0
  9
$DIMGAP
 40
25.0
  9
$LUNITS
 70
     2
  9
$LUPREC
 70
     4
  9
$SKETCHINC
 40
0.1
  9
$FILLETRAD
 40
3.0
  9
$AUNITS
 70
     1
  9
$AUPREC
 70
     3
  9
$MENU
  1
ACAD
  9
$ELEVATION
 40
0.0
  9
$PELEVATION
 40
0.0
  9
$THICKNESS
 40
0.0
  9
$LIMCHECK
 70
     0
  9
$CHAMFERA
 40
0.0
  9
$CHAMFERB
 40
0.0
  9
$SKPOLY
 70
     0
  9
$TDCREATE
 40
2453019.623009259
  9
$TDUPDATE
 40
2459356.659591528
  9
$TDINDWG
 40
1.7253169097
  9
$TDUSRTIMER
 40
1.7253169097
  9
$USRTIMER
 70
     1
  9
$ANGBASE
 50
0.0
  9
$ANGDIR
 70
     0
  9
$PDMODE
 70
     3
  9
$PDSIZE
 40
-2.0
  9
$PLINEWID
 40
0.0
  9
$SPLFRAME
 70
     0
  9
$SPLINETYPE
 70
     6
  9
$SPLINESEGS
 70
     8
  9
$SURFTAB1
 70
     6
  9
$SURFTAB2
 70
     6
  9
$SURFTYPE
 70
     6
  9
$SURFU
 70
     6
  9
$SURFV
 70
     6
  9
$UCSNAME
  2

  9
$UCSORG
 10
0.0
 20
0.0
 30
0.0
  9
$UCSXDIR
 10
1.0
 20
0.0
 30
0.0
  9
$UCSYDIR
 10
0.0
 20
1.0
 30
0.0
  9
$PUCSNAME
  2

  9
$PUCSORG
 10
0.0
 20
0.0
 30
0.0
  9
$PUCSXDIR
 10
1.0
 20
0.0
 30
0.0
  9
$PUCSYDIR
 10
0.0
 20
1.0
 30
0.0
  9
$USERI1
 70
     0
  9
$USERI2
 70
     0
  9
$USERI3
 70
     0
  9
$USERI4
 70
     0
  9
$USERI5
 70
     0
  9
$USERR1
 40
20.0
  9
$USERR2
 40
0.0
  9
$USERR3
 40
0.0
  9
$USERR4
 40
0.0
  9
$USERR5
 40
0.0
  9
$WORLDVIEW
 70
     1
  9
$SHADEDGE
 70
     3
  9
$SHADEDIF
 70
    70
  9
$TILEMODE
 70
     1
  9
$MAXACTVP
 70
    48
  9
$PINSBASE
 10
0.0
 20
0.0
 30
0.0
  9
$PLIMCHECK
 70
     0
  9
$PEXTMIN
 10
-100000000000000000000.0
 20
-100000000000000000000.0
 30
-100000000000000000000.0
  9
$PEXTMAX
 10
100000000000000000000.0
 20
100000000000000000000.0
 30
100000000000000000000.0
  9
$PLIMMIN
 10
0.0
 20
0.0
  9
$PLIMMAX
 10
12.0
 20
9.0
  9
$UNITMODE
 70
     0
  9
$VISRETAIN
 70
     0
  9
$PLINEGEN
 70
     0
  9
$PSLTSCALE
 70
     0
  9
$TREEDEPTH
 70
  3020
  9
$ATTDIA
 70
     0
  9
$ATTREQ
 70
     1
  9
$BLIPMODE
 70
     1
  9
$COORDS
 70
     1
  9
$DRAGMODE
 70
     2
  9
$OSMODE
 70
     0
  9
$HANDLING
 70
     0
  9
$HANDSEED
  5
34C
  0
ENDSEC
  0
SECTION
  2
TABLES
  0
TABLE
  2
LTYPE
 70
     2
  0
LTYPE
  2
CONTINUOUS
 70
     0
  3
実線
 72
    65
 73
     0
 40
0.0
  0
LTYPE
  2
DASHDOT
 70
     0
  3
____ _ ____ _ ____ _ ____ _ ____ _ ____ _ ____
 72
    65
 73
     4
 40
5.5
 49
4.0
 49
-0.6
 49
0.3
 49
-0.6
  0
ENDTAB
  0
TABLE
  2
LAYER
 70
    12
  0
LAYER
  2
SIZE
 70
     0
 62
    30
  6
CONTINUOUS
  0
LAYER
  2
BASIS
 70
     0
 62
     6
  6
DASHDOT
  0
LAYER
  2
OUTLINE
 70
     0
 62
     3
  6
CONTINUOUS
  0
LAYER
  2
DETAIL
 70
     0
 62
     5
  6
CONTINUOUS
  0
LAYER
  2
ARRANGE
 70
     0
 62
     1
  6
CONTINUOUS
  0
LAYER
  2
ETC
 70
     0
 62
    61
  6
CONTINUOUS
  0
LAYER
  2
FIX
 70
     0
 62
    11
  6
CONTINUOUS
  0
LAYER
  2
NOTE
 70
     0
 62
     4
  6
CONTINUOUS
  0
LAYER
  2
0
 70
    64
 62
     7
  6
CONTINUOUS
  0
LAYER
  2
DEFPOINTS
 70
    64
 62
     7
  6
CONTINUOUS
  0
LAYER
  2
SERVICESPACE
 70
    64
 62
     2
  6
DASHDOT
  0
LAYER
  2
SYMBOLLINE
 70
    64
 62
    15
  6
CONTINUOUS
  0
ENDTAB
  0
TABLE
  2
STYLE
 70
     1
  0
STYLE
  2
STANDARD
 70
     0
 40
64.0
 41
0.9
 50
0.0
 71
     0
 42
64.0
  3
SIMPLEX.shx
  4
BIGFONT.shx
  0
ENDTAB
  0
TABLE
  2
APPID
 70
    20
  0
APPID
  2
ACAD
 70
     0
  0
APPID
  2
ACADANNOTATIVE
 70
     0
  0
APPID
  2
AUTOCAD_POSTSCRIPT_FIGURE
 70
     0
  0
APPID
  2
ACAD_EXEMPT_FROM_CAD_STANDARDS
 70
     0
  0
APPID
  2
ACAD_PSEXT
 70
     0
  0
APPID
  2
ACAUTHENVIRON
 70
     0
  0
APPID
  2
GENIUS_GENOENT_13
 70
     0
  0
APPID
  2
GENIUS_GENCFG_13
 70
     0
  0
APPID
  2
GENIUS_GENCFG0_13
 70
     0
  0
APPID
  2
GENIUS_GENCFG1_13
 70
     0
  0
APPID
  2
GENIUS_GENCFG2_13
 70
     0
  0
APPID
  2
GENIUS_GENCFG3_13
 70
     0
  0
APPID
  2
GENIUS_GENCFG4_13
 70
     0
  0
APPID
  2
GENIUS_GEVCFG0_13
 70
     0
  0
APPID
  2
CONTENTBLOCKICON
 70
     0
  0
APPID
  2
CONTENTBLOCKDESCRIPTION
 70
     0
  0
APPID
  2
ACAD_NAV_VCDISPLAY
 70
     0
  0
APPID
  2
ACAD_MLEADERVER
 70
     0
  0
APPID
  2
ACDBDYNAMICBLOCKTRUENAME
 70
     0
  0
APPID
  2
ACDBDYNAMICBLOCKGUID
 70
     0
  0
ENDTAB
  0
TABLE
  2
DIMSTYLE
 70
     1
  0
DIMSTYLE
  2
STANDARD
 70
     0
  3

  4

  5

  6

  7

 40
1.0
 41
12.0
 42
20.0
 43
200.0
 44
20.0
 45
0.0
 46
0.0
 47
0.0
 48
0.0
140
64.0
141
0.09
142
0.0
143
25.399999999999999
144
1.0
145
0.0
146
1.0
147
25.0
 71
     0
 72
     0
 73
     0
 74
     0
 75
     0
 76
     0
 77
     1
 78
     8
170
     0
171
     2
172
     1
173
     0
174
     1
175
     0
176
     7
177
     7
178
     7
  0
ENDTAB
  0
TABLE
  2
VIEW
 70
     1
  0
VIEW
  2
ALL
 70
     0
 40
4282.6198079999986
 10
0.0
 20
41.309904000000003
 41
5940.0
 11
0.0
 21
0.0
 31
1.0
 12
0.0
 22
0.0
 32
0.0
 42
50.0
 43
0.0
 44
0.0
 50
0.0
 71
     0
  0
ENDTAB
  0
TABLE
  2
UCS
 70
     0
  0
ENDTAB
  0
TABLE
  2
VPORT
 70
     1
  0
VPORT
  2
*ACTIVE
 70
     0
 10
0.0
 20
0.0
 11
1.0
 21
1.0
 12
166.3192889261035
 22
249.13788848689001
 13
0.0
 23
0.0
 14
1.0
 24
1.0
 15
0.0
 25
0.0
 16
0.0
 26
0.0
 36
1.0
 17
0.0
 27
0.0
 37
0.0
 40
1117.7491732568469
 41
1.767337807606264
 42
50.0
 43
0.0
 44
0.0
 50
0.0
 51
0.0
 71
     0
 72
  1000
 73
     1
 74
     3
 75
     0
 76
     0
 77
     0
 78
     0
  0
ENDTAB
  0
ENDSEC
  0
SECTION
  2
BLOCKS
  0
ENDSEC
  0
SECTION
  2
ENTITIES
  0
TEXT
  8
ETC
  6
CONTINUOUS
 62
    61
 10
278.74728020049588
 20
740.28391511178165
 30
0.0
 40
64.0
  1
V-08PXD8_1
 41
0.9
  0
TEXT
  8
ETC
  6
CONTINUOUS
 62
    61
 10
274.56128620049537
 20
622.32860509695058
 30
0.0
 40
64.0
  1
換気扇
 41
0.9
  0
LINE
  8
BASIS
  6
DASHDOT
 62
     6
 10
0.0
 20
-109.2854010143142
 30
0.0
 11
0.0
 21
109.2854010143142
 31
0.0
  0
LINE
  8
BASIS
  6
DASHDOT
 62
     6
 10
95.967552833830496
 20
0.0
 30
0.0
 11
-95.967646960021952
 21
0.0
 31
0.0
  0
TEXT
  8
ETC
  6
CONTINUOUS
 62
    61
 10
325.26268444905128
 20
514.17983221072518
 30
0.0
 40
40.0
  1
V-08PXD8
 41
0.9
  0
TEXT
  8
ETC
  6
CONTINUOUS
 62
    61
 10
325.26268444905128
 20
448.17983221072518
 30
0.0
 40
40.0
  1
V-08PXD8-BE
 41
0.9
  0
CIRCLE
  8
FIX
  6
CONTINUOUS
 62
    11
 10
69.945735111388331
 20
0.0
 30
0.0
 40
7.0441691683918863
  0
LINE
  8
NOTE
  6
CONTINUOUS
 62
     4
 10
69.945735111388331
 20
-26.021817722442051
 30
0.0
 11
69.945735111388331
 21
26.021817722442051
 31
0.0
  0
CIRCLE
  8
FIX
  6
CONTINUOUS
 62
    11
 10
-69.945829237579801
 20
0.0
 30
0.0
 40
7.0441691683918863
  0
LINE
  8
NOTE
  6
CONTINUOUS
 62
     4
 10
-69.945829237579801
 20
-26.021817722442051
 30
0.0
 11
-69.945829237579801
 21
26.021817722442051
 31
0.0
  0
LINE
  8
NOTE
  6
CONTINUOUS
 62
     4
 10
-43.924011515137863
 20
0.0
 30
0.0
 11
-95.967646960021952
 21
0.0
 31
0.0
  0
TEXT
  8
NOTE
  6
CONTINUOUS
 62
     4
 10
142.25035519483211
 20
57.07725143514746
 30
0.0
 40
64.0
  1
2-φ4×10
 41
0.9
  0
TEXT
  8
NOTE
  6
CONTINUOUS
 62
     4
 10
-483.90802985572742
 20
130.9551069742661
 30
0.0
 40
64.0
  1
2-φ5×7
 41
0.9
  0
LINE
  8
NOTE
  6
CONTINUOUS
 62
     4
 10
-72.099484790491928
 20
5.826359673879665
 30
0.0
 11
-69.945829237579801
 21
0.0
 31
0.0
  0
LINE
  8
NOTE
  6
CONTINUOUS
 62
     4
 10
-69.945829237579801
 20
0.0
 30
0.0
 11
-74.724135475318221
 21
3.9689405120748229
 31
0.0
  0
LINE
  8
NOTE
  6
CONTINUOUS
 62
     4
 10
-69.945829237579801
 20
0.0
 30
0.0
 11
-76.877791028230376
 21
9.7953001859544884
 31
0.0
  0
LINE
  8
NOTE
  6
CONTINUOUS
 62
     4
 10
-76.877791028230376
 20
9.7953001859545434
 30
0.0
 11
-145.95224868552529
 21
107.40187511655721
 31
0.0
  0
LINE
  8
NOTE
  6
CONTINUOUS
 62
     4
 10
-145.95224868552529
 20
107.40187511655721
 30
0.0
 11
-486.50082011409683
 21
107.40187511655721
 31
0.0
  0
LINE
  8
NOTE
  6
CONTINUOUS
 62
     4
 10
76.10311955087127
 20
0.8193388520101621
 30
0.0
 11
69.945735111388331
 21
0.0
 31
0.0
  0
LINE
  8
NOTE
  6
CONTINUOUS
 62
     4
 10
69.945735111388331
 20
0.0
 30
0.0
 11
74.868511322141558
 21
3.788267898240917
 31
0.0
  0
LINE
  8
NOTE
  6
CONTINUOUS
 62
     4
 10
69.945735111388331
 20
0.0
 30
0.0
 11
81.025895761624497
 21
4.6076067502510236
 31
0.0
  0
LINE
  8
NOTE
  6
CONTINUOUS
 62
     4
 10
81.025895761624497
 20
4.6076067502510236
 30
0.0
 11
130.25035519483211
 21
25.077251435147449
 31
0.0
  0
LINE
  8
NOTE
  6
CONTINUOUS
 62
     4
 10
130.25035519483211
 20
25.077251435147449
 30
0.0
 11
547.33319517852124
 21
25.077251435147449
 31
0.0
  0
LINE
  8
SIZE
  6
CONTINUOUS
 62
    30
 10
-47.504089243498584
 20
43.000000000000057
 30
0.0
 11
-47.504089243498584
 21
426.71868937549152
 31
0.0
  0
LINE
  8
SIZE
  6
CONTINUOUS
 62
    30
 10
47.504089243498584
 20
43.000000000000057
 30
0.0
 11
47.504089243498584
 21
426.71868937549152
 31
0.0
  0
LINE
  8
SIZE
  6
CONTINUOUS
 62
    30
 10
35.504089243498591
 20
406.71868937549152
 30
0.0
 11
-35.504089243498591
 21
406.71868937549152
 31
0.0
  0
LINE
  8
SIZE
  6
CONTINUOUS
 62
    30
 10
-47.504089243498584
 20
406.71868937549152
 30
0.0
 11
-270.63188904776052
 21
406.71868937549152
 31
0.0
  0
CIRCLE
  8
SIZE
  6
CONTINUOUS
 62
    30
 10
47.504089243498584
 20
406.71868937549152
 30
0.0
 40
6.0
  0
LINE
  8
SIZE
  6
CONTINUOUS
 62
    30
 10
47.504089243498584
 20
406.71868937549152
 30
0.0
 11
35.504089243498591
 21
406.71868937549152
 31
0.0
  0
CIRCLE
  8
SIZE
  6
CONTINUOUS
 62
    30
 10
-47.504089243498584
 20
406.71868937549152
 30
0.0
 40
6.0
  0
LINE
  8
SIZE
  6
CONTINUOUS
 62
    30
 10
-47.504089243498584
 20
406.71868937549152
 30
0.0
 11
-35.504089243498591
 21
406.71868937549152
 31
0.0
  0
TEXT
  8
SIZE
  6
CONTINUOUS
 62
    30
 10
-255.7804604763318
 20
442.38535604215832
 30
0.0
 40
64.0
  1
φ95
 41
0.9
 72
     1
 11
-168.83188904776031
 21
442.38535604215832
 31
0.0
  0
LINE
  8
SIZE
  6
CONTINUOUS
 62
    30
 10
-22.849725809598571
 20
90.900000000000148
 30
0.0
 11
-22.849725809598571
 21
284.71167859130821
 31
0.0
  0
LINE
  8
SIZE
  6
CONTINUOUS
 62
    30
 10
22.849725809598571
 20
90.900000000000148
 30
0.0
 11
22.849725809598571
 21
284.71167859130821
 31
0.0
  0
LINE
  8
SIZE
  6
CONTINUOUS
 62
    30
 10
34.849725809598567
 20
264.7116785913081
 30
0.0
 11
46.849725809598567
 21
264.7116785913081
 31
0.0
  0
LINE
  8
SIZE
  6
CONTINUOUS
 62
    30
 10
-34.849725809598567
 20
264.7116785913081
 30
0.0
 11
-282.9509615426341
 21
264.7116785913081
 31
0.0
  0
LINE
  8
SIZE
  6
CONTINUOUS
 62
    30
 10
22.849725809598571
 20
264.7116785913081
 30
0.0
 11
-22.849725809598571
 21
264.7116785913081
 31
0.0
  0
CIRCLE
  8
SIZE
  6
CONTINUOUS
 62
    30
 10
22.849725809598571
 20
264.7116785913081
 30
0.0
 40
6.0
  0
LINE
  8
SIZE
  6
CONTINUOUS
 62
    30
 10
22.849725809598571
 20
264.7116785913081
 30
0.0
 11
34.849725809598567
 21
264.7116785913081
 31
0.0
  0
CIRCLE
  8
SIZE
  6
CONTINUOUS
 62
    30
 10
-22.849725809598571
 20
264.7116785913081
 30
0.0
 40
6.0
  0
LINE
  8
SIZE
  6
CONTINUOUS
 62
    30
 10
-22.849725809598571
 20
264.7116785913081
 30
0.0
 11
-34.849725809598567
 21
264.7116785913081
 31
0.0
  0
TEXT
  8
SIZE
  6
CONTINUOUS
 62
    30
 10
-268.09953297120529
 20
300.37834525797467
 30
0.0
 40
64.0
  1
φ46
 41
0.9
 72
     1
 11
-182.52239011406249
 21
300.37834525797467
 31
0.0
  0
LINE
  8
SIZE
  6
CONTINUOUS
 62
    30
 10
79.994672090600034
 20
-63.805235722000027
 30
0.0
 11
79.994672090600034
 21
-201.8404935140675
 31
0.0
  0
LINE
  8
SIZE
  6
CONTINUOUS
 62
    30
 10
-79.994672090700064
 20
-63.805235722000027
 30
0.0
 11
-79.994672090700064
 21
-201.8404935140675
 31
0.0
  0
LINE
  8
SIZE
  6
CONTINUOUS
 62
    30
 10
-67.994672090700078
 20
-181.8404935140675
 30
0.0
 11
67.994672090600034
 21
-181.8404935140675
 31
0.0
  0
LINE
  8
SIZE
  6
CONTINUOUS
 62
    30
 10
79.994672090600034
 20
-181.8404935140675
 30
0.0
 11
344.41752923345712
 21
-181.8404935140675
 31
0.0
  0
CIRCLE
  8
SIZE
  6
CONTINUOUS
 62
    30
 10
-79.994672090700064
 20
-181.8404935140675
 30
0.0
 40
6.0
  0
LINE
  8
SIZE
  6
CONTINUOUS
 62
    30
 10
-79.994672090700064
 20
-181.8404935140675
 30
0.0
 11
-67.994672090700078
 21
-181.8404935140675
 31
0.0
  0
CIRCLE
  8
SIZE
  6
CONTINUOUS
 62
    30
 10
79.994672090600034
 20
-181.8404935140675
 30
0.0
 40
6.0
  0
LINE
  8
SIZE
  6
CONTINUOUS
 62
    30
 10
79.994672090600034
 20
-181.8404935140675
 30
0.0
 11
67.994672090600034
 21
-181.8404935140675
 31
0.0
  0
TEXT
  8
SIZE
  6
CONTINUOUS
 62
    30
 10
113.1546720905997
 20
-156.8404935140675
 30
0.0
 40
64.0
  1
□160
 41
0.9
 72
     1
 11
218.20610066202829
 21
-156.8404935140675
 31
0.0
  0
LINE
  8
SIZE
  6
CONTINUOUS
 62
    30
 10
69.945735111388331
 20
46.021817722442037
 30
0.0
 11
69.945735111388331
 21
543.06178381695725
 31
0.0
  0
LINE
  8
SIZE
  6
CONTINUOUS
 62
    30
 10
-69.945829237579801
 20
46.021817722442037
 30
0.0
 11
-69.945829237579801
 21
543.06178381695736
 31
0.0
  0
LINE
  8
SIZE
  6
CONTINUOUS
 62
    30
 10
57.945735111388331
 20
523.06178381695736
 30
0.0
 11
-57.945829237579787
 21
523.06178381695736
 31
0.0
  0
CIRCLE
  8
SIZE
  6
CONTINUOUS
 62
    30
 10
69.945735111388331
 20
523.06178381695736
 30
0.0
 40
6.0
  0
LINE
  8
SIZE
  6
CONTINUOUS
 62
    30
 10
69.945735111388331
 20
523.06178381695736
 30
0.0
 11
57.945735111388331
 21
523.06178381695736
 31
0.0
  0
CIRCLE
  8
SIZE
  6
CONTINUOUS
 62
    30
 10
-69.945829237579801
 20
523.06178381695736
 30
0.0
 40
6.0
  0
LINE
  8
SIZE
  6
CONTINUOUS
 62
    30
 10
-69.945829237579801
 20
523.06178381695736
 30
0.0
 11
-57.945829237579787
 21
523.06178381695736
 31
0.0
  0
TEXT
  8
SIZE
  6
CONTINUOUS
 62
    30
 10
-68.571475634524305
 20
548.06178381695736
 30
0.0
 40
64.0
  1
140
 41
0.9
 72
     1
 11
-0.0000470630957352
 21
548.06178381695736
 31
0.0
  0
LINE
  8
SIZE
  6
CONTINUOUS
 62
    30
 10
-115.96764696002199
 20
0.0
 30
0.0
 11
-170.61946277524021
 21
0.0000000000000568
 31
0.0
  0
LINE
  8
SIZE
  6
CONTINUOUS
 62
    30
 10
-98.912572347300056
 20
-49.5
 30
0.0
 11
-170.61946277524021
 21
-49.5
 31
0.0
  0
LINE
  8
SIZE
  6
CONTINUOUS
 62
    30
 10
-150.61946277524021
 20
12.0
 30
0.0
 11
-150.61946277524021
 21
24.00000000000006
 31
0.0
  0
LINE
  8
SIZE
  6
CONTINUOUS
 62
    30
 10
-150.61946277524021
 20
-61.5
 30
0.0
 11
-150.61946277524021
 21
-305.83879249860888
 31
0.0
  0
LINE
  8
SIZE
  6
CONTINUOUS
 62
    30
 10
-150.61946277524021
 20
0.0000000000000568
 30
0.0
 11
-150.61946277524021
 21
-49.5
 31
0.0
  0
CIRCLE
  8
SIZE
  6
CONTINUOUS
 62
    30
 10
-150.61946277524021
 20
0.0000000000000568
 30
0.0
 40
6.0
  0
LINE
  8
SIZE
  6
CONTINUOUS
 62
    30
 10
-150.61946277524021
 20
0.0000000000000568
 30
0.0
 11
-150.61946277524021
 21
12.0
 31
0.0
  0
CIRCLE
  8
SIZE
  6
CONTINUOUS
 62
    30
 10
-150.61946277524021
 20
-49.5
 30
0.0
 40
6.0
  0
LINE
  8
SIZE
  6
CONTINUOUS
 62
    30
 10
-150.61946277524021
 20
-49.5
 30
0.0
 11
-150.61946277524021
 21
-61.5
 31
0.0
  0
TEXT
  8
SIZE
  6
CONTINUOUS
 62
    30
 10
-175.61946277524021
 20
-280.838792498609
 30
0.0
 40
64.0
  1
49.5
 50
90.0
 41
0.9
 72
     1
 11
-175.61946277524021
 21
-193.06736392718039
 31
0.0
  0
LINE
  8
SIZE
  6
CONTINUOUS
 62
    30
 10
-115.96764696002199
 20
0.0
 30
0.0
 11
-291.28298809060823
 21
0.0000000000000568
 31
0.0
  0
LINE
  8
SIZE
  6
CONTINUOUS
 62
    30
 10
-66.813808977898574
 20
45.300000000000011
 30
0.0
 11
-291.28298809060823
 21
45.300000000000068
 31
0.0
  0
LINE
  8
SIZE
  6
CONTINUOUS
 62
    30
 10
-271.28298809060828
 20
57.300000000000068
 30
0.0
 11
-271.28298809060828
 21
69.300000000000068
 31
0.0
  0
LINE
  8
SIZE
  6
CONTINUOUS
 62
    30
 10
-271.28298809060828
 20
-11.99999999999994
 30
0.0
 11
-271.28298809060828
 21
-252.53433616412161
 31
0.0
  0
LINE
  8
SIZE
  6
CONTINUOUS
 62
    30
 10
-271.28298809060828
 20
45.300000000000068
 30
0.0
 11
-271.28298809060828
 21
0.0000000000000568
 31
0.0
  0
CIRCLE
  8
SIZE
  6
CONTINUOUS
 62
    30
 10
-271.28298809060828
 20
45.300000000000068
 30
0.0
 40
6.0
  0
LINE
  8
SIZE
  6
CONTINUOUS
 62
    30
 10
-271.28298809060828
 20
45.300000000000068
 30
0.0
 11
-271.28298809060828
 21
57.300000000000068
 31
0.0
  0
CIRCLE
  8
SIZE
  6
CONTINUOUS
 62
    30
 10
-271.28298809060828
 20
0.0000000000000568
 30
0.0
 40
6.0
  0
LINE
  8
SIZE
  6
CONTINUOUS
 62
    30
 10
-271.28298809060828
 20
0.0000000000000568
 30
0.0
 11
-271.28298809060828
 21
-11.99999999999994
 31
0.0
  0
TEXT
  8
SIZE
  6
CONTINUOUS
 62
    30
 10
-296.28298809060823
 20
-227.53433616412161
 30
0.0
 40
64.0
  1
45.5
 50
90.0
 41
0.9
 72
     1
 11
-296.28298809060823
 21
-139.76290759269301
 31
0.0
  0
LINE
  8
SIZE
  6
CONTINUOUS
 62
    30
 10
-115.96764696002199
 20
0.0
 30
0.0
 11
-411.99422392307542
 21
0.0000000000001137
 31
0.0
  0
LINE
  8
SIZE
  6
CONTINUOUS
 62
    30
 10
-40.249591358498492
 20
73.500000000000043
 30
0.0
 11
-411.99422392307542
 21
73.500000000000185
 31
0.0
  0
LINE
  8
SIZE
  6
CONTINUOUS
 62
    30
 10
-391.99422392307542
 20
85.500000000000185
 30
0.0
 11
-391.99422392307542
 21
97.500000000000156
 31
0.0
  0
LINE
  8
SIZE
  6
CONTINUOUS
 62
    30
 10
-391.99422392307542
 20
-11.99999999999989
 30
0.0
 11
-391.99422392307542
 21
-249.54285714285709
 31
0.0
  0
LINE
  8
SIZE
  6
CONTINUOUS
 62
    30
 10
-391.99422392307542
 20
73.500000000000185
 30
0.0
 11
-391.99422392307542
 21
0.0000000000001137
 31
0.0
  0
CIRCLE
  8
SIZE
  6
CONTINUOUS
 62
    30
 10
-391.99422392307542
 20
73.500000000000185
 30
0.0
 40
6.0
  0
LINE
  8
SIZE
  6
CONTINUOUS
 62
    30
 10
-391.99422392307542
 20
73.500000000000185
 30
0.0
 11
-391.99422392307542
 21
85.500000000000185
 31
0.0
  0
CIRCLE
  8
SIZE
  6
CONTINUOUS
 62
    30
 10
-391.99422392307542
 20
0.0000000000001137
 30
0.0
 40
6.0
  0
LINE
  8
SIZE
  6
CONTINUOUS
 62
    30
 10
-391.99422392307542
 20
0.0000000000001137
 30
0.0
 11
-391.99422392307542
 21
-11.99999999999989
 31
0.0
  0
TEXT
  8
SIZE
  6
CONTINUOUS
 62
    30
 10
-416.99422392307542
 20
-224.54285714285729
 30
0.0
 40
64.0
  1
73.5
 50
90.0
 41
0.9
 72
     1
 11
-416.99422392307542
 21
-136.77142857142869
 31
0.0
  0
CIRCLE
  8
FIX
  6
CONTINUOUS
 62
    11
 10
60.245336069167926
 20
0.0
 30
0.0
 40
7.0441691683918863
  0
LINE
  8
NOTE
  6
CONTINUOUS
 62
     4
 10
60.245336069167926
 20
-26.021817722442051
 30
0.0
 11
60.245336069167926
 21
26.021817722442108
 31
0.0
  0
LINE
  8
NOTE
  6
CONTINUOUS
 62
     4
 10
86.267153791609886
 20
0.0
 30
0.0
 11
34.223518346725768
 21
0.0
 31
0.0
  0
LINE
  8
NOTE
  6
CONTINUOUS
 62
     4
 10
63.782457971360152
 20
5.1062185557447037
 30
0.0
 11
60.245336069167926
 21
0.0
 31
0.0
  0
LINE
  8
NOTE
  6
CONTINUOUS
 62
     4
 10
60.245336069167926
 20
0.0
 30
0.0
 11
60.755454885875693
 21
6.1906767063739494
 31
0.0
  0
LINE
  8
NOTE
  6
CONTINUOUS
 62
     4
 10
60.245336069167926
 20
0.0
 30
0.0
 11
64.29257678806789
 21
11.2968952621186
 31
0.0
  0
LINE
  8
NOTE
  6
CONTINUOUS
 62
     4
 10
64.29257678806789
 20
11.2968952621186
 30
0.0
 11
128.95396177172009
 21
191.7835389778347
 31
0.0
  0
LINE
  8
NOTE
  6
CONTINUOUS
 62
     4
 10
128.95396177172009
 20
191.7835389778347
 30
0.0
 11
225.9825332002915
 21
191.7835389778347
 31
0.0
  0
TEXT
  8
NOTE
  6
CONTINUOUS
 62
     4
 10
140.95396177172009
 20
223.7835389778347
 30
0.0
 40
64.0
  1
EL
 41
0.9
  0
CIRCLE
  8
ARRANGE
  6
CONTINUOUS
 62
     1
 10
0.0
 20
0.0
 30
0.0
 40
40.0
  0
POINT
  8
ARRANGE
  6
CONTINUOUS
 62
     1
 10
0.0
 20
0.0
 30
0.0
  0
LINE
  8
DETAIL
  6
CONTINUOUS
 62
     5
 10
59.449251433799873
 20
-43.5
 30
0.0
 11
58.987638389123958
 21
-24.800000000000011
 31
0.0
  0
LINE
  8
DETAIL
  6
CONTINUOUS
 62
     5
 10
78.912572347300056
 20
-49.5
 30
0.0
 11
-78.912572347300056
 21
-49.5
 31
0.0
  0
LINE
  8
DETAIL
  6
CONTINUOUS
 62
     5
 10
-79.919262437756061
 20
-48.125451844899999
 30
0.0
 11
79.91926243774742
 21
-48.125451844899999
 31
0.0
  0
LINE
  8
DETAIL
  6
CONTINUOUS
 62
     5
 10
-79.694717782100042
 20
-43.5
 30
0.0
 11
79.694717782100042
 21
-43.5
 31
0.0
  0
LINE
  8
DETAIL
  6
CONTINUOUS
 62
     5
 10
-58.98763917196743
 20
-24.800000038948369
 30
0.0
 11
58.987638389123958
 21
-24.800000000000011
 31
0.0
  0
LINE
  8
DETAIL
  6
CONTINUOUS
 62
     5
 10
1.508329533654432
 20
-25.705833817404201
 30
0.0
 11
9.2111995061000016
 21
-31.172898161499969
 31
0.0
  0
LINE
  8
DETAIL
  6
CONTINUOUS
 62
     5
 10
9.2111995061000016
 20
-31.172898161499969
 30
0.0
 11
15.24556549249996
 21
-35.468446581299993
 31
0.0
  0
LINE
  8
DETAIL
  6
CONTINUOUS
 62
     5
 10
15.24556549249996
 20
-35.468446581299993
 30
0.0
 11
26.512909919700181
 21
-43.5
 31
0.0
  0
LINE
  8
DETAIL
  6
CONTINUOUS
 62
     5
 10
-26.512908206600059
 20
-43.5
 30
0.0
 11
-15.459165436699999
 21
-35.620624088099987
 31
0.0
  0
LINE
  8
DETAIL
  6
CONTINUOUS
 62
     5
 10
-15.459165436699999
 20
-35.620624088099987
 30
0.0
 11
-1.516898515883895
 21
-25.705833817404201
 31
0.0
  0
LINE
  8
DETAIL
  6
CONTINUOUS
 62
     5
 10
-58.98763917196743
 20
-24.800000038948369
 30
0.0
 11
-59.449252215599927
 21
-43.5
 31
0.0
  0
LINE
  8
DETAIL
  6
CONTINUOUS
 62
     5
 10
-79.912420042499889
 20
-48.517452406499963
 30
0.0
 11
-79.994672090700078
 21
-43.805235722000027
 31
0.0
  0
ARC
  8
DETAIL
  6
CONTINUOUS
 62
     5
 10
79.694717782100042
 20
-43.800000000000068
 30
0.0
 40
0.299999999999996
 50
359.00000000002427
 51
90.0
  0
ARC
  8
DETAIL
  6
CONTINUOUS
 62
     5
 10
-78.912572347300056
 20
-48.5
 30
0.0
 40
1.000000000000012
 50
180.99999999999531
 51
270.00084192510081
  0
ARC
  8
DETAIL
  6
CONTINUOUS
 62
     5
 10
-79.694705203600051
 20
-43.800000000000068
 30
0.0
 40
0.300000000000126
 50
90.002402313505584
 51
180.99995807948159
  0
LINE
  8
DETAIL
  6
CONTINUOUS
 62
     5
 10
70.522691584400036
 20
-43.5
 30
0.0
 11
70.863065459946029
 21
-23.999993727
 31
0.0
  0
LINE
  8
DETAIL
  6
CONTINUOUS
 62
     5
 10
59.477308415599957
 20
-43.5
 30
0.0
 11
59.136934539956663
 21
-23.999993727
 31
0.0
  0
LINE
  8
DETAIL
  6
CONTINUOUS
 62
     5
 10
-51.820101012699979
 20
-24.679898987400009
 30
0.0
 11
-52.5
 21
-24.0
 31
0.0
  0
LINE
  8
DETAIL
  6
CONTINUOUS
 62
     5
 10
-79.491196303499919
 20
0.0
 30
0.0
 11
79.491196303499919
 21
0.0
 31
0.0
  0
LINE
  8
DETAIL
  6
CONTINUOUS
 62
     5
 10
-59.477308415599957
 20
-43.5
 30
0.0
 11
-59.154085081499943
 21
-24.982547593599971
 31
0.0
  0
LINE
  8
DETAIL
  6
CONTINUOUS
 62
     5
 10
-70.522691584400036
 20
-43.5
 30
0.0
 11
-70.845914918500057
 21
-24.982547593599971
 31
0.0
  0
LINE
  8
DETAIL
  6
CONTINUOUS
 62
     5
 10
-79.991120151099949
 20
-0.5087262033000002
 30
0.0
 11
-79.598228873800053
 21
-23.017452406500009
 31
0.0
  0
ARC
  8
DETAIL
  6
CONTINUOUS
 62
     5
 10
-71.845762613600073
 20
-25.0
 30
0.0
 40
1.000000000000012
 50
0.9999999999952488
 51
90.0
  0
ARC
  8
DETAIL
  6
CONTINUOUS
 62
     5
 10
-58.154238307799908
 20
-25.0
 30
0.0
 40
0.9999995394000201
 50
89.999947209493328
 51
178.9999990787058
  0
ARC
  8
DETAIL
  6
CONTINUOUS
 62
     5
 10
78.593937524733064
 20
-22.996768895282401
 30
0.0
 40
1.0
 50
270.0
 51
358.99999999980281
  0
ARC
  8
DETAIL
  6
CONTINUOUS
 62
     5
 10
79.491187152900011
 20
-0.5
 30
0.0
 40
0.500000000000002
 50
359.00001829830131
 51
89.998951422398733
  0
ARC
  8
DETAIL
  6
CONTINUOUS
 62
     5
 10
-49.840202025400004
 20
-22.699999999999989
 30
0.0
 40
2.799999999999994
 50
225.00000000000639
 51
228.6215035164968
  0
ARC
  8
DETAIL
  6
CONTINUOUS
 62
     5
 10
-78.598381288099972
 20
-22.999993727
 30
0.0
 40
0.999999999999996
 50
181.00035947399999
 51
270.00000627359998
  0
ARC
  8
DETAIL
  6
CONTINUOUS
 62
     5
 10
-79.491190320799888
 20
-0.5
 30
0.0
 40
0.4999999999999821
 50
90.000685572108779
 51
180.99998803589699
  0
LINE
  8
DETAIL
  6
CONTINUOUS
 62
     5
 10
79.912420042499889
 20
-48.517452406499963
 30
0.0
 11
79.994672090600034
 21
-43.805235722000027
 31
0.0
  0
ARC
  8
DETAIL
  6
CONTINUOUS
 62
     5
 10
78.912572347300056
 20
-48.5
 30
0.0
 40
0.9999999999999499
 50
269.99915766709779
 51
359.00000000000477
  0
LINE
  8
DETAIL
  6
CONTINUOUS
 62
     5
 10
-78.598381288099972
 20
-23.999993727
 30
0.0
 11
78.593937524733064
 21
-23.999993727
 31
0.0
  0
LINE
  8
DETAIL
  6
CONTINUOUS
 62
     5
 10
79.593785219889469
 20
-23.014221301723179
 30
0.0
 11
79.991120151099949
 21
-0.5087262033000002
 31
0.0
  0
LINE
  8
DETAIL
  6
CONTINUOUS
 62
     5
 10
44.443580010098692
 20
35.74284525889999
 30
0.0
 11
44.39492395230252
 21
0.0
 31
0.0
  0
LINE
  8
DETAIL
  6
CONTINUOUS
 62
     5
 10
47.313805447998668
 20
44.804363266700022
 30
0.0
 11
47.501778772503137
 21
0.0
 31
0.0
  0
ARC
  8
DETAIL
  6
CONTINUOUS
 62
     5
 10
46.813824486498561
 20
44.800000000000011
 30
0.0
 40
0.499999999999998
 50
0.4999998792085168
 51
89.999986426802039
  0
LINE
  8
DETAIL
  6
CONTINUOUS
 62
     5
 10
44.448363229698543
 20
45.300000000000011
 30
0.0
 11
44.443580010098692
 21
35.74284525889999
 31
0.0
  0
LINE
  8
DETAIL
  6
CONTINUOUS
 62
     5
 10
22.849725809598571
 20
70.900000000000148
 30
0.0
 11
22.849725809598571
 21
48.000000000000057
 31
0.0
  0
ARC
  8
DETAIL
  6
CONTINUOUS
 62
     5
 10
20.249725809598662
 20
70.900000000000148
 30
0.0
 40
2.599999999999993
 50
0.0
 51
90.0
  0
ARC
  8
DETAIL
  6
CONTINUOUS
 62
     5
 10
23.349725809598571
 20
48.000000000000057
 30
0.0
 40
0.5
 50
180.0
 51
260.99999999999488
  0
LINE
  8
DETAIL
  6
CONTINUOUS
 62
     5
 10
31.299725809598609
 20
47.500000000000057
 30
0.0
 11
31.299725809598609
 21
45.300000000000011
 31
0.0
  0
ARC
  8
DETAIL
  6
CONTINUOUS
 62
     5
 10
-0.0042844911147313
 20
-28.95037746441437
 30
0.0
 40
3.5798134958797312
 50
65.004954051383436
 51
114.99504594861661
  0
LINE
  8
DETAIL
  6
CONTINUOUS
 62
     5
 10
44.448224262120682
 20
43.300000000000011
 30
0.0
 11
-44.448224262120682
 21
43.300000000000011
 31
0.0
  0
LINE
  8
DETAIL
  6
CONTINUOUS
 62
     5
 10
-44.443580010098692
 20
35.74284525889999
 30
0.0
 11
-44.396656831908871
 21
0.0
 31
0.0
  0
LINE
  8
DETAIL
  6
CONTINUOUS
 62
     5
 10
-47.313805447998668
 20
44.804363266700022
 30
0.0
 11
-47.501778772503123
 21
0.0
 31
0.0
  0
ARC
  8
DETAIL
  6
CONTINUOUS
 62
     5
 10
-46.813824486498561
 20
44.800000000000011
 30
0.0
 40
0.499999999999998
 50
90.000013573197961
 51
179.5000001207915
  0
LINE
  8
DETAIL
  6
CONTINUOUS
 62
     5
 10
-44.448363229698543
 20
45.300000000000011
 30
0.0
 11
-44.443580010098692
 21
35.74284525889999
 31
0.0
  0
LINE
  8
DETAIL
  6
CONTINUOUS
 62
     5
 10
-46.813808977898589
 20
45.300000000000011
 30
0.0
 11
46.813808977898589
 21
45.300000000000011
 31
0.0
  0
LINE
  8
DETAIL
  6
CONTINUOUS
 62
     5
 10
-31.299725809598609
 20
47.500000000000057
 30
0.0
 11
31.299725809598609
 21
47.500000000000057
 31
0.0
  0
LINE
  8
DETAIL
  6
CONTINUOUS
 62
     5
 10
-31.299725809598609
 20
46.10000000000008
 30
0.0
 11
31.299725809598609
 21
46.10000000000008
 31
0.0
  0
LINE
  8
DETAIL
  6
CONTINUOUS
 62
     5
 10
-31.299725809598609
 20
46.900000000000148
 30
0.0
 11
31.299725809598609
 21
46.900000000000148
 31
0.0
  0
LINE
  8
DETAIL
  6
CONTINUOUS
 62
     5
 10
-20.249591358498488
 20
73.500000000000043
 30
0.0
 11
20.249591358498488
 21
73.500000000000043
 31
0.0
  0
LINE
  8
DETAIL
  6
CONTINUOUS
 62
     5
 10
-22.849725809598571
 20
70.900000000000148
 30
0.0
 11
-22.849725809598571
 21
48.000000000000057
 31
0.0
  0
ARC
  8
DETAIL
  6
CONTINUOUS
 62
     5
 10
-20.249725809598662
 20
70.900000000000148
 30
0.0
 40
2.599999999999993
 50
90.0
 51
180.0
  0
ARC
  8
DETAIL
  6
CONTINUOUS
 62
     5
 10
-23.349725809598571
 20
48.000000000000057
 30
0.0
 40
0.5
 50
279.00000000000512
 51
0.0
  0
LINE
  8
DETAIL
  6
CONTINUOUS
 62
     5
 10
-31.299725809598609
 20
47.500000000000057
 30
0.0
 11
-31.299725809598609
 21
45.300000000000011
 31
0.0
  0
LINE
  8
OUTLINE
  6
CONTINUOUS
 62
     3
 10
78.912572347300056
 20
-49.5
 30
0.0
 11
-78.912572347300056
 21
-49.5
 31
0.0
  0
LINE
  8
OUTLINE
  6
CONTINUOUS
 62
     3
 10
-79.694717782100042
 20
-43.5
 30
0.0
 11
79.694717782100042
 21
-43.5
 31
0.0
  0
LINE
  8
OUTLINE
  6
CONTINUOUS
 62
     3
 10
-79.912420042499889
 20
-48.517452406499963
 30
0.0
 11
-79.994672090700078
 21
-43.805235722000027
 31
0.0
  0
ARC
  8
OUTLINE
  6
CONTINUOUS
 62
     3
 10
79.694717782100042
 20
-43.800000000000068
 30
0.0
 40
0.299999999999996
 50
359.00000000002427
 51
90.0
  0
ARC
  8
OUTLINE
  6
CONTINUOUS
 62
     3
 10
-78.912572347300056
 20
-48.5
 30
0.0
 40
1.000000000000012
 50
180.99999999999531
 51
270.00084192510081
  0
ARC
  8
OUTLINE
  6
CONTINUOUS
 62
     3
 10
-79.694705203600051
 20
-43.800000000000068
 30
0.0
 40
0.300000000000126
 50
90.002402313505584
 51
180.99995807948159
  0
LINE
  8
OUTLINE
  6
CONTINUOUS
 62
     3
 10
70.522691584400036
 20
-43.5
 30
0.0
 11
70.863065459946029
 21
-23.999993727
 31
0.0
  0
LINE
  8
OUTLINE
  6
CONTINUOUS
 62
     3
 10
-79.491196303499919
 20
0.0
 30
0.0
 11
79.491196303499919
 21
0.0
 31
0.0
  0
LINE
  8
OUTLINE
  6
CONTINUOUS
 62
     3
 10
-70.522691584400036
 20
-43.5
 30
0.0
 11
-70.845914918500057
 21
-24.982547593599971
 31
0.0
  0
LINE
  8
OUTLINE
  6
CONTINUOUS
 62
     3
 10
-79.991120151099949
 20
-0.5087262033000002
 30
0.0
 11
-79.598228873800053
 21
-23.017452406500009
 31
0.0
  0
ARC
  8
OUTLINE
  6
CONTINUOUS
 62
     3
 10
-71.845762613600073
 20
-25.0
 30
0.0
 40
1.000000000000012
 50
0.9999999999952488
 51
90.0
  0
ARC
  8
OUTLINE
  6
CONTINUOUS
 62
     3
 10
78.593937524733064
 20
-22.996768895282401
 30
0.0
 40
1.0
 50
270.0
 51
358.99999999980281
  0
ARC
  8
OUTLINE
  6
CONTINUOUS
 62
     3
 10
79.491187152900011
 20
-0.5
 30
0.0
 40
0.500000000000002
 50
359.00001829830131
 51
89.998951422398733
  0
ARC
  8
OUTLINE
  6
CONTINUOUS
 62
     3
 10
-78.598381288099972
 20
-22.999993727
 30
0.0
 40
0.999999999999996
 50
181.00035947399999
 51
270.00000627359998
  0
ARC
  8
OUTLINE
  6
CONTINUOUS
 62
     3
 10
-79.491190320799888
 20
-0.5
 30
0.0
 40
0.4999999999999821
 50
90.000685572108779
 51
180.99998803589699
  0
LINE
  8
OUTLINE
  6
CONTINUOUS
 62
     3
 10
79.912420042499889
 20
-48.517452406499963
 30
0.0
 11
79.994672090600034
 21
-43.805235722000027
 31
0.0
  0
ARC
  8
OUTLINE
  6
CONTINUOUS
 62
     3
 10
78.912572347300056
 20
-48.5
 30
0.0
 40
0.9999999999999499
 50
269.99915766709779
 51
359.00000000000477
  0
LINE
  8
OUTLINE
  6
CONTINUOUS
 62
     3
 10
-78.598381288099972
 20
-23.999993727
 30
0.0
 11
78.593937524733064
 21
-23.999993727
 31
0.0
  0
LINE
  8
OUTLINE
  6
CONTINUOUS
 62
     3
 10
79.593785219889469
 20
-23.014221301723179
 30
0.0
 11
79.991120151099949
 21
-0.5087262033000002
 31
0.0
  0
LINE
  8
OUTLINE
  6
CONTINUOUS
 62
     3
 10
47.313805447998668
 20
44.804363266700022
 30
0.0
 11
47.501778772503137
 21
0.0
 31
0.0
  0
ARC
  8
OUTLINE
  6
CONTINUOUS
 62
     3
 10
46.813824486498561
 20
44.800000000000011
 30
0.0
 40
0.499999999999998
 50
0.4999998792085168
 51
89.999986426802039
  0
LINE
  8
OUTLINE
  6
CONTINUOUS
 62
     3
 10
22.849725809598571
 20
70.900000000000148
 30
0.0
 11
22.849725809598571
 21
48.000000000000057
 31
0.0
  0
ARC
  8
OUTLINE
  6
CONTINUOUS
 62
     3
 10
20.249725809598662
 20
70.900000000000148
 30
0.0
 40
2.599999999999993
 50
0.0
 51
90.0
  0
ARC
  8
OUTLINE
  6
CONTINUOUS
 62
     3
 10
23.349725809598571
 20
48.000000000000057
 30
0.0
 40
0.5
 50
180.0
 51
260.99999999999488
  0
LINE
  8
OUTLINE
  6
CONTINUOUS
 62
     3
 10
31.299725809598609
 20
47.500000000000057
 30
0.0
 11
31.299725809598609
 21
45.300000000000011
 31
0.0
  0
LINE
  8
OUTLINE
  6
CONTINUOUS
 62
     3
 10
-47.313805447998668
 20
44.804363266700022
 30
0.0
 11
-47.501778772503123
 21
0.0
 31
0.0
  0
ARC
  8
OUTLINE
  6
CONTINUOUS
 62
     3
 10
-46.813824486498561
 20
44.800000000000011
 30
0.0
 40
0.499999999999998
 50
90.000013573197961
 51
179.5000001207915
  0
LINE
  8
OUTLINE
  6
CONTINUOUS
 62
     3
 10
-46.813808977898589
 20
45.300000000000011
 30
0.0
 11
46.813808977898589
 21
45.300000000000011
 31
0.0
  0
LINE
  8
OUTLINE
  6
CONTINUOUS
 62
     3
 10
-31.299725809598609
 20
47.500000000000057
 30
0.0
 11
31.299725809598609
 21
47.500000000000057
 31
0.0
  0
LINE
  8
OUTLINE
  6
CONTINUOUS
 62
     3
 10
-20.249591358498488
 20
73.500000000000043
 30
0.0
 11
20.249591358498488
 21
73.500000000000043
 31
0.0
  0
LINE
  8
OUTLINE
  6
CONTINUOUS
 62
     3
 10
-22.849725809598571
 20
70.900000000000148
 30
0.0
 11
-22.849725809598571
 21
48.000000000000057
 31
0.0
  0
ARC
  8
OUTLINE
  6
CONTINUOUS
 62
     3
 10
-20.249725809598662
 20
70.900000000000148
 30
0.0
 40
2.599999999999993
 50
90.0
 51
180.0
  0
ARC
  8
OUTLINE
  6
CONTINUOUS
 62
     3
 10
-23.349725809598571
 20
48.000000000000057
 30
0.0
 40
0.5
 50
279.00000000000512
 51
0.0
  0
LINE
  8
OUTLINE
  6
CONTINUOUS
 62
     3
 10
-31.299725809598609
 20
47.500000000000057
 30
0.0
 11
-31.299725809598609
 21
45.300000000000011
 31
0.0
  0
ENDSEC
  0
EOF
