  0
SECTION
  2
HEADER
  9
$ACADVER
  1
AC1009
  9
$DWGCODEPAGE
  3
dos932
  9
$INSBASE
 10
0.0
 20
0.0
 30
0.0
  9
$EXTMIN
 10
-249.70548837411479
 20
-450.53099416025361
 30
-0.0015258207003583
  9
$EXTMAX
 10
1107.5866815838799
 20
669.38782549624739
 30
0.0000000349246037
  9
$LIMMIN
 10
-2970.0
 20
-2100.0
  9
$LIMMAX
 10
2970.0
 20
2100.0
  9
$ORTHOMODE
 70
     1
  9
$REGENMODE
 70
     1
  9
$FILLMODE
 70
     1
  9
$QTEXTMODE
 70
     0
  9
$MIRRTEXT
 70
     0
  9
$LTSCALE
 40
20.0
  9
$ATTMODE
 70
     1
  9
$TEXTSIZE
 40
64.0
  9
$TRACEWID
 40
0.05
  9
$TEXTSTYLE
  7
STANDARD
  9
$CLAYER
  8
SIZE
  9
$CELTYPE
  6
CONTINUOUS
  9
$CECOLOR
 62
     7
  9
$DIMSCALE
 40
1.0
  9
$DIMASZ
 40
12.0
  9
$DIMEXO
 40
20.0
  9
$DIMDLI
 40
200.0
  9
$DIMRND
 40
0.0
  9
$DIMDLE
 40
0.0
  9
$DIMEXE
 40
20.0
  9
$DIMTP
 40
0.0
  9
$DIMTM
 40
0.0
  9
$DIMTXT
 40
64.0
  9
$DIMCEN
 40
0.09
  9
$DIMTSZ
 40
0.0
  9
$DIMTOL
 70
     0
  9
$DIMLIM
 70
     0
  9
$DIMTIH
 70
     0
  9
$DIMTOH
 70
     0
  9
$DIMSE1
 70
     0
  9
$DIMSE2
 70
     0
  9
$DIMTAD
 70
     1
  9
$DIMZIN
 70
     8
  9
$DIMBLK
  1

  9
$DIMASO
 70
     1
  9
$DIMSHO
 70
     0
  9
$DIMPOST
  1

  9
$DIMAPOST
  1

  9
$DIMALT
 70
     0
  9
$DIMALTD
 70
     2
  9
$DIMALTF
 40
25.399999999999999
  9
$DIMLFAC
 40
1.0
  9
$DIMTOFL
 70
     1
  9
$DIMTVP
 40
0.0
  9
$DIMTIX
 70
     1
  9
$DIMSOXD
 70
     0
  9
$DIMSAH
 70
     0
  9
$DIMBLK1
  1

  9
$DIMBLK2
  1

  9
$DIMSTYLE
  2
STANDARD
  9
$DIMCLRD
 70
     7
  9
$DIMCLRE
 70
     7
  9
$DIMCLRT
 70
     7
  9
$DIMTFAC
 40
1.0
  9
$DIMGAP
 40
25.0
  9
$LUNITS
 70
     2
  9
$LUPREC
 70
     4
  9
$SKETCHINC
 40
0.1
  9
$FILLETRAD
 40
3.0
  9
$AUNITS
 70
     1
  9
$AUPREC
 70
     3
  9
$MENU
  1
ACAD
  9
$ELEVATION
 40
0.0
  9
$PELEVATION
 40
0.0
  9
$THICKNESS
 40
0.0
  9
$LIMCHECK
 70
     0
  9
$CHAMFERA
 40
0.0
  9
$CHAMFERB
 40
0.0
  9
$SKPOLY
 70
     0
  9
$TDCREATE
 40
2453019.623009259
  9
$TDUPDATE
 40
2459356.65991963
  9
$TDINDWG
 40
1.7259766319
  9
$TDUSRTIMER
 40
1.7259766319
  9
$USRTIMER
 70
     1
  9
$ANGBASE
 50
0.0
  9
$ANGDIR
 70
     0
  9
$PDMODE
 70
     3
  9
$PDSIZE
 40
-2.0
  9
$PLINEWID
 40
0.0
  9
$SPLFRAME
 70
     0
  9
$SPLINETYPE
 70
     6
  9
$SPLINESEGS
 70
     8
  9
$SURFTAB1
 70
     6
  9
$SURFTAB2
 70
     6
  9
$SURFTYPE
 70
     6
  9
$SURFU
 70
     6
  9
$SURFV
 70
     6
  9
$UCSNAME
  2

  9
$UCSORG
 10
0.0
 20
0.0
 30
0.0
  9
$UCSXDIR
 10
1.0
 20
0.0
 30
0.0
  9
$UCSYDIR
 10
0.0
 20
1.0
 30
0.0
  9
$PUCSNAME
  2

  9
$PUCSORG
 10
0.0
 20
0.0
 30
0.0
  9
$PUCSXDIR
 10
1.0
 20
0.0
 30
0.0
  9
$PUCSYDIR
 10
0.0
 20
1.0
 30
0.0
  9
$USERI1
 70
     0
  9
$USERI2
 70
     0
  9
$USERI3
 70
     0
  9
$USERI4
 70
     0
  9
$USERI5
 70
     0
  9
$USERR1
 40
20.0
  9
$USERR2
 40
0.0
  9
$USERR3
 40
0.0
  9
$USERR4
 40
0.0
  9
$USERR5
 40
0.0
  9
$WORLDVIEW
 70
     1
  9
$SHADEDGE
 70
     3
  9
$SHADEDIF
 70
    70
  9
$TILEMODE
 70
     1
  9
$MAXACTVP
 70
    48
  9
$PINSBASE
 10
0.0
 20
0.0
 30
0.0
  9
$PLIMCHECK
 70
     0
  9
$PEXTMIN
 10
-100000000000000000000.0
 20
-100000000000000000000.0
 30
-100000000000000000000.0
  9
$PEXTMAX
 10
100000000000000000000.0
 20
100000000000000000000.0
 30
100000000000000000000.0
  9
$PLIMMIN
 10
0.0
 20
0.0
  9
$PLIMMAX
 10
12.0
 20
9.0
  9
$UNITMODE
 70
     0
  9
$VISRETAIN
 70
     0
  9
$PLINEGEN
 70
     0
  9
$PSLTSCALE
 70
     0
  9
$TREEDEPTH
 70
  3020
  9
$ATTDIA
 70
     0
  9
$ATTREQ
 70
     1
  9
$BLIPMODE
 70
     1
  9
$COORDS
 70
     1
  9
$DRAGMODE
 70
     2
  9
$OSMODE
 70
     0
  9
$HANDLING
 70
     0
  9
$HANDSEED
  5
5BF
  0
ENDSEC
  0
SECTION
  2
TABLES
  0
TABLE
  2
LTYPE
 70
     2
  0
LTYPE
  2
CONTINUOUS
 70
     0
  3
実線
 72
    65
 73
     0
 40
0.0
  0
LTYPE
  2
DASHDOT
 70
     0
  3
____ _ ____ _ ____ _ ____ _ ____ _ ____ _ ____
 72
    65
 73
     4
 40
5.5
 49
4.0
 49
-0.6
 49
0.3
 49
-0.6
  0
ENDTAB
  0
TABLE
  2
LAYER
 70
    12
  0
LAYER
  2
SIZE
 70
     0
 62
    30
  6
CONTINUOUS
  0
LAYER
  2
BASIS
 70
     0
 62
     6
  6
DASHDOT
  0
LAYER
  2
OUTLINE
 70
     0
 62
     3
  6
CONTINUOUS
  0
LAYER
  2
DETAIL
 70
     0
 62
     5
  6
CONTINUOUS
  0
LAYER
  2
ARRANGE
 70
     0
 62
     1
  6
CONTINUOUS
  0
LAYER
  2
ETC
 70
     0
 62
    61
  6
CONTINUOUS
  0
LAYER
  2
FIX
 70
     0
 62
    11
  6
CONTINUOUS
  0
LAYER
  2
NOTE
 70
     0
 62
     4
  6
CONTINUOUS
  0
LAYER
  2
0
 70
    64
 62
     7
  6
CONTINUOUS
  0
LAYER
  2
DEFPOINTS
 70
    64
 62
     7
  6
CONTINUOUS
  0
LAYER
  2
SERVICESPACE
 70
    64
 62
     2
  6
DASHDOT
  0
LAYER
  2
SYMBOLLINE
 70
    64
 62
    15
  6
CONTINUOUS
  0
ENDTAB
  0
TABLE
  2
STYLE
 70
     1
  0
STYLE
  2
STANDARD
 70
     0
 40
64.0
 41
0.9
 50
0.0
 71
     0
 42
64.0
  3
SIMPLEX.shx
  4
BIGFONT.shx
  0
ENDTAB
  0
TABLE
  2
APPID
 70
    20
  0
APPID
  2
ACAD
 70
     0
  0
APPID
  2
ACADANNOTATIVE
 70
     0
  0
APPID
  2
AUTOCAD_POSTSCRIPT_FIGURE
 70
     0
  0
APPID
  2
ACAD_EXEMPT_FROM_CAD_STANDARDS
 70
     0
  0
APPID
  2
ACAD_PSEXT
 70
     0
  0
APPID
  2
ACAUTHENVIRON
 70
     0
  0
APPID
  2
GENIUS_GENOENT_13
 70
     0
  0
APPID
  2
GENIUS_GENCFG_13
 70
     0
  0
APPID
  2
GENIUS_GENCFG0_13
 70
     0
  0
APPID
  2
GENIUS_GENCFG1_13
 70
     0
  0
APPID
  2
GENIUS_GENCFG2_13
 70
     0
  0
APPID
  2
GENIUS_GENCFG3_13
 70
     0
  0
APPID
  2
GENIUS_GENCFG4_13
 70
     0
  0
APPID
  2
GENIUS_GEVCFG0_13
 70
     0
  0
APPID
  2
CONTENTBLOCKICON
 70
     0
  0
APPID
  2
CONTENTBLOCKDESCRIPTION
 70
     0
  0
APPID
  2
ACAD_NAV_VCDISPLAY
 70
     0
  0
APPID
  2
ACAD_MLEADERVER
 70
     0
  0
APPID
  2
ACDBDYNAMICBLOCKTRUENAME
 70
     0
  0
APPID
  2
ACDBDYNAMICBLOCKGUID
 70
     0
  0
ENDTAB
  0
TABLE
  2
DIMSTYLE
 70
     1
  0
DIMSTYLE
  2
STANDARD
 70
     0
  3

  4

  5

  6

  7

 40
1.0
 41
12.0
 42
20.0
 43
200.0
 44
20.0
 45
0.0
 46
0.0
 47
0.0
 48
0.0
140
64.0
141
0.09
142
0.0
143
25.399999999999999
144
1.0
145
0.0
146
1.0
147
25.0
 71
     0
 72
     0
 73
     0
 74
     0
 75
     0
 76
     0
 77
     1
 78
     8
170
     0
171
     2
172
     1
173
     0
174
     1
175
     0
176
     7
177
     7
178
     7
  0
ENDTAB
  0
TABLE
  2
VIEW
 70
     1
  0
VIEW
  2
ALL
 70
     0
 40
4282.6198079999986
 10
0.0
 20
41.309904000000003
 41
5940.0
 11
0.0
 21
0.0
 31
1.0
 12
0.0
 22
0.0
 32
0.0
 42
50.0
 43
0.0
 44
0.0
 50
0.0
 71
     0
  0
ENDTAB
  0
TABLE
  2
UCS
 70
     0
  0
ENDTAB
  0
TABLE
  2
VPORT
 70
     1
  0
VPORT
  2
*ACTIVE
 70
     0
 10
0.0
 20
0.0
 11
1.0
 21
1.0
 12
428.94059660488261
 22
109.4284156679969
 13
0.0
 23
0.0
 14
1.0
 24
1.0
 15
0.0
 25
0.0
 16
0.0
 26
0.0
 36
1.0
 17
0.0
 27
0.0
 37
0.0
 40
715.50652538680845
 41
2.2504409171075839
 42
50.0
 43
0.0
 44
0.0
 50
0.0
 51
0.0
 71
     0
 72
  1000
 73
     1
 74
     3
 75
     0
 76
     0
 77
     0
 78
     0
  0
ENDTAB
  0
ENDSEC
  0
SECTION
  2
BLOCKS
  0
ENDSEC
  0
SECTION
  2
ENTITIES
  0
LINE
  8
BASIS
  6
DASHDOT
 62
     6
 10
0.0
 20
-109.2854010143142
 30
0.0
 11
0.0
 21
109.2854010143142
 31
0.0
  0
LINE
  8
BASIS
  6
DASHDOT
 62
     6
 10
95.967552833830439
 20
0.0
 30
0.0
 11
-95.967646960021909
 21
0.0000000000000142
 31
0.0
  0
CIRCLE
  8
FIX
  6
CONTINUOUS
 62
    11
 10
0.0
 20
69.965255095611042
 30
0.0
 40
7.0441691683918863
  0
LINE
  8
NOTE
  6
CONTINUOUS
 62
     4
 10
0.0
 20
43.943437373168962
 30
0.0
 11
0.0
 21
95.98707281805315
 31
0.0
  0
LINE
  8
NOTE
  6
CONTINUOUS
 62
     4
 10
26.021817722442069
 20
69.965255095611042
 30
0.0
 11
-26.02181772244208
 21
69.96525509561107
 31
0.0
  0
CIRCLE
  8
FIX
  6
CONTINUOUS
 62
    11
 10
0.0
 20
5.9999999952671601
 30
0.0
 40
7.0441691683918863
  0
LINE
  8
NOTE
  6
CONTINUOUS
 62
     4
 10
0.0
 20
-20.021817727174891
 30
0.0
 11
0.0
 21
32.021817717709268
 31
0.0
  0
LINE
  8
NOTE
  6
CONTINUOUS
 62
     4
 10
26.02181772244208
 20
5.9999999952671601
 30
0.0
 11
-26.02181772244208
 21
5.9999999952671894
 31
0.0
  0
CIRCLE
  8
FIX
  6
CONTINUOUS
 62
    11
 10
0.0
 20
-69.999999944784179
 30
0.0
 40
7.0441691683918863
  0
LINE
  8
NOTE
  6
CONTINUOUS
 62
     4
 10
0.0
 20
-96.021817667226273
 30
0.0
 11
0.0
 21
-43.978182222342127
 31
0.0
  0
LINE
  8
NOTE
  6
CONTINUOUS
 62
     4
 10
26.02181772244208
 20
-69.999999944784179
 30
0.0
 11
-26.02181772244208
 21
-69.999999944784179
 31
0.0
  0
CIRCLE
  8
FIX
  6
CONTINUOUS
 62
    11
 10
0.0
 20
53.532760575954683
 30
0.0
 40
7.0441691683918863
  0
LINE
  8
NOTE
  6
CONTINUOUS
 62
     4
 10
0.0
 20
27.510942853512599
 30
0.0
 11
0.0
 21
79.554578298396763
 31
0.0
  0
LINE
  8
NOTE
  6
CONTINUOUS
 62
     4
 10
-26.021817722442051
 20
53.532760575954683
 30
0.0
 11
26.021817722442108
 21
53.532760575954711
 31
0.0
  0
LINE
  8
SIZE
  6
CONTINUOUS
 62
    30
 10
-49.5
 20
98.912572347300014
 30
0.0
 11
-49.5
 21
328.42618669078172
 31
0.0
  0
LINE
  8
SIZE
  6
CONTINUOUS
 62
    30
 10
0.0
 20
129.2854010143142
 30
0.0
 11
0.0000000000000142
 21
328.42618669078172
 31
0.0
  0
LINE
  8
SIZE
  6
CONTINUOUS
 62
    30
 10
-61.5
 20
308.42618669078172
 30
0.0
 11
-73.5
 21
308.42618669078172
 31
0.0
  0
LINE
  8
SIZE
  6
CONTINUOUS
 62
    30
 10
12.000000000000011
 20
308.42618669078172
 30
0.0
 11
24.000000000000011
 21
308.42618669078172
 31
0.0
  0
LINE
  8
SIZE
  6
CONTINUOUS
 62
    30
 10
-49.5
 20
308.42618669078172
 30
0.0
 11
0.0000000000000142
 21
308.42618669078172
 31
0.0
  0
CIRCLE
  8
SIZE
  6
CONTINUOUS
 62
    30
 10
-49.5
 20
308.42618669078172
 30
0.0
 40
6.0
  0
LINE
  8
SIZE
  6
CONTINUOUS
 62
    30
 10
-49.5
 20
308.42618669078172
 30
0.0
 11
-61.5
 21
308.42618669078172
 31
0.0
  0
CIRCLE
  8
SIZE
  6
CONTINUOUS
 62
    30
 10
0.0000000000000142
 20
308.42618669078172
 30
0.0
 40
6.0
  0
LINE
  8
SIZE
  6
CONTINUOUS
 62
    30
 10
0.0000000000000142
 20
308.42618669078172
 30
0.0
 11
12.000000000000011
 21
308.42618669078172
 31
0.0
  0
TEXT
  8
SIZE
  6
CONTINUOUS
 62
    30
 10
-112.5214285714285
 20
333.42618669078172
 30
0.0
 40
64.0
  1
49.5
 41
0.9
 72
     1
 11
-24.749999999999972
 21
333.42618669078172
 31
0.0
  0
LINE
  8
SIZE
  6
CONTINUOUS
 62
    30
 10
-20.508782677475441
 20
80.0000471195834
 30
0.0
 11
-157.34873157624361
 21
80.000047119583428
 31
0.0
  0
LINE
  8
SIZE
  6
CONTINUOUS
 62
    30
 10
-20.508782677495049
 20
-79.999952993389257
 30
0.0
 11
-157.34873157624361
 21
-79.999952993389201
 31
0.0
  0
LINE
  8
SIZE
  6
CONTINUOUS
 62
    30
 10
-137.34873157624361
 20
92.000047119583414
 30
0.0
 11
-137.34873157624361
 21
104.0000471195834
 31
0.0
  0
LINE
  8
SIZE
  6
CONTINUOUS
 62
    30
 10
-137.34873157624361
 20
-91.999952993389201
 30
0.0
 11
-137.34873157624361
 21
-103.9999529933892
 31
0.0
  0
LINE
  8
SIZE
  6
CONTINUOUS
 62
    30
 10
-137.34873157624361
 20
80.000047119583428
 30
0.0
 11
-137.34873157624361
 21
-79.999952993389201
 31
0.0
  0
CIRCLE
  8
SIZE
  6
CONTINUOUS
 62
    30
 10
-137.34873157624361
 20
80.000047119583428
 30
0.0
 40
6.0
  0
LINE
  8
SIZE
  6
CONTINUOUS
 62
    30
 10
-137.34873157624361
 20
80.000047119583428
 30
0.0
 11
-137.34873157624361
 21
92.000047119583414
 31
0.0
  0
CIRCLE
  8
SIZE
  6
CONTINUOUS
 62
    30
 10
-137.34873157624361
 20
-79.999952993389201
 30
0.0
 40
6.0
  0
LINE
  8
SIZE
  6
CONTINUOUS
 62
    30
 10
-137.34873157624361
 20
-79.999952993389201
 30
0.0
 11
-137.34873157624361
 21
-91.999952993389201
 31
0.0
  0
TEXT
  8
SIZE
  6
CONTINUOUS
 62
    30
 10
-162.34873157624361
 20
-105.0513815083315
 30
0.0
 40
64.0
  1
□160
 50
90.0
 41
0.9
 72
     1
 11
-162.34873157624361
 21
0.0000470630970995
 31
0.0
  0
LINE
  8
SIZE
  6
CONTINUOUS
 62
    30
 10
46.021817722442073
 20
69.965255095611042
 30
0.0
 11
575.1592456340104
 21
69.9652550956109
 31
0.0
  0
LINE
  8
SIZE
  6
CONTINUOUS
 62
    30
 10
115.9675528338305
 20
0.0
 30
0.0
 11
575.1592456340104
 21
-0.0000000000001279
 31
0.0
  0
LINE
  8
SIZE
  6
CONTINUOUS
 62
    30
 10
555.1592456340104
 20
-12.00000000000013
 30
0.0
 11
555.1592456340104
 21
-24.000000000000131
 31
0.0
  0
LINE
  8
SIZE
  6
CONTINUOUS
 62
    30
 10
555.1592456340104
 20
81.965255095610857
 30
0.0
 11
555.1592456340104
 21
242.08631854346461
 31
0.0
  0
LINE
  8
SIZE
  6
CONTINUOUS
 62
    30
 10
555.1592456340104
 20
-0.0000000000001279
 30
0.0
 11
555.1592456340104
 21
69.9652550956109
 31
0.0
  0
CIRCLE
  8
SIZE
  6
CONTINUOUS
 62
    30
 10
555.1592456340104
 20
-0.0000000000001279
 30
0.0
 40
6.0
  0
LINE
  8
SIZE
  6
CONTINUOUS
 62
    30
 10
555.1592456340104
 20
-0.0000000000001279
 30
0.0
 11
555.1592456340104
 21
-12.00000000000013
 31
0.0
  0
CIRCLE
  8
SIZE
  6
CONTINUOUS
 62
    30
 10
555.1592456340104
 20
69.9652550956109
 30
0.0
 40
6.0
  0
LINE
  8
SIZE
  6
CONTINUOUS
 62
    30
 10
555.1592456340104
 20
69.9652550956109
 30
0.0
 11
555.1592456340104
 21
81.965255095610857
 31
0.0
  0
TEXT
  8
SIZE
  6
CONTINUOUS
 62
    30
 10
530.1592456340104
 20
123.8291756863217
 30
0.0
 40
64.0
  1
70
 50
90.0
 41
0.9
 72
     1
 11
530.1592456340104
 21
170.45774711489321
 31
0.0
  0
LINE
  8
SIZE
  6
CONTINUOUS
 62
    30
 10
115.9675528338305
 20
0.0
 30
0.0
 11
187.1591489740899
 21
-0.0000000000000284
 31
0.0
  0
LINE
  8
SIZE
  6
CONTINUOUS
 62
    30
 10
46.021817722442073
 20
5.9999999952671601
 30
0.0
 11
187.1591489740899
 21
5.9999999952671317
 31
0.0
  0
LINE
  8
SIZE
  6
CONTINUOUS
 62
    30
 10
167.1591489740899
 20
-12.000000000000011
 30
0.0
 11
167.1591489740899
 21
-24.000000000000011
 31
0.0
  0
LINE
  8
SIZE
  6
CONTINUOUS
 62
    30
 10
167.1591489740899
 20
17.99999999526716
 30
0.0
 11
167.15914897408999
 21
170.41916868416109
 31
0.0
  0
LINE
  8
SIZE
  6
CONTINUOUS
 62
    30
 10
167.1591489740899
 20
-0.0000000000000142
 30
0.0
 11
167.1591489740899
 21
5.9999999952671601
 31
0.0
  0
CIRCLE
  8
SIZE
  6
CONTINUOUS
 62
    30
 10
167.1591489740899
 20
-0.0000000000000142
 30
0.0
 40
6.0
  0
LINE
  8
SIZE
  6
CONTINUOUS
 62
    30
 10
167.1591489740899
 20
-0.0000000000000142
 30
0.0
 11
167.1591489740899
 21
-12.000000000000011
 31
0.0
  0
CIRCLE
  8
SIZE
  6
CONTINUOUS
 62
    30
 10
167.1591489740899
 20
5.9999999952671601
 30
0.0
 40
6.0
  0
LINE
  8
SIZE
  6
CONTINUOUS
 62
    30
 10
167.1591489740899
 20
5.9999999952671601
 30
0.0
 11
167.1591489740899
 21
17.99999999526716
 31
0.0
  0
TEXT
  8
SIZE
  6
CONTINUOUS
 62
    30
 10
142.1591489740899
 20
109.76202582701831
 30
0.0
 40
64.0
  1
6
 50
90.0
 41
0.9
 72
     1
 11
142.1591489740899
 21
127.5905972555897
 31
0.0
  0
LINE
  8
SIZE
  6
CONTINUOUS
 62
    30
 10
115.9675528338305
 20
0.0
 30
0.0
 11
575.1592456340104
 21
-0.0000000000001279
 31
0.0
  0
LINE
  8
SIZE
  6
CONTINUOUS
 62
    30
 10
46.021817722442073
 20
-69.999999944784207
 30
0.0
 11
575.1592456340104
 21
-69.999999944784349
 31
0.0
  0
LINE
  8
SIZE
  6
CONTINUOUS
 62
    30
 10
555.1592456340104
 20
11.99999999999989
 30
0.0
 11
555.1592456340104
 21
23.99999999999989
 31
0.0
  0
LINE
  8
SIZE
  6
CONTINUOUS
 62
    30
 10
555.1592456340104
 20
-81.999999944784349
 30
0.0
 11
555.15924563401029
 21
-260.66450131800468
 31
0.0
  0
LINE
  8
SIZE
  6
CONTINUOUS
 62
    30
 10
555.1592456340104
 20
-0.0000000000001279
 30
0.0
 11
555.1592456340104
 21
-69.999999944784349
 31
0.0
  0
CIRCLE
  8
SIZE
  6
CONTINUOUS
 62
    30
 10
555.1592456340104
 20
-0.0000000000001279
 30
0.0
 40
6.0
  0
LINE
  8
SIZE
  6
CONTINUOUS
 62
    30
 10
555.1592456340104
 20
-0.0000000000001279
 30
0.0
 11
555.1592456340104
 21
11.99999999999989
 31
0.0
  0
CIRCLE
  8
SIZE
  6
CONTINUOUS
 62
    30
 10
555.1592456340104
 20
-69.999999944784349
 30
0.0
 40
6.0
  0
LINE
  8
SIZE
  6
CONTINUOUS
 62
    30
 10
555.1592456340104
 20
-69.999999944784349
 30
0.0
 11
555.1592456340104
 21
-81.999999944784349
 31
0.0
  0
TEXT
  8
SIZE
  6
CONTINUOUS
 62
    30
 10
530.1592456340104
 20
-235.6645013180046
 30
0.0
 40
64.0
  1
70
 50
90.0
 41
0.9
 72
     1
 11
530.1592456340104
 21
-189.03592988943311
 31
0.0
  0
LINE
  8
SIZE
  6
CONTINUOUS
 62
    30
 10
19.491217322504919
 20
-79.999952993389229
 30
0.0
 11
240.42806508033209
 21
-79.9999529933893
 31
0.0
  0
LINE
  8
SIZE
  6
CONTINUOUS
 62
    30
 10
3.498168316207114
 20
-85.035574387582258
 30
0.0
 11
240.428065080332
 21
-85.035574387582372
 31
0.0
  0
LINE
  8
SIZE
  6
CONTINUOUS
 62
    30
 10
220.42806508033209
 20
-67.999952993389286
 30
0.0
 11
220.42806508033209
 21
-55.999952993389293
 31
0.0
  0
LINE
  8
SIZE
  6
CONTINUOUS
 62
    30
 10
220.42806508033209
 20
-97.035574387582358
 30
0.0
 11
220.428065080332
 21
-209.70543401773531
 31
0.0
  0
LINE
  8
SIZE
  6
CONTINUOUS
 62
    30
 10
220.42806508033209
 20
-79.999952993389286
 30
0.0
 11
220.42806508033209
 21
-85.035574387582372
 31
0.0
  0
CIRCLE
  8
SIZE
  6
CONTINUOUS
 62
    30
 10
220.42806508033209
 20
-79.999952993389286
 30
0.0
 40
6.0
  0
LINE
  8
SIZE
  6
CONTINUOUS
 62
    30
 10
220.42806508033209
 20
-79.999952993389286
 30
0.0
 11
220.42806508033209
 21
-67.999952993389286
 31
0.0
  0
CIRCLE
  8
SIZE
  6
CONTINUOUS
 62
    30
 10
220.42806508033209
 20
-85.035574387582372
 30
0.0
 40
6.0
  0
LINE
  8
SIZE
  6
CONTINUOUS
 62
    30
 10
220.42806508033209
 20
-85.035574387582372
 30
0.0
 11
220.42806508033209
 21
-97.035574387582358
 31
0.0
  0
TEXT
  8
SIZE
  6
CONTINUOUS
 62
    30
 10
195.42806508033209
 20
-184.70543401773531
 30
0.0
 40
64.0
  1
5
 50
90.0
 41
0.9
 72
     1
 11
195.42806508033209
 21
-165.5054340177353
 31
0.0
  0
LINE
  8
SIZE
  6
CONTINUOUS
 62
    30
 10
43.0
 20
-47.504089243498612
 30
0.0
 11
452.25014154010307
 21
-47.504089243498733
 31
0.0
  0
LINE
  8
SIZE
  6
CONTINUOUS
 62
    30
 10
43.794839383238383
 20
47.497701166120173
 30
0.0
 11
452.25014154010307
 21
47.497701166120073
 31
0.0
  0
LINE
  8
SIZE
  6
CONTINUOUS
 62
    30
 10
432.25014154010307
 20
-35.504089243498733
 30
0.0
 11
432.25014154010307
 21
35.497701166120073
 31
0.0
  0
LINE
  8
SIZE
  6
CONTINUOUS
 62
    30
 10
432.25014154010307
 20
47.497701166120073
 30
0.0
 11
432.25014154010307
 21
270.95049571111502
 31
0.0
  0
CIRCLE
  8
SIZE
  6
CONTINUOUS
 62
    30
 10
432.25014154010307
 20
-47.504089243498733
 30
0.0
 40
6.0
  0
LINE
  8
SIZE
  6
CONTINUOUS
 62
    30
 10
432.25014154010307
 20
-47.504089243498733
 30
0.0
 11
432.25014154010307
 21
-35.504089243498733
 31
0.0
  0
CIRCLE
  8
SIZE
  6
CONTINUOUS
 62
    30
 10
432.25014154010307
 20
47.497701166120073
 30
0.0
 40
6.0
  0
LINE
  8
SIZE
  6
CONTINUOUS
 62
    30
 10
432.25014154010307
 20
47.497701166120073
 30
0.0
 11
432.25014154010307
 21
35.497701166120073
 31
0.0
  0
TEXT
  8
SIZE
  6
CONTINUOUS
 62
    30
 10
396.58347487343627
 20
82.201924282543658
 30
0.0
 40
64.0
  1
φ95
 50
90.0
 41
0.9
 72
     1
 11
396.58347487343627
 21
169.1504957111151
 31
0.0
  0
LINE
  8
SIZE
  6
CONTINUOUS
 62
    30
 10
90.900000000000077
 20
-22.84972580959862
 30
0.0
 11
309.72787987941678
 21
-22.849725809598681
 31
0.0
  0
LINE
  8
SIZE
  6
CONTINUOUS
 62
    30
 10
88.716644610200106
 20
25.918790716201361
 30
0.0
 11
309.72787987941678
 21
25.9187907162013
 31
0.0
  0
LINE
  8
SIZE
  6
CONTINUOUS
 62
    30
 10
289.72787987941678
 20
-34.849725809598681
 30
0.0
 11
289.72787987941678
 21
-46.849725809598681
 31
0.0
  0
LINE
  8
SIZE
  6
CONTINUOUS
 62
    30
 10
289.72787987941678
 20
37.918790716201293
 30
0.0
 11
289.72787987941689
 21
264.35006830833743
 31
0.0
  0
LINE
  8
SIZE
  6
CONTINUOUS
 62
    30
 10
289.72787987941678
 20
-22.849725809598681
 30
0.0
 11
289.72787987941678
 21
25.9187907162013
 31
0.0
  0
CIRCLE
  8
SIZE
  6
CONTINUOUS
 62
    30
 10
289.72787987941678
 20
-22.849725809598681
 30
0.0
 40
6.0
  0
LINE
  8
SIZE
  6
CONTINUOUS
 62
    30
 10
289.72787987941678
 20
-22.849725809598681
 30
0.0
 11
289.72787987941678
 21
-34.849725809598681
 31
0.0
  0
CIRCLE
  8
SIZE
  6
CONTINUOUS
 62
    30
 10
289.72787987941678
 20
25.9187907162013
 30
0.0
 40
6.0
  0
LINE
  8
SIZE
  6
CONTINUOUS
 62
    30
 10
289.72787987941678
 20
25.9187907162013
 30
0.0
 11
289.72787987941678
 21
37.918790716201293
 31
0.0
  0
TEXT
  8
SIZE
  6
CONTINUOUS
 62
    30
 10
254.0612132127502
 20
78.344354022623151
 30
0.0
 40
64.0
  1
φ46
 50
90.0
 41
0.9
 72
     1
 11
254.0612132127502
 21
163.92149687976601
 31
0.0
  0
LINE
  8
SIZE
  6
CONTINUOUS
 62
    30
 10
0.0
 20
-129.2854010143142
 30
0.0
 11
0.0
 21
-275.67477456083429
 31
0.0
  0
LINE
  8
SIZE
  6
CONTINUOUS
 62
    30
 10
45.299999999999933
 20
-66.813808977898617
 30
0.0
 11
45.299999999999933
 21
-275.67477456083429
 31
0.0
  0
LINE
  8
SIZE
  6
CONTINUOUS
 62
    30
 10
57.299999999999933
 20
-255.67477456083429
 30
0.0
 11
69.299999999999969
 21
-255.67477456083429
 31
0.0
  0
LINE
  8
SIZE
  6
CONTINUOUS
 62
    30
 10
-12.000000000000011
 20
-255.67477456083429
 30
0.0
 11
-249.5428571428572
 21
-255.67477456083429
 31
0.0
  0
LINE
  8
SIZE
  6
CONTINUOUS
 62
    30
 10
45.299999999999933
 20
-255.67477456083429
 30
0.0
 11
0.0
 21
-255.67477456083429
 31
0.0
  0
CIRCLE
  8
SIZE
  6
CONTINUOUS
 62
    30
 10
45.299999999999933
 20
-255.67477456083429
 30
0.0
 40
6.0
  0
LINE
  8
SIZE
  6
CONTINUOUS
 62
    30
 10
45.299999999999933
 20
-255.67477456083429
 30
0.0
 11
57.299999999999933
 21
-255.67477456083429
 31
0.0
  0
CIRCLE
  8
SIZE
  6
CONTINUOUS
 62
    30
 10
0.0
 20
-255.67477456083429
 30
0.0
 40
6.0
  0
LINE
  8
SIZE
  6
CONTINUOUS
 62
    30
 10
0.0
 20
-255.67477456083429
 30
0.0
 11
-12.0
 21
-255.67477456083429
 31
0.0
  0
TEXT
  8
SIZE
  6
CONTINUOUS
 62
    30
 10
-224.54285714285709
 20
-230.67477456083429
 30
0.0
 40
64.0
  1
45.5
 41
0.9
 72
     1
 11
-136.7714285714286
 21
-230.67477456083429
 31
0.0
  0
LINE
  8
SIZE
  6
CONTINUOUS
 62
    30
 10
0.0
 20
-129.2854010143142
 30
0.0
 11
-0.0000000000000142
 21
-384.11544475201208
 31
0.0
  0
LINE
  8
SIZE
  6
CONTINUOUS
 62
    30
 10
73.5
 20
-40.249591358498577
 30
0.0
 11
73.499999999999972
 21
-384.11544475201208
 31
0.0
  0
LINE
  8
SIZE
  6
CONTINUOUS
 62
    30
 10
85.5
 20
-364.11544475201208
 30
0.0
 11
97.5
 21
-364.11544475201208
 31
0.0
  0
LINE
  8
SIZE
  6
CONTINUOUS
 62
    30
 10
-12.00000000000003
 20
-364.11544475201208
 30
0.0
 11
-249.5428571428572
 21
-364.11544475201208
 31
0.0
  0
LINE
  8
SIZE
  6
CONTINUOUS
 62
    30
 10
73.5
 20
-364.11544475201208
 30
0.0
 11
-0.0000000000000142
 21
-364.11544475201208
 31
0.0
  0
CIRCLE
  8
SIZE
  6
CONTINUOUS
 62
    30
 10
73.5
 20
-364.11544475201208
 30
0.0
 40
6.0
  0
LINE
  8
SIZE
  6
CONTINUOUS
 62
    30
 10
73.5
 20
-364.11544475201208
 30
0.0
 11
85.5
 21
-364.11544475201208
 31
0.0
  0
CIRCLE
  8
SIZE
  6
CONTINUOUS
 62
    30
 10
-0.0000000000000142
 20
-364.11544475201208
 30
0.0
 40
6.0
  0
LINE
  8
SIZE
  6
CONTINUOUS
 62
    30
 10
-0.0000000000000142
 20
-364.11544475201208
 30
0.0
 11
-12.000000000000011
 21
-364.11544475201208
 31
0.0
  0
TEXT
  8
SIZE
  6
CONTINUOUS
 62
    30
 10
-224.54285714285709
 20
-339.11544475201208
 30
0.0
 40
64.0
  1
73.5
 41
0.9
 72
     1
 11
-136.7714285714286
 21
-339.11544475201208
 31
0.0
  0
TEXT
  8
NOTE
  6
CONTINUOUS
 62
     4
 10
107.4357263259449
 20
441.41075589791092
 30
0.0
 40
64.0
  1
EL
 41
0.9
  0
TEXT
  8
NOTE
  6
CONTINUOUS
 62
     4
 10
145.53515059797019
 20
323.02024387141552
 30
0.0
 40
64.0
  1
2-φ4×10
 41
0.9
  0
TEXT
  8
NOTE
  6
CONTINUOUS
 62
     4
 10
206.13766860127629
 20
-418.27673380205482
 30
0.0
 40
64.0
  1
2-φ5×7
 41
0.9
  0
LINE
  8
NOTE
  6
CONTINUOUS
 62
     4
 10
3.1069402818736052
 20
58.91157284028138
 30
0.0
 11
0.0
 21
53.532760575954711
 31
0.0
  0
LINE
  8
NOTE
  6
CONTINUOUS
 62
     4
 10
0.0
 20
53.532760575954711
 30
0.0
 11
0.0012737193609524
 21
59.744418781912167
 31
0.0
  0
LINE
  8
NOTE
  6
CONTINUOUS
 62
     4
 10
0.0
 20
53.532760575954711
 30
0.0
 11
3.108214001234558
 21
65.123231046238857
 31
0.0
  0
LINE
  8
NOTE
  6
CONTINUOUS
 62
     4
 10
3.1082140012345429
 20
65.123231046238857
 30
0.0
 11
95.435726325944884
 21
409.41075589791092
 31
0.0
  0
LINE
  8
NOTE
  6
CONTINUOUS
 62
     4
 10
95.435726325944884
 20
409.41075589791092
 30
0.0
 11
192.46429775451631
 21
409.41075589791092
 31
0.0
  0
LINE
  8
NOTE
  6
CONTINUOUS
 62
     4
 10
4.0013790337067956
 20
10.75117512554931
 30
0.0
 11
0.0
 21
5.9999999952671601
 31
0.0
  0
LINE
  8
NOTE
  6
CONTINUOUS
 62
     4
 10
0.0
 20
5.9999999952671601
 30
0.0
 11
1.089699112763171
 21
12.11532951489596
 31
0.0
  0
LINE
  8
NOTE
  6
CONTINUOUS
 62
     4
 10
0.0
 20
5.9999999952671601
 30
0.0
 11
5.0910781464699681
 21
16.866504645178111
 31
0.0
  0
LINE
  8
NOTE
  6
CONTINUOUS
 62
     4
 10
5.0910781464699681
 20
16.866504645178111
 30
0.0
 11
133.53515059797019
 21
291.02024387141552
 31
0.0
  0
LINE
  8
NOTE
  6
CONTINUOUS
 62
     4
 10
133.53515059797019
 20
291.02024387141552
 30
0.0
 11
550.40332259653314
 21
291.02024387141552
 31
0.0
  0
LINE
  8
NOTE
  6
CONTINUOUS
 62
     4
 10
1.2991309837919121
 20
-76.074286567668537
 30
0.0
 11
0.0
 21
-69.999999944784179
 31
0.0
  0
LINE
  8
NOTE
  6
CONTINUOUS
 62
     4
 10
0.0
 20
-69.999999944784179
 30
0.0
 11
4.1622306946432843
 21
-74.610914705931819
 31
0.0
  0
LINE
  8
NOTE
  6
CONTINUOUS
 62
     4
 10
0.0
 20
-69.999999944784179
 30
0.0
 11
5.4613616784351962
 21
-80.685201328816191
 31
0.0
  0
LINE
  8
NOTE
  6
CONTINUOUS
 62
     4
 10
5.4549750235566279
 20
-80.685201328816191
 30
0.0
 11
194.13766860127629
 21
-450.27673380205482
 31
0.0
  0
LINE
  8
NOTE
  6
CONTINUOUS
 62
     4
 10
194.13766860127629
 20
-450.27673380205482
 30
0.0
 11
566.55996447387849
 21
-450.27673380205482
 31
0.0
  0
TEXT
  8
ETC
  6
CONTINUOUS
 62
    61
 10
539.46897267632403
 20
605.14428387270186
 30
0.0
 40
64.0
  1
V-08PXD8_4
 41
0.9
  0
TEXT
  8
ETC
  6
CONTINUOUS
 62
    61
 10
535.28297867632375
 20
487.18897385787062
 30
0.0
 40
64.0
  1
換気扇
 41
0.9
  0
TEXT
  8
ETC
  6
CONTINUOUS
 62
    61
 10
585.9843769248796
 20
379.04020097164528
 30
0.0
 40
40.0
  1
V-08PXD8
 41
0.9
  0
TEXT
  8
ETC
  6
CONTINUOUS
 62
    61
 10
585.9843769248796
 20
313.04020097164539
 30
0.0
 40
40.0
  1
V-08PXD8-BE
 41
0.9
  0
CIRCLE
  8
ARRANGE
  6
CONTINUOUS
 62
     1
 10
0.0
 20
0.0
 30
0.0
 40
40.0
  0
POINT
  8
ARRANGE
  6
CONTINUOUS
 62
     1
 10
0.0
 20
0.0
 30
0.0
  0
LINE
  8
DETAIL
  6
CONTINUOUS
 62
     5
 10
-43.5
 20
-59.449251433800001
 30
0.0
 11
-24.800000000000072
 21
-58.987638389123902
 31
0.0
  0
LINE
  8
DETAIL
  6
CONTINUOUS
 62
     5
 10
-49.5
 20
-78.912572347300042
 30
0.0
 11
-49.5
 21
78.912572347299999
 31
0.0
  0
LINE
  8
DETAIL
  6
CONTINUOUS
 62
     5
 10
-48.125451844899999
 20
79.919262437755947
 30
0.0
 11
-48.125451844899999
 21
-79.919262437747662
 31
0.0
  0
LINE
  8
DETAIL
  6
CONTINUOUS
 62
     5
 10
-43.5
 20
79.694717782099929
 30
0.0
 11
-43.5
 21
-79.694717782100028
 31
0.0
  0
LINE
  8
DETAIL
  6
CONTINUOUS
 62
     5
 10
-24.800000038948379
 20
58.987639171967373
 30
0.0
 11
-24.800000000000072
 21
-58.987638389123902
 31
0.0
  0
LINE
  8
DETAIL
  6
CONTINUOUS
 62
     5
 10
-25.705833817404251
 20
-1.508329533654603
 30
0.0
 11
-31.172898161500029
 21
-9.2111995061000016
 31
0.0
  0
LINE
  8
DETAIL
  6
CONTINUOUS
 62
     5
 10
-31.172898161500029
 20
-9.2111995061000016
 30
0.0
 11
-35.468446581299993
 21
-15.24556549250002
 31
0.0
  0
LINE
  8
DETAIL
  6
CONTINUOUS
 62
     5
 10
-35.468446581299993
 20
-15.24556549250002
 30
0.0
 11
-43.5
 21
-26.512909919700061
 31
0.0
  0
LINE
  8
DETAIL
  6
CONTINUOUS
 62
     5
 10
-43.5
 20
26.512908206599999
 30
0.0
 11
-35.620624088100037
 21
15.459165436699999
 31
0.0
  0
LINE
  8
DETAIL
  6
CONTINUOUS
 62
     5
 10
-35.620624088100037
 20
15.459165436699999
 30
0.0
 11
-25.705833817404251
 21
1.5168985158839521
 31
0.0
  0
LINE
  8
DETAIL
  6
CONTINUOUS
 62
     5
 10
-24.800000038948379
 20
58.987639171967373
 30
0.0
 11
-43.5
 21
59.449252215599927
 31
0.0
  0
LINE
  8
DETAIL
  6
CONTINUOUS
 62
     5
 10
-48.51745240650007
 20
79.912420042500003
 30
0.0
 11
-43.805235722000127
 21
79.994672090699964
 31
0.0
  0
ARC
  8
DETAIL
  6
CONTINUOUS
 62
     5
 10
-43.800000000000182
 20
-79.694717782100028
 30
0.0
 40
0.299999999999996
 50
269.00000000002427
 51
0.0
  0
ARC
  8
DETAIL
  6
CONTINUOUS
 62
     5
 10
-48.5
 20
78.912572347299999
 30
0.0
 40
1.000000000000012
 50
90.999999999995254
 51
180.00084192510079
  0
ARC
  8
DETAIL
  6
CONTINUOUS
 62
     5
 10
-43.800000000000182
 20
79.694705203599995
 30
0.0
 40
0.300000000000126
 50
0.0024023135023115
 51
90.999958079481615
  0
LINE
  8
DETAIL
  6
CONTINUOUS
 62
     5
 10
-43.5
 20
-70.52269158440005
 30
0.0
 11
-23.482547593599971
 21
-70.872097515799965
 31
0.0
  0
LINE
  8
DETAIL
  6
CONTINUOUS
 62
     5
 10
-43.5
 20
-59.477308415600021
 30
0.0
 11
-23.482547593599971
 21
-59.127902484099991
 31
0.0
  0
LINE
  8
DETAIL
  6
CONTINUOUS
 62
     5
 10
-24.679898987400069
 20
51.820101012699979
 30
0.0
 11
-24.0
 21
52.5
 31
0.0
  0
LINE
  8
DETAIL
  6
CONTINUOUS
 62
     5
 10
-23.481109800900072
 20
-59.13152046419998
 30
0.0
 11
-23.48254707070009
 21
-59.127902475700012
 31
0.0
  0
LINE
  8
DETAIL
  6
CONTINUOUS
 62
     5
 10
-25.5
 20
70.836882753099985
 30
0.0
 11
-25.5
 21
71.464623014899985
 31
0.0
  0
LINE
  8
DETAIL
  6
CONTINUOUS
 62
     5
 10
-23.700000000000049
 20
15.67591230019997
 30
0.0
 11
-23.700000000000049
 21
13.65979797469998
 31
0.0
  0
LINE
  8
DETAIL
  6
CONTINUOUS
 62
     5
 10
-22.5
 20
-78.624563776000002
 30
0.0
 11
-22.5
 21
12.018970296599949
 31
0.0
  0
LINE
  8
DETAIL
  6
CONTINUOUS
 62
     5
 10
-23.671572875300061
 20
10.671572875300001
 30
0.0
 11
-24.679898987400069
 21
11.679898987299961
 31
0.0
  0
LINE
  8
DETAIL
  6
CONTINUOUS
 62
     5
 10
-23.407106781200131
 20
12.952691193500019
 30
0.0
 11
-22.50102017170002
 21
12.046604583899979
 31
0.0
  0
LINE
  8
DETAIL
  6
CONTINUOUS
 62
     5
 10
-0.0000000000358114
 20
79.491196303545223
 30
0.0
 11
-0.0000000000358114
 21
-79.491196303454785
 31
0.0
  0
LINE
  8
DETAIL
  6
CONTINUOUS
 62
     5
 10
-43.5
 20
59.477308415599957
 30
0.0
 11
-24.982547593599971
 21
59.154085081499943
 31
0.0
  0
LINE
  8
DETAIL
  6
CONTINUOUS
 62
     5
 10
-43.5
 20
70.522691584399979
 30
0.0
 11
-24.982547593599971
 21
70.845914918499943
 31
0.0
  0
LINE
  8
DETAIL
  6
CONTINUOUS
 62
     5
 10
-0.508726203300057
 20
79.991120151099949
 30
0.0
 11
-23.01745240650007
 21
79.598228873799997
 31
0.0
  0
ARC
  8
DETAIL
  6
CONTINUOUS
 62
     5
 10
-28.5
 20
12.01906838319996
 30
0.0
 40
5.9999999999999716
 50
359.99906334149853
 51
33.94821824759795
  0
ARC
  8
DETAIL
  6
CONTINUOUS
 62
     5
 10
-26.5
 20
7.8431457504999571
 30
0.0
 40
4.0
 50
0.0
 51
44.999999999999787
  0
ARC
  8
DETAIL
  6
CONTINUOUS
 62
     5
 10
-25.0
 20
71.845762613599959
 30
0.0
 40
1.000000000000012
 50
270.99999999999523
 51
0.0
  0
ARC
  8
DETAIL
  6
CONTINUOUS
 62
     5
 10
-25.0
 20
58.154238307799972
 30
0.0
 40
0.9999995394000201
 50
359.99994720949991
 51
88.999999078699247
  0
ARC
  8
DETAIL
  6
CONTINUOUS
 62
     5
 10
-21.5
 20
-78.624563776000002
 30
0.0
 40
1.0
 50
180.0
 51
268.99999999980281
  0
ARC
  8
DETAIL
  6
CONTINUOUS
 62
     5
 10
-23.5
 20
-71.871944289600052
 30
0.0
 40
0.9999995394000201
 50
359.99994720949991
 51
88.999999078699247
  0
ARC
  8
DETAIL
  6
CONTINUOUS
 62
     5
 10
-23.5
 20
-58.128055710300032
 30
0.0
 40
0.999999539399994
 50
271.0000009213008
 51
0.0
  0
ARC
  8
DETAIL
  6
CONTINUOUS
 62
     5
 10
-0.5
 20
-79.491187152900068
 30
0.0
 40
0.500000000000002
 50
269.00001829830131
 51
359.9989514223987
  0
ARC
  8
DETAIL
  6
CONTINUOUS
 62
     5
 10
-22.700000000000049
 20
71.464663351599938
 30
0.0
 40
2.7999999999999998
 50
117.68822059929821
 51
180.00000116609939
  0
ARC
  8
DETAIL
  6
CONTINUOUS
 62
     5
 10
-22.700000000000049
 20
13.65979797469998
 30
0.0
 40
2.8000000000000158
 50
221.3998157978013
 51
224.9999999999998
  0
ARC
  8
DETAIL
  6
CONTINUOUS
 62
     5
 10
-22.700000000000049
 20
49.840202025400004
 30
0.0
 40
2.799999999999994
 50
135.0000000000002
 51
138.62150351649669
  0
ARC
  8
DETAIL
  6
CONTINUOUS
 62
     5
 10
-22.700000000000049
 20
13.65979797469998
 30
0.0
 40
1.0
 50
180.0
 51
224.9999999999998
  0
ARC
  8
DETAIL
  6
CONTINUOUS
 62
     5
 10
-22.99999372700006
 20
78.598381288099972
 30
0.0
 40
0.999999999999996
 50
91.000359473999964
 51
180.00000627360001
  0
ARC
  8
DETAIL
  6
CONTINUOUS
 62
     5
 10
-0.5
 20
79.491190320800001
 30
0.0
 40
0.4999999999999821
 50
0.0006855721022502
 51
90.999988035897061
  0
LINE
  8
DETAIL
  6
CONTINUOUS
 62
     5
 10
-48.51745240650007
 20
-79.912420042500003
 30
0.0
 11
-43.805235722000127
 21
-79.994672090600034
 31
0.0
  0
ARC
  8
DETAIL
  6
CONTINUOUS
 62
     5
 10
-48.5
 20
-78.912572347300042
 30
0.0
 40
0.9999999999999499
 50
179.999157667101
 51
269.00000000000477
  0
ARC
  8
DETAIL
  6
CONTINUOUS
 62
     5
 10
-21.200000000000049
 20
16.93333333329997
 30
0.0
 40
2.8000000000000118
 50
180.0
 51
213.9479265269982
  0
LINE
  8
DETAIL
  6
CONTINUOUS
 62
     5
 10
-23.99999372700006
 20
78.598381288099972
 30
0.0
 11
-23.99999372700006
 21
16.92740638123092
 31
0.0
  0
LINE
  8
DETAIL
  6
CONTINUOUS
 62
     5
 10
-16.5
 20
-84.800000000098635
 30
0.0
 11
-15.5
 21
-84.800000000098635
 31
0.0
  0
LINE
  8
DETAIL
  6
CONTINUOUS
 62
     5
 10
-15.0
 20
-80.246977722529422
 30
0.0
 11
-15.0
 21
-84.300000000098635
 31
0.0
  0
LINE
  8
DETAIL
  6
CONTINUOUS
 62
     5
 10
-17.0
 20
-80.194612527735657
 30
0.0
 11
-17.0
 21
-84.300000000098635
 31
0.0
  0
ARC
  8
DETAIL
  6
CONTINUOUS
 62
     5
 10
-15.5
 20
-84.300000000098635
 30
0.0
 40
0.5
 50
270.0
 51
0.0
  0
ARC
  8
DETAIL
  6
CONTINUOUS
 62
     5
 10
-16.5
 20
-84.300000000098635
 30
0.0
 40
0.5
 50
180.0
 51
270.0
  0
LINE
  8
DETAIL
  6
CONTINUOUS
 62
     5
 10
-21.517452406439361
 20
-79.624411471101098
 30
0.0
 11
-0.508726203300057
 21
-79.991120151099992
 31
0.0
  0
ARC
  8
DETAIL
  6
CONTINUOUS
 62
     5
 10
-14.5
 20
-80.246977722529493
 30
0.0
 40
0.49999999999999
 50
88.999999999822336
 51
180.0
  0
ARC
  8
DETAIL
  6
CONTINUOUS
 62
     5
 10
-17.5
 20
-80.194612527735657
 30
0.0
 40
0.5
 50
0.0
 51
88.999999999822336
  0
LINE
  8
DETAIL
  6
CONTINUOUS
 62
     5
 10
-15.0
 20
-84.300000000098635
 30
0.0
 11
-14.80000000000007
 21
-84.300000000098635
 31
0.0
  0
LINE
  8
DETAIL
  6
CONTINUOUS
 62
     5
 10
-15.0
 20
-83.300000000098635
 30
0.0
 11
-14.80000000000007
 21
-83.300000000098635
 31
0.0
  0
LINE
  8
DETAIL
  6
CONTINUOUS
 62
     5
 10
-14.400000000000089
 20
-83.700000000098612
 30
0.0
 11
-14.400000000000089
 21
-83.900000000098657
 31
0.0
  0
ARC
  8
DETAIL
  6
CONTINUOUS
 62
     5
 10
-14.80000000000007
 20
-83.900000000098657
 30
0.0
 40
0.399999999999998
 50
270.0
 51
0.0
  0
ARC
  8
DETAIL
  6
CONTINUOUS
 62
     5
 10
-14.80000000000007
 20
-83.700000000098612
 30
0.0
 40
0.399999999999998
 50
0.0
 51
90.0
  0
LINE
  8
DETAIL
  6
CONTINUOUS
 62
     5
 10
45.299999999999841
 20
16.080827398178201
 30
0.0
 11
45.299999999999947
 21
27.030528674901401
 31
0.0
  0
ARC
  8
DETAIL
  6
CONTINUOUS
 62
     5
 10
44.799999999999947
 20
27.030528674901401
 30
0.0
 40
0.5
 50
0.0
 51
89.822729662691657
  0
LINE
  8
DETAIL
  6
CONTINUOUS
 62
     5
 10
43.299999999999947
 20
26.32494371160141
 30
0.0
 11
45.299999999999947
 21
26.298087255701379
 31
0.0
  0
LINE
  8
DETAIL
  6
CONTINUOUS
 62
     5
 10
44.801546973100017
 20
27.530526281801372
 30
0.0
 11
43.299999999999947
 21
27.535171485201431
 31
0.0
  0
LINE
  8
DETAIL
  6
CONTINUOUS
 62
     5
 10
43.298550658199929
 20
-23.88295108699862
 30
0.0
 11
45.299999999999947
 21
-23.922122681832949
 31
0.0
  0
LINE
  8
DETAIL
  6
CONTINUOUS
 62
     5
 10
27.977001823599949
 20
13.224379156401429
 30
0.0
 11
40.939459056000032
 21
14.034719871401361
 31
0.0
  0
LINE
  8
DETAIL
  6
CONTINUOUS
 62
     5
 10
43.299999999999947
 20
14.181638016601431
 30
0.0
 11
43.299999999999947
 21
-44.448224262120561
 31
0.0
  0
LINE
  8
DETAIL
  6
CONTINUOUS
 62
     5
 10
40.939459056000032
 20
14.034719871401361
 30
0.0
 11
43.435318966400018
 21
14.19006015880143
 31
0.0
  0
LINE
  8
DETAIL
  6
CONTINUOUS
 62
     5
 10
43.434036271800103
 20
25.9365575074014
 30
0.0
 11
23.453834890700019
 21
27.176497592915609
 31
0.0
  0
LINE
  8
DETAIL
  6
CONTINUOUS
 62
     5
 10
23.453834890700019
 20
-47.403580741558173
 30
0.0
 11
23.453834890700019
 21
8.777199402001429
 31
0.0
  0
LINE
  8
DETAIL
  6
CONTINUOUS
 62
     5
 10
36.299999999999947
 20
-44.444040103498651
 30
0.0
 11
36.299999999999947
 21
-34.369370345998611
 31
0.0
  0
LINE
  8
DETAIL
  6
CONTINUOUS
 62
     5
 10
36.299999999999947
 20
-44.444040103498651
 30
0.0
 11
36.299999999999947
 21
-34.369370441998633
 31
0.0
  0
ARC
  8
DETAIL
  6
CONTINUOUS
 62
     5
 10
33.800065575100007
 20
-34.369341473798613
 30
0.0
 40
2.4999302735000719
 50
359.99933828050189
 51
84.784091428595673
  0
ARC
  8
DETAIL
  6
CONTINUOUS
 62
     5
 10
34.299999999999947
 20
-28.89217324109865
 30
0.0
 40
3.0
 50
179.99999877459919
 51
264.78409143040091
  0
ARC
  8
DETAIL
  6
CONTINUOUS
 62
     5
 10
28.299999999999951
 20
-27.703446689898609
 30
0.0
 40
3.000000000000083
 50
0.4112649626002526
 51
88.999999995301081
  0
ARC
  8
DETAIL
  6
CONTINUOUS
 62
     5
 10
27.700000000000049
 20
-17.691450370498611
 30
0.0
 40
7.0000000000000426
 50
232.6546554344981
 51
268.9999999930991
  0
LINE
  8
DETAIL
  6
CONTINUOUS
 62
     5
 10
31.299999999999951
 20
-28.892173176898609
 30
0.0
 11
31.299999999999951
 21
-27.681899533098601
 31
0.0
  0
LINE
  8
DETAIL
  6
CONTINUOUS
 62
     5
 10
28.35235721959998
 20
-24.703903604498581
 30
0.0
 11
27.577833154100059
 21
-24.690384236598621
 31
0.0
  0
LINE
  8
DETAIL
  6
CONTINUOUS
 62
     5
 10
35.742845258899933
 20
-44.443580010098572
 30
0.0
 11
23.453834890700019
 21
-44.426851213205232
 31
0.0
  0
LINE
  8
DETAIL
  6
CONTINUOUS
 62
     5
 10
44.804363266699973
 20
-47.313805447998561
 30
0.0
 11
-0.0000000000358114
 21
-47.502200076655328
 31
0.0
  0
ARC
  8
DETAIL
  6
CONTINUOUS
 62
     5
 10
44.799999999999947
 20
-46.813824486498611
 30
0.0
 40
0.499999999999998
 50
270.49999987920847
 51
359.99998642679878
  0
LINE
  8
DETAIL
  6
CONTINUOUS
 62
     5
 10
45.299999999999947
 20
-44.4483632296986
 30
0.0
 11
35.742845258899933
 21
-44.443580010098572
 31
0.0
  0
LINE
  8
DETAIL
  6
CONTINUOUS
 62
     5
 10
23.453834890700019
 20
27.176497592915609
 30
0.0
 11
23.453834890700019
 21
47.2089946856224
 31
0.0
  0
LINE
  8
DETAIL
  6
CONTINUOUS
 62
     5
 10
36.299999999999947
 20
26.849293680401392
 30
0.0
 11
36.299999999999947
 21
44.539153282601383
 31
0.0
  0
LINE
  8
DETAIL
  6
CONTINUOUS
 62
     5
 10
36.275733257900008
 20
26.491636336801381
 30
0.0
 11
36.256191351500092
 21
26.38301443450138
 31
0.0
  0
LINE
  8
DETAIL
  6
CONTINUOUS
 62
     5
 10
36.296918049200031
 20
26.721488769301459
 30
0.0
 11
36.275733257900008
 21
26.491636336801381
 31
0.0
  0
LINE
  8
DETAIL
  6
CONTINUOUS
 62
     5
 10
36.300009055099963
 20
26.849143367801389
 30
0.0
 11
36.296918049200031
 21
26.721488769301459
 31
0.0
  0
LINE
  8
DETAIL
  6
CONTINUOUS
 62
     5
 10
36.299999999999947
 20
27.556826768101359
 30
0.0
 11
23.453834890700019
 21
27.59656781642013
 31
0.0
  0
LINE
  8
DETAIL
  6
CONTINUOUS
 62
     5
 10
23.453834890700019
 20
39.695785213832323
 30
0.0
 11
32.8757389461
 21
40.038650619901382
 31
0.0
  0
LINE
  8
DETAIL
  6
CONTINUOUS
 62
     5
 10
43.299999999999947
 20
44.50409380440135
 30
0.0
 11
36.299999999999947
 21
44.539153282601383
 31
0.0
  0
LINE
  8
DETAIL
  6
CONTINUOUS
 62
     5
 10
43.299999999999947
 20
46.654245781101388
 30
0.0
 11
43.299999999999947
 21
25.944875589043701
 31
0.0
  0
ARC
  8
DETAIL
  6
CONTINUOUS
 62
     5
 10
42.799999999999947
 20
46.654245781501459
 30
0.0
 40
0.5
 50
0.0
 51
89.022248915785013
  0
LINE
  8
DETAIL
  6
CONTINUOUS
 62
     5
 10
23.5
 20
42.15511531320135
 30
0.0
 11
36.299999999999947
 21
42.046720382201393
 31
0.0
  0
LINE
  8
DETAIL
  6
CONTINUOUS
 62
     5
 10
36.299999999999947
 20
44.272564170101361
 30
0.0
 11
23.5
 21
44.380959101101382
 31
0.0
  0
LINE
  8
DETAIL
  6
CONTINUOUS
 62
     5
 10
23.5
 20
44.380959101101382
 30
0.0
 11
23.5
 21
42.15511531320135
 31
0.0
  0
ARC
  8
DETAIL
  6
CONTINUOUS
 62
     5
 10
35.484949529200087
 20
49.193704396701378
 30
0.0
 40
0.4999989370999721
 50
65.022447142204598
 51
89.44280787780761
  0
LINE
  8
DETAIL
  6
CONTINUOUS
 62
     5
 10
40.976874964999979
 20
47.185008651601379
 30
0.0
 11
35.696156664200089
 21
49.646904718901403
 31
0.0
  0
LINE
  8
DETAIL
  6
CONTINUOUS
 62
     5
 10
35.489761730500049
 20
49.693680183601373
 30
0.0
 11
-0.0000000000358114
 21
49.811924665693446
 31
0.0
  0
LINE
  8
DETAIL
  6
CONTINUOUS
 62
     5
 10
42.808532073700007
 20
47.154172979901382
 30
0.0
 11
-0.0000000000358114
 21
47.275427098501382
 31
0.0
  0
LINE
  8
DETAIL
  6
CONTINUOUS
 62
     5
 10
32.8757389461
 20
40.038650619901382
 30
0.0
 11
36.299999999999947
 21
40.160062237001398
 31
0.0
  0
ARC
  8
DETAIL
  6
CONTINUOUS
 62
     5
 10
45.350000000000023
 20
16.619853974501321
 30
0.0
 40
0.699999999999988
 50
270.0
 51
0.000072658702421
  0
ARC
  8
DETAIL
  6
CONTINUOUS
 62
     5
 10
45.350000000000023
 20
13.900776112101431
 30
0.0
 40
0.70000000000004
 50
359.99992734129762
 51
90.0
  0
ARC
  8
DETAIL
  6
CONTINUOUS
 62
     5
 10
45.350000000000023
 20
13.800776112101399
 30
0.0
 40
0.699999999999988
 50
270.0
 51
0.000072658702421
  0
ARC
  8
DETAIL
  6
CONTINUOUS
 62
     5
 10
45.350000000000023
 20
16.719853974501351
 30
0.0
 40
0.70000000000004
 50
359.99992734129762
 51
90.0
  0
LINE
  8
DETAIL
  6
CONTINUOUS
 62
     5
 10
46.049999999999947
 20
16.719845330201391
 30
0.0
 11
46.049999999999947
 21
16.619862618801331
 31
0.0
  0
LINE
  8
DETAIL
  6
CONTINUOUS
 62
     5
 10
46.049999999999947
 20
13.900767467801421
 30
0.0
 11
46.049999999999947
 21
13.800784756401359
 31
0.0
  0
ARC
  8
DETAIL
  6
CONTINUOUS
 62
     5
 10
45.350000000000023
 20
-31.82621923969862
 30
0.0
 40
0.699999999999988
 50
270.0
 51
0.000072658702421
  0
LINE
  8
DETAIL
  6
CONTINUOUS
 62
     5
 10
45.299999999999947
 20
-46.813808977898582
 30
0.0
 11
45.299999999999947
 21
-32.357656458098631
 31
0.0
  0
ARC
  8
DETAIL
  6
CONTINUOUS
 62
     5
 10
45.350000000000023
 20
-31.72621923969859
 30
0.0
 40
0.70000000000004
 50
359.99992734129762
 51
90.0
  0
LINE
  8
DETAIL
  6
CONTINUOUS
 62
     5
 10
46.049999999999947
 20
-31.7262278839986
 30
0.0
 11
46.049999999999947
 21
-31.82621059539861
 31
0.0
  0
LINE
  8
DETAIL
  6
CONTINUOUS
 62
     5
 10
45.299999999999947
 20
-31.026219239698609
 30
0.0
 11
45.350000000000023
 21
-31.026219239698609
 31
0.0
  0
LINE
  8
DETAIL
  6
CONTINUOUS
 62
     5
 10
45.299999999999947
 20
17.41985397450134
 30
0.0
 11
45.350000000000023
 21
17.41985397450134
 31
0.0
  0
LINE
  8
DETAIL
  6
CONTINUOUS
 62
     5
 10
47.5
 20
-31.799999999999951
 30
0.0
 11
47.5
 21
23.015598793201381
 31
0.0
  0
LINE
  8
DETAIL
  6
CONTINUOUS
 62
     5
 10
46.100000000000023
 20
-31.299725809598609
 30
0.0
 11
46.100000000000023
 21
24.000274190401399
 31
0.0
  0
LINE
  8
DETAIL
  6
CONTINUOUS
 62
     5
 10
46.900000000000091
 20
-31.299725809598609
 30
0.0
 11
46.900000000000198
 21
23.410455667401379
 31
0.0
  0
ARC
  8
DETAIL
  6
CONTINUOUS
 62
     5
 10
55.5
 20
25.918790716201329
 30
0.0
 40
0.5999999999999941
 50
90.0
 51
180.0
  0
LINE
  8
DETAIL
  6
CONTINUOUS
 62
     5
 10
56.600000000000023
 20
22.81817569080135
 30
0.0
 11
56.600000000000023
 21
26.51860883290135
 31
0.0
  0
LINE
  8
DETAIL
  6
CONTINUOUS
 62
     5
 10
54.900000000000091
 20
22.071679321101389
 30
0.0
 11
54.900000000000091
 21
25.914175367801359
 31
0.0
  0
LINE
  8
DETAIL
  6
CONTINUOUS
 62
     5
 10
56.600000000000023
 20
26.518790716201352
 30
0.0
 11
55.5
 21
26.518790716201352
 31
0.0
  0
LINE
  8
DETAIL
  6
CONTINUOUS
 62
     5
 10
70.899999999999977
 20
25.918790716201329
 30
0.0
 11
56.600000000000023
 21
25.918790716201329
 31
0.0
  0
LINE
  8
DETAIL
  6
CONTINUOUS
 62
     5
 10
45.299999999999947
 20
24.000274190401399
 30
0.0
 11
46.100000000000023
 21
24.000274190401399
 31
0.0
  0
LINE
  8
DETAIL
  6
CONTINUOUS
 62
     5
 10
46.100000000000023
 20
23.410455667401379
 30
0.0
 11
46.900000000000091
 21
23.410455667401379
 31
0.0
  0
LINE
  8
DETAIL
  6
CONTINUOUS
 62
     5
 10
47.5
 20
23.015598793201381
 30
0.0
 11
46.900000000000091
 21
23.015598793201381
 31
0.0
  0
LINE
  8
DETAIL
  6
CONTINUOUS
 62
     5
 10
54.900000000000091
 20
22.071679321101389
 30
0.0
 11
47.5
 21
22.071679321101389
 31
0.0
  0
LINE
  8
DETAIL
  6
CONTINUOUS
 62
     5
 10
45.299999999999947
 20
-32.357656458098631
 30
0.0
 11
45.299999999999947
 21
13.100776112101361
 31
0.0
  0
LINE
  8
DETAIL
  6
CONTINUOUS
 62
     5
 10
45.299999999999947
 20
16.080437493701421
 30
0.0
 11
45.299999999999947
 21
13.100776112101361
 31
0.0
  0
LINE
  8
DETAIL
  6
CONTINUOUS
 62
     5
 10
73.5
 20
-20.249591358498609
 30
0.0
 11
73.5
 21
23.318790716201331
 31
0.0
  0
LINE
  8
DETAIL
  6
CONTINUOUS
 62
     5
 10
70.900000000000091
 20
-22.84972580959862
 30
0.0
 11
48.0
 21
-22.84972580959862
 31
0.0
  0
ARC
  8
DETAIL
  6
CONTINUOUS
 62
     5
 10
70.900000000000091
 20
-20.249725809598601
 30
0.0
 40
2.599999999999993
 50
270.0
 51
0.0
  0
LINE
  8
DETAIL
  6
CONTINUOUS
 62
     5
 10
45.299999999999947
 20
-16.02949234329861
 30
0.0
 11
46.100000000000023
 21
-16.02949234329861
 31
0.0
  0
LINE
  8
DETAIL
  6
CONTINUOUS
 62
     5
 10
45.299999999999947
 20
-7.4536802060986247
 30
0.0
 11
46.100000000000023
 21
-7.4536802060986247
 31
0.0
  0
ARC
  8
DETAIL
  6
CONTINUOUS
 62
     5
 10
48.0
 20
-23.34972580959862
 30
0.0
 40
0.5
 50
90.0
 51
170.99999999999801
  0
LINE
  8
DETAIL
  6
CONTINUOUS
 62
     5
 10
43.299999999999947
 20
-22.299725809598609
 30
0.0
 11
44.799999999999947
 21
-22.299725809598609
 31
0.0
  0
ARC
  8
DETAIL
  6
CONTINUOUS
 62
     5
 10
44.799999999999947
 20
-22.799725809598609
 30
0.0
 40
0.50000000000006
 50
0.0000614607984691
 51
90.0
  0
LINE
  8
DETAIL
  6
CONTINUOUS
 62
     5
 10
47.5
 20
-31.299725809598609
 30
0.0
 11
45.905070584774187
 21
-31.299725809598609
 31
0.0
  0
LINE
  8
DETAIL
  6
CONTINUOUS
 62
     5
 10
47.5
 20
17.40027419040138
 30
0.0
 11
45.514402949470544
 21
17.40027419040138
 31
0.0
  0
LINE
  8
DETAIL
  6
CONTINUOUS
 62
     5
 10
43.800000000000068
 20
27.533624679312769
 30
0.0
 11
43.800000000000068
 21
38.406607609099851
 31
0.0
  0
ARC
  8
DETAIL
  6
CONTINUOUS
 62
     5
 10
42.800000000000068
 20
38.406607609099851
 30
0.0
 40
1.0
 50
0.0
 51
60.00000000000751
  0
ARC
  8
DETAIL
  6
CONTINUOUS
 62
     5
 10
41.800000000000068
 20
39.937651700994252
 30
0.0
 40
8.0
 50
0.0
 51
66.301046816810398
  0
LINE
  8
DETAIL
  6
CONTINUOUS
 62
     5
 10
49.800000000000068
 20
27.393798587506129
 30
0.0
 11
49.800000000000068
 21
39.937651700994252
 31
0.0
  0
LINE
  8
DETAIL
  6
CONTINUOUS
 62
     5
 10
37.01544837653671
 20
50.774591348699687
 30
0.0
 11
45.01544837653671
 21
47.263011196461093
 31
0.0
  0
LINE
  8
DETAIL
  6
CONTINUOUS
 62
     5
 10
51.689090590102303
 20
25.504707997404012
 30
0.0
 11
54.900000000000091
 21
25.504707997404012
 31
0.0
  0
ARC
  8
DETAIL
  6
CONTINUOUS
 62
     5
 10
51.689090590102303
 20
27.393798587506129
 30
0.0
 40
1.8890905901022279
 50
180.0
 51
270.73597523775823
  0
LINE
  8
DETAIL
  6
CONTINUOUS
 62
     5
 10
33.869812283987358
 20
51.448927237746027
 30
0.0
 11
-0.0000000000358114
 21
51.53810525362772
 31
0.0
  0
ARC
  8
DETAIL
  6
CONTINUOUS
 62
     5
 10
33.800000000000068
 20
43.449231853232732
 30
0.0
 40
7.9999999999999716
 50
66.301046816810398
 51
89.499999999995424
  0
LINE
  8
DETAIL
  6
CONTINUOUS
 62
     5
 10
47.5
 20
-23.799999999999951
 30
0.0
 11
48.430127018900073
 21
-23.799999999999951
 31
0.0
  0
LINE
  8
DETAIL
  6
CONTINUOUS
 62
     5
 10
50.512877669200073
 20
-27.049999999999951
 30
0.0
 11
50.141374125000077
 21
-27.049999999999951
 31
0.0
  0
LINE
  8
DETAIL
  6
CONTINUOUS
 62
     5
 10
50.512877669200073
 20
-28.549999999999951
 30
0.0
 11
50.141374125000077
 21
-28.549999999999951
 31
0.0
  0
LINE
  8
DETAIL
  6
CONTINUOUS
 62
     5
 10
47.5
 20
-31.799999999999951
 30
0.0
 11
48.430127018900073
 21
-31.799999999999951
 31
0.0
  0
LINE
  8
DETAIL
  6
CONTINUOUS
 62
     5
 10
50.141374125000077
 20
-30.07800322240001
 30
0.0
 11
50.179454343299987
 21
-30.099988846700061
 31
0.0
  0
LINE
  8
DETAIL
  6
CONTINUOUS
 62
     5
 10
49.729165124600058
 20
-24.549999999999951
 30
0.0
 11
50.175223208000027
 21
-25.48879620699995
 31
0.0
  0
LINE
  8
DETAIL
  6
CONTINUOUS
 62
     5
 10
50.141374125000077
 20
-28.549999999999951
 30
0.0
 11
50.170033141500078
 21
-28.173818393500031
 31
0.0
  0
LINE
  8
DETAIL
  6
CONTINUOUS
 62
     5
 10
50.170033141500078
 20
-28.173818393500031
 30
0.0
 11
50.179473661400152
 21
-27.799999999999951
 31
0.0
  0
LINE
  8
DETAIL
  6
CONTINUOUS
 62
     5
 10
50.179473661400152
 20
-27.799999999999951
 30
0.0
 11
50.169926120500122
 21
-27.424070523000069
 31
0.0
  0
LINE
  8
DETAIL
  6
CONTINUOUS
 62
     5
 10
50.169926120500122
 20
-27.424070523000069
 30
0.0
 11
50.141374125000077
 21
-27.049999999999951
 31
0.0
  0
LINE
  8
DETAIL
  6
CONTINUOUS
 62
     5
 10
49.729165124600058
 20
-31.049999999999951
 30
0.0
 11
50.175223208000027
 21
-30.1112037931
 31
0.0
  0
ARC
  8
DETAIL
  6
CONTINUOUS
 62
     5
 10
48.430127018900073
 20
-30.299999999999951
 30
0.0
 40
1.5
 50
270.0
 51
329.99999999999687
  0
ARC
  8
DETAIL
  6
CONTINUOUS
 62
     5
 10
48.430127018900073
 20
-25.299999999999951
 30
0.0
 40
1.49999999999994
 50
30.000000000003059
 51
90.0
  0
ARC
  8
DETAIL
  6
CONTINUOUS
 62
     5
 10
44.100000000000144
 20
-27.799999999999951
 30
0.0
 40
6.4565857850999757
 50
6.6705633470010808
 51
20.659807331099799
  0
ARC
  8
DETAIL
  6
CONTINUOUS
 62
     5
 10
44.100000000000144
 20
-27.799999999999951
 30
0.0
 40
6.4565857850999038
 50
339.34019266889572
 51
353.32943665299888
  0
LINE
  8
DETAIL
  6
CONTINUOUS
 62
     5
 10
50.179454343299987
 20
-25.500011153299969
 30
0.0
 11
50.141374125000077
 21
-25.521996777599949
 31
0.0
  0
LINE
  8
DETAIL
  6
CONTINUOUS
 62
     5
 10
47.5
 20
17.899999999999981
 30
0.0
 11
48.430127018900073
 21
17.899999999999981
 31
0.0
  0
LINE
  8
DETAIL
  6
CONTINUOUS
 62
     5
 10
50.512877669200073
 20
14.649999999999981
 30
0.0
 11
50.141374125000077
 21
14.649999999999981
 31
0.0
  0
LINE
  8
DETAIL
  6
CONTINUOUS
 62
     5
 10
50.512877669200073
 20
13.149999999999981
 30
0.0
 11
50.141374125000077
 21
13.149999999999981
 31
0.0
  0
LINE
  8
DETAIL
  6
CONTINUOUS
 62
     5
 10
50.141374125000077
 20
11.62199677759997
 30
0.0
 11
50.179454343299987
 21
11.60001115329999
 31
0.0
  0
LINE
  8
DETAIL
  6
CONTINUOUS
 62
     5
 10
49.729165124600058
 20
17.14999999999992
 30
0.0
 11
50.175223208000027
 21
16.211203792999981
 31
0.0
  0
LINE
  8
DETAIL
  6
CONTINUOUS
 62
     5
 10
50.170033141500078
 20
13.526181606500071
 30
0.0
 11
50.179473661400152
 21
13.899999999999981
 31
0.0
  0
LINE
  8
DETAIL
  6
CONTINUOUS
 62
     5
 10
50.179473661400152
 20
13.899999999999981
 30
0.0
 11
50.169926120500122
 21
14.275929477000091
 31
0.0
  0
LINE
  8
DETAIL
  6
CONTINUOUS
 62
     5
 10
50.169926120500122
 20
14.275929477000091
 30
0.0
 11
50.141374125000077
 21
14.649999999999981
 31
0.0
  0
LINE
  8
DETAIL
  6
CONTINUOUS
 62
     5
 10
50.141374125000077
 20
13.149999999999981
 30
0.0
 11
50.170033141500078
 21
13.526181606500071
 31
0.0
  0
LINE
  8
DETAIL
  6
CONTINUOUS
 62
     5
 10
49.729165124600058
 20
10.649999999999981
 30
0.0
 11
50.175223208000027
 21
11.588796206900041
 31
0.0
  0
ARC
  8
DETAIL
  6
CONTINUOUS
 62
     5
 10
48.430127018900073
 20
11.399999999999981
 30
0.0
 40
1.499999999999972
 50
270.0
 51
329.99999999999687
  0
ARC
  8
DETAIL
  6
CONTINUOUS
 62
     5
 10
48.430127018900073
 20
16.39999999999992
 30
0.0
 40
1.4999999999999261
 50
30.000000000003059
 51
90.0
  0
ARC
  8
DETAIL
  6
CONTINUOUS
 62
     5
 10
44.100000000000144
 20
13.899999999999981
 30
0.0
 40
6.4565857850999899
 50
6.6705633470010808
 51
20.659807331104229
  0
ARC
  8
DETAIL
  6
CONTINUOUS
 62
     5
 10
44.100000000000144
 20
13.899999999999981
 30
0.0
 40
6.4565857850998531
 50
339.34019266890022
 51
353.32943665299888
  0
LINE
  8
DETAIL
  6
CONTINUOUS
 62
     5
 10
50.179454343299987
 20
16.19998884670008
 30
0.0
 11
50.141374125000077
 21
16.17800322239998
 31
0.0
  0
LINE
  8
DETAIL
  6
CONTINUOUS
 62
     5
 10
47.5
 20
9.8999999999999773
 30
0.0
 11
48.430127018900073
 21
9.8999999999999773
 31
0.0
  0
ARC
  8
DETAIL
  6
CONTINUOUS
 62
     5
 10
-28.95037746441449
 20
0.0042844911146744
 30
0.0
 40
3.5798134958797312
 50
335.00495405138031
 51
24.995045948619691
  0
LINE
  8
DETAIL
  6
CONTINUOUS
 62
     5
 10
56.600000000000023
 20
22.81817569080135
 30
0.0
 11
54.900000000000091
 21
22.071679321101389
 31
0.0
  0
ARC
  8
DETAIL
  6
CONTINUOUS
 62
     5
 10
43.298832274297638
 20
23.939023065714078
 30
0.0
 40
2.00210488403276
 50
1.7531442223633471
 51
86.127815985957241
  0
ARC
  8
DETAIL
  6
CONTINUOUS
 62
     5
 10
42.867015558146022
 20
16.615383882675811
 30
0.0
 40
2.491016645753505
 50
283.18765828303992
 51
347.60830818908772
  0
ARC
  8
DETAIL
  6
CONTINUOUS
 62
     5
 10
28.383720040627399
 20
8.2868953940339907
 30
0.0
 40
4.9542068600033078
 50
94.709026832429657
 51
174.32029931410869
  0
LINE
  8
OUTLINE
  6
CONTINUOUS
 62
     3
 10
-49.5
 20
-78.912572347300042
 30
0.0
 11
-49.5
 21
78.912572347299999
 31
0.0
  0
LINE
  8
OUTLINE
  6
CONTINUOUS
 62
     3
 10
-43.5
 20
79.694717782099929
 30
0.0
 11
-43.5
 21
-79.694717782100028
 31
0.0
  0
LINE
  8
OUTLINE
  6
CONTINUOUS
 62
     3
 10
-48.51745240650007
 20
79.912420042500003
 30
0.0
 11
-43.805235722000127
 21
79.994672090699964
 31
0.0
  0
ARC
  8
OUTLINE
  6
CONTINUOUS
 62
     3
 10
-43.800000000000182
 20
-79.694717782100028
 30
0.0
 40
0.299999999999996
 50
269.00000000002427
 51
0.0
  0
ARC
  8
OUTLINE
  6
CONTINUOUS
 62
     3
 10
-48.5
 20
78.912572347299999
 30
0.0
 40
1.000000000000012
 50
90.999999999995254
 51
180.00084192510079
  0
ARC
  8
OUTLINE
  6
CONTINUOUS
 62
     3
 10
-43.800000000000182
 20
79.694705203599995
 30
0.0
 40
0.300000000000126
 50
0.0024023135023115
 51
90.999958079481615
  0
LINE
  8
OUTLINE
  6
CONTINUOUS
 62
     3
 10
-43.5
 20
-70.52269158440005
 30
0.0
 11
-23.482547593599971
 21
-70.872097515799965
 31
0.0
  0
LINE
  8
OUTLINE
  6
CONTINUOUS
 62
     3
 10
-25.5
 20
70.836882753099985
 30
0.0
 11
-25.5
 21
71.464623014899985
 31
0.0
  0
LINE
  8
OUTLINE
  6
CONTINUOUS
 62
     3
 10
-22.5
 20
-78.624563776000002
 30
0.0
 11
-22.5000004606004
 21
-71.871945210967667
 31
0.0
  0
LINE
  8
OUTLINE
  6
CONTINUOUS
 62
     3
 10
-0.0000000000358114
 20
79.491196303545223
 30
0.0
 11
-0.0000000000358114
 21
-79.491196303454785
 31
0.0
  0
LINE
  8
OUTLINE
  6
CONTINUOUS
 62
     3
 10
-43.5
 20
70.522691584399979
 30
0.0
 11
-24.982547593599971
 21
70.845914918499943
 31
0.0
  0
LINE
  8
OUTLINE
  6
CONTINUOUS
 62
     3
 10
-0.508726203300057
 20
79.991120151099949
 30
0.0
 11
-23.01745240650007
 21
79.598228873799997
 31
0.0
  0
ARC
  8
OUTLINE
  6
CONTINUOUS
 62
     3
 10
-25.0
 20
71.845762613599959
 30
0.0
 40
1.000000000000012
 50
270.99999999999523
 51
0.0
  0
ARC
  8
OUTLINE
  6
CONTINUOUS
 62
     3
 10
-21.5
 20
-78.624563776000002
 30
0.0
 40
1.0
 50
180.0
 51
268.99999999980281
  0
ARC
  8
OUTLINE
  6
CONTINUOUS
 62
     3
 10
-23.5
 20
-71.871944289600052
 30
0.0
 40
0.9999995394000201
 50
359.99994720949991
 51
88.999999078699247
  0
ARC
  8
OUTLINE
  6
CONTINUOUS
 62
     3
 10
-0.5
 20
-79.491187152900068
 30
0.0
 40
0.500000000000002
 50
269.00001829830131
 51
359.9989514223987
  0
ARC
  8
OUTLINE
  6
CONTINUOUS
 62
     3
 10
-22.700000000000049
 20
71.464663351599938
 30
0.0
 40
2.7999999999999998
 50
117.68822059929821
 51
180.00000116609939
  0
ARC
  8
OUTLINE
  6
CONTINUOUS
 62
     3
 10
-22.99999372700006
 20
78.598381288099972
 30
0.0
 40
0.999999999999996
 50
91.000359473999964
 51
180.00000627360001
  0
ARC
  8
OUTLINE
  6
CONTINUOUS
 62
     3
 10
-0.5
 20
79.491190320800001
 30
0.0
 40
0.4999999999999821
 50
0.0006855721022502
 51
90.999988035897061
  0
LINE
  8
OUTLINE
  6
CONTINUOUS
 62
     3
 10
-48.51745240650007
 20
-79.912420042500003
 30
0.0
 11
-43.805235722000127
 21
-79.994672090600034
 31
0.0
  0
ARC
  8
OUTLINE
  6
CONTINUOUS
 62
     3
 10
-48.5
 20
-78.912572347300042
 30
0.0
 40
0.9999999999999499
 50
179.999157667101
 51
269.00000000000477
  0
LINE
  8
OUTLINE
  6
CONTINUOUS
 62
     3
 10
-23.99999372700006
 20
78.598381288099972
 30
0.0
 11
-24.0
 21
71.845762613599959
 31
0.0
  0
LINE
  8
OUTLINE
  6
CONTINUOUS
 62
     3
 10
-21.517452406439361
 20
-79.624411471101098
 30
0.0
 11
-0.508726203300057
 21
-79.991120151099992
 31
0.0
  0
LINE
  8
OUTLINE
  6
CONTINUOUS
 62
     3
 10
44.804363266699973
 20
-47.313805447998561
 30
0.0
 11
-0.0000000000358114
 21
-47.502200076655328
 31
0.0
  0
ARC
  8
OUTLINE
  6
CONTINUOUS
 62
     3
 10
44.799999999999947
 20
-46.813824486498611
 30
0.0
 40
0.499999999999998
 50
270.49999987920847
 51
359.99998642679878
  0
ARC
  8
OUTLINE
  6
CONTINUOUS
 62
     3
 10
45.350000000000144
 20
-31.82621923969862
 30
0.0
 40
0.699999999999988
 50
270.0
 51
0.000072658702421
  0
LINE
  8
OUTLINE
  6
CONTINUOUS
 62
     3
 10
45.299999999999947
 20
-46.813808977898582
 30
0.0
 11
45.299999999999947
 21
-32.357656458098631
 31
0.0
  0
ARC
  8
OUTLINE
  6
CONTINUOUS
 62
     3
 10
45.350000000000144
 20
-31.72621923969859
 30
0.0
 40
0.70000000000004
 50
359.99992734129762
 51
90.0
  0
LINE
  8
OUTLINE
  6
CONTINUOUS
 62
     3
 10
46.049999999999947
 20
-31.7262278839986
 30
0.0
 11
46.049999999999947
 21
-31.82621059539861
 31
0.0
  0
LINE
  8
OUTLINE
  6
CONTINUOUS
 62
     3
 10
45.299999999999947
 20
-31.026219239698609
 30
0.0
 11
45.350000000000144
 21
-31.026219239698609
 31
0.0
  0
LINE
  8
OUTLINE
  6
CONTINUOUS
 62
     3
 10
47.5
 20
-31.799999999999951
 30
0.0
 11
47.506155829702493
 21
-23.27150857707846
 31
0.0
  0
ARC
  8
OUTLINE
  6
CONTINUOUS
 62
     3
 10
55.5
 20
25.918790716201329
 30
0.0
 40
0.5999999999999941
 50
90.0
 51
180.0
  0
LINE
  8
OUTLINE
  6
CONTINUOUS
 62
     3
 10
56.600000000000144
 20
25.918790716201329
 30
0.0
 11
56.600000000000144
 21
26.51860883290135
 31
0.0
  0
LINE
  8
OUTLINE
  6
CONTINUOUS
 62
     3
 10
54.900000000000091
 20
25.504707997404012
 30
0.0
 11
54.900000000000091
 21
25.914175367801359
 31
0.0
  0
LINE
  8
OUTLINE
  6
CONTINUOUS
 62
     3
 10
56.600000000000144
 20
26.518790716201352
 30
0.0
 11
55.5
 21
26.518790716201352
 31
0.0
  0
LINE
  8
OUTLINE
  6
CONTINUOUS
 62
     3
 10
70.899999999999977
 20
25.918790716201329
 30
0.0
 11
56.600000000000144
 21
25.918790716201329
 31
0.0
  0
LINE
  8
OUTLINE
  6
CONTINUOUS
 62
     3
 10
73.5
 20
-20.249591358498609
 30
0.0
 11
73.5
 21
23.318790716201331
 31
0.0
  0
LINE
  8
OUTLINE
  6
CONTINUOUS
 62
     3
 10
70.900000000000091
 20
-22.84972580959862
 30
0.0
 11
48.0
 21
-22.84972580959862
 31
0.0
  0
ARC
  8
OUTLINE
  6
CONTINUOUS
 62
     3
 10
70.900000000000091
 20
-20.249725809598601
 30
0.0
 40
2.599999999999993
 50
270.0
 51
0.0
  0
ARC
  8
OUTLINE
  6
CONTINUOUS
 62
     3
 10
48.0
 20
-23.34972580959862
 30
0.0
 40
0.5
 50
90.0
 51
170.99999999999801
  0
LINE
  8
OUTLINE
  6
CONTINUOUS
 62
     3
 10
47.5
 20
-31.299725809598609
 30
0.0
 11
45.905070584774187
 21
-31.299725809598609
 31
0.0
  0
ARC
  8
OUTLINE
  6
CONTINUOUS
 62
     3
 10
41.799999999999947
 20
39.937651700994252
 30
0.0
 40
8.0
 50
0.0
 51
66.301046816810398
  0
LINE
  8
OUTLINE
  6
CONTINUOUS
 62
     3
 10
49.799999999999947
 20
27.393798587506129
 30
0.0
 11
49.799999999999947
 21
39.937651700994252
 31
0.0
  0
LINE
  8
OUTLINE
  6
CONTINUOUS
 62
     3
 10
37.015448376536597
 20
50.774591348699687
 30
0.0
 11
45.015448376536597
 21
47.263011196461093
 31
0.0
  0
LINE
  8
OUTLINE
  6
CONTINUOUS
 62
     3
 10
51.689090590102303
 20
25.504707997404012
 30
0.0
 11
54.900000000000091
 21
25.504707997404012
 31
0.0
  0
ARC
  8
OUTLINE
  6
CONTINUOUS
 62
     3
 10
51.689090590102303
 20
27.393798587506129
 30
0.0
 40
1.8890905901022279
 50
180.0
 51
270.73597523775823
  0
LINE
  8
OUTLINE
  6
CONTINUOUS
 62
     3
 10
33.869812283987358
 20
51.448927237746027
 30
0.0
 11
-0.0000000000358114
 21
51.53810525362772
 31
0.0
  0
ARC
  8
OUTLINE
  6
CONTINUOUS
 62
     3
 10
33.799999999999947
 20
43.449231853232732
 30
0.0
 40
7.9999999999999716
 50
66.301046816810398
 51
89.499999999995424
  0
LINE
  8
OUTLINE
  6
CONTINUOUS
 62
     3
 10
-16.5
 20
-84.800000000098635
 30
0.0
 11
-15.5
 21
-84.800000000098635
 31
0.0
  0
LINE
  8
OUTLINE
  6
CONTINUOUS
 62
     3
 10
-15.0
 20
-80.246977722529422
 30
0.0
 11
-15.0
 21
-83.300000000098635
 31
0.0
  0
LINE
  8
OUTLINE
  6
CONTINUOUS
 62
     3
 10
-17.0
 20
-80.194612527735657
 30
0.0
 11
-17.0
 21
-84.300000000098635
 31
0.0
  0
ARC
  8
OUTLINE
  6
CONTINUOUS
 62
     3
 10
-15.5
 20
-84.300000000098635
 30
0.0
 40
0.5
 50
270.0
 51
0.0
  0
ARC
  8
OUTLINE
  6
CONTINUOUS
 62
     3
 10
-16.5
 20
-84.300000000098635
 30
0.0
 40
0.5
 50
179.9999999999967
 51
270.0
  0
ARC
  8
OUTLINE
  6
CONTINUOUS
 62
     3
 10
-14.5
 20
-80.246977722529493
 30
0.0
 40
0.49999999999999
 50
88.999999999822336
 51
179.9999999999967
  0
ARC
  8
OUTLINE
  6
CONTINUOUS
 62
     3
 10
-17.5
 20
-80.194612527735657
 30
0.0
 40
0.5
 50
0.0
 51
88.999999999822336
  0
LINE
  8
OUTLINE
  6
CONTINUOUS
 62
     3
 10
-15.0
 20
-84.300000000098635
 30
0.0
 11
-14.80000000000007
 21
-84.300000000098635
 31
0.0
  0
LINE
  8
OUTLINE
  6
CONTINUOUS
 62
     3
 10
-15.0
 20
-83.300000000098635
 30
0.0
 11
-14.80000000000007
 21
-83.300000000098635
 31
0.0
  0
LINE
  8
OUTLINE
  6
CONTINUOUS
 62
     3
 10
-14.400000000000089
 20
-83.700000000098612
 30
0.0
 11
-14.400000000000089
 21
-83.900000000098657
 31
0.0
  0
ARC
  8
OUTLINE
  6
CONTINUOUS
 62
     3
 10
-14.80000000000007
 20
-83.900000000098657
 30
0.0
 40
0.399999999999998
 50
270.0
 51
0.0
  0
ARC
  8
OUTLINE
  6
CONTINUOUS
 62
     3
 10
-14.80000000000007
 20
-83.700000000098612
 30
0.0
 40
0.399999999999998
 50
0.0
 51
90.0
  0
ARC
  8
DETAIL
  6
CONTINUOUS
 62
     5
 10
70.899999999999977
 20
23.318790716201331
 30
0.0
 40
2.599999999999993
 50
0.0
 51
90.0
  0
ARC
  8
OUTLINE
  6
CONTINUOUS
 62
     3
 10
70.899999999999977
 20
23.318790716201331
 30
0.0
 40
2.599999999999993
 50
0.0
 51
90.0
  0
ENDSEC
  0
EOF
