  0
SECTION
  2
HEADER
  9
$ACADVER
  1
AC1009
  9
$DWGCODEPAGE
  3
dos932
  9
$INSBASE
 10
0.0
 20
0.0
 30
0.0
  9
$EXTMIN
 10
-244.26725594590971
 20
-511.09312801982009
 30
-0.0030708734582987
  9
$EXTMAX
 10
1262.1231197520649
 20
526.47400697049852
 30
50.318565402014201
  9
$LIMMIN
 10
-2970.0
 20
-2100.0
  9
$LIMMAX
 10
2970.0
 20
2100.0
  9
$ORTHOMODE
 70
     1
  9
$REGENMODE
 70
     1
  9
$FILLMODE
 70
     1
  9
$QTEXTMODE
 70
     0
  9
$MIRRTEXT
 70
     0
  9
$LTSCALE
 40
20.0
  9
$ATTMODE
 70
     1
  9
$TEXTSIZE
 40
64.0
  9
$TRACEWID
 40
0.05
  9
$TEXTSTYLE
  7
STANDARD
  9
$CLAYER
  8
SIZE
  9
$CELTYPE
  6
CONTINUOUS
  9
$CECOLOR
 62
     7
  9
$DIMSCALE
 40
1.0
  9
$DIMASZ
 40
12.0
  9
$DIMEXO
 40
20.0
  9
$DIMDLI
 40
200.0
  9
$DIMRND
 40
0.0
  9
$DIMDLE
 40
0.0
  9
$DIMEXE
 40
20.0
  9
$DIMTP
 40
0.0
  9
$DIMTM
 40
0.0
  9
$DIMTXT
 40
64.0
  9
$DIMCEN
 40
0.09
  9
$DIMTSZ
 40
0.0
  9
$DIMTOL
 70
     0
  9
$DIMLIM
 70
     0
  9
$DIMTIH
 70
     0
  9
$DIMTOH
 70
     0
  9
$DIMSE1
 70
     0
  9
$DIMSE2
 70
     0
  9
$DIMTAD
 70
     1
  9
$DIMZIN
 70
     8
  9
$DIMBLK
  1

  9
$DIMASO
 70
     1
  9
$DIMSHO
 70
     0
  9
$DIMPOST
  1

  9
$DIMAPOST
  1

  9
$DIMALT
 70
     0
  9
$DIMALTD
 70
     2
  9
$DIMALTF
 40
25.399999999999999
  9
$DIMLFAC
 40
1.0
  9
$DIMTOFL
 70
     1
  9
$DIMTVP
 40
0.0
  9
$DIMTIX
 70
     1
  9
$DIMSOXD
 70
     0
  9
$DIMSAH
 70
     0
  9
$DIMBLK1
  1

  9
$DIMBLK2
  1

  9
$DIMSTYLE
  2
STANDARD
  9
$DIMCLRD
 70
     7
  9
$DIMCLRE
 70
     7
  9
$DIMCLRT
 70
     7
  9
$DIMTFAC
 40
1.0
  9
$DIMGAP
 40
25.0
  9
$LUNITS
 70
     2
  9
$LUPREC
 70
     4
  9
$SKETCHINC
 40
0.1
  9
$FILLETRAD
 40
3.0
  9
$AUNITS
 70
     1
  9
$AUPREC
 70
     3
  9
$MENU
  1
ACAD
  9
$ELEVATION
 40
0.0
  9
$PELEVATION
 40
0.0
  9
$THICKNESS
 40
0.0
  9
$LIMCHECK
 70
     0
  9
$CHAMFERA
 40
0.0
  9
$CHAMFERB
 40
0.0
  9
$SKPOLY
 70
     0
  9
$TDCREATE
 40
2453019.62301037
  9
$TDUPDATE
 40
2459356.660371794
  9
$TDINDWG
 40
1.8052127431
  9
$TDUSRTIMER
 40
1.8052127431
  9
$USRTIMER
 70
     1
  9
$ANGBASE
 50
0.0
  9
$ANGDIR
 70
     0
  9
$PDMODE
 70
     3
  9
$PDSIZE
 40
-2.0
  9
$PLINEWID
 40
0.0
  9
$SPLFRAME
 70
     0
  9
$SPLINETYPE
 70
     6
  9
$SPLINESEGS
 70
     8
  9
$SURFTAB1
 70
     6
  9
$SURFTAB2
 70
     6
  9
$SURFTYPE
 70
     6
  9
$SURFU
 70
     6
  9
$SURFV
 70
     6
  9
$UCSNAME
  2

  9
$UCSORG
 10
0.0
 20
0.0
 30
0.0
  9
$UCSXDIR
 10
1.0
 20
0.0
 30
0.0
  9
$UCSYDIR
 10
0.0
 20
1.0
 30
0.0
  9
$PUCSNAME
  2

  9
$PUCSORG
 10
0.0
 20
0.0
 30
0.0
  9
$PUCSXDIR
 10
1.0
 20
0.0
 30
0.0
  9
$PUCSYDIR
 10
0.0
 20
1.0
 30
0.0
  9
$USERI1
 70
     0
  9
$USERI2
 70
     0
  9
$USERI3
 70
     0
  9
$USERI4
 70
     0
  9
$USERI5
 70
     0
  9
$USERR1
 40
20.0
  9
$USERR2
 40
0.0
  9
$USERR3
 40
0.0
  9
$USERR4
 40
0.0
  9
$USERR5
 40
0.0
  9
$WORLDVIEW
 70
     1
  9
$SHADEDGE
 70
     3
  9
$SHADEDIF
 70
    70
  9
$TILEMODE
 70
     1
  9
$MAXACTVP
 70
    48
  9
$PINSBASE
 10
0.0
 20
0.0
 30
0.0
  9
$PLIMCHECK
 70
     0
  9
$PEXTMIN
 10
-100000000000000000000.0
 20
-100000000000000000000.0
 30
-100000000000000000000.0
  9
$PEXTMAX
 10
100000000000000000000.0
 20
100000000000000000000.0
 30
100000000000000000000.0
  9
$PLIMMIN
 10
0.0
 20
0.0
  9
$PLIMMAX
 10
12.0
 20
9.0
  9
$UNITMODE
 70
     0
  9
$VISRETAIN
 70
     0
  9
$PLINEGEN
 70
     0
  9
$PSLTSCALE
 70
     0
  9
$TREEDEPTH
 70
  3020
  9
$ATTDIA
 70
     0
  9
$ATTREQ
 70
     1
  9
$BLIPMODE
 70
     1
  9
$COORDS
 70
     1
  9
$DRAGMODE
 70
     2
  9
$OSMODE
 70
     0
  9
$HANDLING
 70
     0
  9
$HANDSEED
  5
F606
  0
ENDSEC
  0
SECTION
  2
TABLES
  0
TABLE
  2
LTYPE
 70
     2
  0
LTYPE
  2
CONTINUOUS
 70
     0
  3
実線
 72
    65
 73
     0
 40
0.0
  0
LTYPE
  2
DASHDOT
 70
     0
  3
____ _ ____ _ ____ _ ____ _ ____ _ ____ _ ____
 72
    65
 73
     4
 40
5.5
 49
4.0
 49
-0.6
 49
0.3
 49
-0.6
  0
ENDTAB
  0
TABLE
  2
LAYER
 70
    12
  0
LAYER
  2
0
 70
     0
 62
     7
  6
CONTINUOUS
  0
LAYER
  2
BASIS
 70
     0
 62
     6
  6
DASHDOT
  0
LAYER
  2
OUTLINE
 70
     0
 62
     3
  6
CONTINUOUS
  0
LAYER
  2
DETAIL
 70
     0
 62
     5
  6
CONTINUOUS
  0
LAYER
  2
SIZE
 70
     0
 62
    30
  6
CONTINUOUS
  0
LAYER
  2
ARRANGE
 70
     0
 62
     1
  6
CONTINUOUS
  0
LAYER
  2
ETC
 70
     0
 62
    61
  6
CONTINUOUS
  0
LAYER
  2
FIX
 70
     0
 62
    11
  6
CONTINUOUS
  0
LAYER
  2
NOTE
 70
     0
 62
     4
  6
CONTINUOUS
  0
LAYER
  2
DEFPOINTS
 70
    64
 62
     7
  6
CONTINUOUS
  0
LAYER
  2
SERVICESPACE
 70
    64
 62
     2
  6
DASHDOT
  0
LAYER
  2
SYMBOLLINE
 70
    64
 62
    15
  6
CONTINUOUS
  0
ENDTAB
  0
TABLE
  2
STYLE
 70
     1
  0
STYLE
  2
STANDARD
 70
     0
 40
64.0
 41
0.9
 50
0.0
 71
     0
 42
64.0
  3
SIMPLEX.shx
  4
BIGFONT.shx
  0
ENDTAB
  0
TABLE
  2
APPID
 70
    19
  0
APPID
  2
ACAD
 70
     0
  0
APPID
  2
AUTOCAD_POSTSCRIPT_FIGURE
 70
     0
  0
APPID
  2
ACAD_EXEMPT_FROM_CAD_STANDARDS
 70
     0
  0
APPID
  2
ACAD_PSEXT
 70
     0
  0
APPID
  2
ACAUTHENVIRON
 70
     0
  0
APPID
  2
GENIUS_GENOENT_13
 70
     0
  0
APPID
  2
GENIUS_GENCFG_13
 70
     0
  0
APPID
  2
GENIUS_GENCFG0_13
 70
     0
  0
APPID
  2
GENIUS_GENCFG1_13
 70
     0
  0
APPID
  2
GENIUS_GENCFG2_13
 70
     0
  0
APPID
  2
GENIUS_GENCFG3_13
 70
     0
  0
APPID
  2
GENIUS_GENCFG4_13
 70
     0
  0
APPID
  2
GENIUS_GEVCFG0_13
 70
     0
  0
APPID
  2
CONTENTBLOCKICON
 70
     0
  0
APPID
  2
CONTENTBLOCKDESCRIPTION
 70
     0
  0
APPID
  2
ACAD_NAV_VCDISPLAY
 70
     0
  0
APPID
  2
ACAD_MLEADERVER
 70
     0
  0
APPID
  2
ACDBDYNAMICBLOCKTRUENAME
 70
     0
  0
APPID
  2
ACDBDYNAMICBLOCKGUID
 70
     0
  0
ENDTAB
  0
TABLE
  2
DIMSTYLE
 70
     1
  0
DIMSTYLE
  2
STANDARD
 70
     0
  3

  4

  5
_ORIGIN
  6

  7

 40
1.0
 41
12.0
 42
20.0
 43
200.0
 44
20.0
 45
0.0
 46
0.0
 47
0.0
 48
0.0
140
64.0
141
0.09
142
0.0
143
25.399999999999999
144
1.0
145
0.0
146
1.0
147
25.0
 71
     0
 72
     0
 73
     0
 74
     0
 75
     0
 76
     0
 77
     1
 78
     8
170
     0
171
     2
172
     1
173
     0
174
     1
175
     0
176
     7
177
     7
178
     7
  0
ENDTAB
  0
TABLE
  2
VIEW
 70
     1
  0
VIEW
  2
ALL
 70
     0
 40
4282.6198079999986
 10
0.0
 20
41.309904000000003
 41
5940.0
 11
0.0
 21
0.0
 31
1.0
 12
0.0
 22
0.0
 32
0.0
 42
50.0
 43
0.0
 44
0.0
 50
0.0
 71
     0
  0
ENDTAB
  0
TABLE
  2
UCS
 70
     0
  0
ENDTAB
  0
TABLE
  2
VPORT
 70
     1
  0
VPORT
  2
*ACTIVE
 70
     0
 10
0.0
 20
0.0
 11
1.0
 21
1.0
 12
508.92793190307759
 22
7.6904394753391898
 13
0.0
 23
0.0
 14
1.0
 24
1.0
 15
0.0
 25
0.0
 16
0.0
 26
0.0
 36
1.0
 17
0.0
 27
0.0
 37
0.0
 40
844.95483132914035
 41
1.980636237897649
 42
50.0
 43
0.0
 44
0.0
 50
0.0
 51
0.0
 71
     0
 72
  1000
 73
     1
 74
     3
 75
     0
 76
     0
 77
     0
 78
     0
  0
ENDTAB
  0
ENDSEC
  0
SECTION
  2
BLOCKS
  0
BLOCK
  8
0
  2
_ORIGIN
 70
     0
 10
0.0
 20
0.0
 30
0.0
  3
_ORIGIN
  1
_ORIGIN
  0
CIRCLE
  8
SIZE
  6
CONTINUOUS
 62
    30
 10
0.0
 20
0.0
 30
0.0
 40
0.5
  0
LINE
  8
SIZE
  6
CONTINUOUS
 62
    30
 10
0.0
 20
0.0
 30
0.0
 11
-1.0
 21
0.0
 31
0.0
  0
ENDBLK
  8
0
  0
ENDSEC
  0
SECTION
  2
ENTITIES
  0
CIRCLE
  8
ARRANGE
  6
CONTINUOUS
 62
     1
 10
0.0
 20
0.0
 30
0.0
 40
40.0
  0
POINT
  8
ARRANGE
  6
CONTINUOUS
 62
     1
 10
0.0
 20
0.0
 30
0.0
 39
50.0
  0
LINE
  8
BASIS
  6
DASHDOT
 62
     6
 39
50.0
 10
0.0
 20
-109.2854010143142
 30
0.0
 11
0.0
 21
128.0459278491858
 31
0.0
  0
LINE
  8
BASIS
  6
DASHDOT
 62
     6
 39
50.0
 10
144.5615624067409
 20
0.0
 30
0.0
 11
-95.967646960021909
 21
0.0000000000000284
 31
0.0
  0
CIRCLE
  8
FIX
  6
CONTINUOUS
 62
    11
 39
50.315494059942047
 10
0.0
 20
69.965255095611042
 30
0.0
 40
7.0441691683918863
  0
LINE
  8
NOTE
  6
CONTINUOUS
 62
     4
 10
0.0
 20
43.943437373168962
 30
0.0
 11
0.0
 21
95.98707281805315
 31
0.0
  0
LINE
  8
NOTE
  6
CONTINUOUS
 62
     4
 10
26.021817722442051
 20
69.965255095611042
 30
0.0
 11
-26.021817722442051
 21
69.96525509561107
 31
0.0
  0
CIRCLE
  8
FIX
  6
CONTINUOUS
 62
    11
 39
50.315494059942047
 10
0.0
 20
5.9999999952671894
 30
0.0
 40
7.0441691683918863
  0
LINE
  8
NOTE
  6
CONTINUOUS
 62
     4
 10
0.0
 20
-20.021817727174891
 30
0.0
 11
0.0
 21
32.021817717709268
 31
0.0
  0
LINE
  8
NOTE
  6
CONTINUOUS
 62
     4
 10
26.02181772244208
 20
5.9999999952671894
 30
0.0
 11
-26.021817722442051
 21
5.9999999952671894
 31
0.0
  0
CIRCLE
  8
FIX
  6
CONTINUOUS
 62
    11
 39
50.315494059942047
 10
0.0
 20
-69.999999944784179
 30
0.0
 40
7.0441691683918863
  0
LINE
  8
NOTE
  6
CONTINUOUS
 62
     4
 10
0.0
 20
-96.021817667226273
 30
0.0
 11
0.0
 21
-43.978182222342127
 31
0.0
  0
LINE
  8
NOTE
  6
CONTINUOUS
 62
     4
 10
26.02181772244208
 20
-69.999999944784179
 30
0.0
 11
-26.021817722442051
 21
-69.999999944784179
 31
0.0
  0
LINE
  8
SIZE
  6
CONTINUOUS
 62
    30
 10
-49.5
 20
98.912572347299829
 30
0.0
 11
-49.5
 21
328.42618669078172
 31
0.0
  0
LINE
  8
SIZE
  6
CONTINUOUS
 62
    30
 10
0.0
 20
148.0459278491858
 30
0.0
 11
0.0
 21
328.42618669078172
 31
0.0
  0
LINE
  8
SIZE
  6
CONTINUOUS
 62
    30
 10
-61.5
 20
308.42618669078172
 30
0.0
 11
-73.5
 21
308.42618669078172
 31
0.0
  0
LINE
  8
SIZE
  6
CONTINUOUS
 62
    30
 10
12.0
 20
308.42618669078172
 30
0.0
 11
24.0
 21
308.42618669078172
 31
0.0
  0
LINE
  8
SIZE
  6
CONTINUOUS
 62
    30
 10
-49.5
 20
308.42618669078172
 30
0.0
 11
0.0
 21
308.42618669078172
 31
0.0
  0
CIRCLE
  8
SIZE
  6
CONTINUOUS
 62
    30
 10
-49.5
 20
308.42618669078172
 30
0.0
 40
6.0
  0
LINE
  8
SIZE
  6
CONTINUOUS
 62
    30
 10
-49.5
 20
308.42618669078172
 30
0.0
 11
-61.5
 21
308.42618669078172
 31
0.0
  0
CIRCLE
  8
SIZE
  6
CONTINUOUS
 62
    30
 10
0.0
 20
308.42618669078172
 30
0.0
 40
6.0
  0
LINE
  8
SIZE
  6
CONTINUOUS
 62
    30
 10
0.0
 20
308.42618669078172
 30
0.0
 11
12.0
 21
308.42618669078172
 31
0.0
  0
TEXT
  8
SIZE
  6
CONTINUOUS
 62
    30
 10
-112.5214285714286
 20
333.42618669078172
 30
0.0
 40
64.0
  1
49.5
 41
0.9
 72
     1
 11
-24.75
 21
333.42618669078172
 31
0.0
  0
LINE
  8
SIZE
  6
CONTINUOUS
 62
    30
 10
-63.805235721999907
 20
79.994672090700078
 30
0.0
 11
-157.34873157624361
 21
79.994672090700078
 31
0.0
  0
LINE
  8
SIZE
  6
CONTINUOUS
 62
    30
 10
-63.805235721999907
 20
-79.994672090600034
 30
0.0
 11
-157.34873157624361
 21
-79.994672090600034
 31
0.0
  0
LINE
  8
SIZE
  6
CONTINUOUS
 62
    30
 10
-137.34873157624361
 20
91.994672090700078
 30
0.0
 11
-137.34873157624361
 21
103.99467209070011
 31
0.0
  0
LINE
  8
SIZE
  6
CONTINUOUS
 62
    30
 10
-137.34873157624361
 20
-91.994672090600019
 30
0.0
 11
-137.34873157624361
 21
-103.99467209060001
 31
0.0
  0
LINE
  8
SIZE
  6
CONTINUOUS
 62
    30
 10
-137.34873157624361
 20
79.994672090700078
 30
0.0
 11
-137.34873157624361
 21
-79.994672090600034
 31
0.0
  0
CIRCLE
  8
SIZE
  6
CONTINUOUS
 62
    30
 10
-137.34873157624361
 20
79.994672090700078
 30
0.0
 40
6.0
  0
LINE
  8
SIZE
  6
CONTINUOUS
 62
    30
 10
-137.34873157624361
 20
79.994672090700078
 30
0.0
 11
-137.34873157624361
 21
91.994672090700078
 31
0.0
  0
CIRCLE
  8
SIZE
  6
CONTINUOUS
 62
    30
 10
-137.34873157624361
 20
-79.994672090600034
 30
0.0
 40
6.0
  0
LINE
  8
SIZE
  6
CONTINUOUS
 62
    30
 10
-137.34873157624361
 20
-79.994672090600034
 30
0.0
 11
-137.34873157624361
 21
-91.994672090600019
 31
0.0
  0
TEXT
  8
SIZE
  6
CONTINUOUS
 62
    30
 10
-162.34873157624361
 20
-105.05142857137859
 30
0.0
 40
64.0
  1
□160
 50
90.0
 41
0.9
 72
     1
 11
-162.34873157624361
 21
0.0000000000500222
 31
0.0
  0
LINE
  8
SIZE
  6
CONTINUOUS
 62
    30
 10
46.02181772244208
 20
69.965255095611042
 30
0.0
 11
575.1592456340104
 21
69.9652550956109
 31
0.0
  0
LINE
  8
SIZE
  6
CONTINUOUS
 62
    30
 10
164.5615624067409
 20
0.0
 30
0.0
 11
575.1592456340104
 21
-0.0000000000001137
 31
0.0
  0
LINE
  8
SIZE
  6
CONTINUOUS
 62
    30
 10
555.1592456340104
 20
-12.00000000000011
 30
0.0
 11
555.1592456340104
 21
-24.00000000000011
 31
0.0
  0
LINE
  8
SIZE
  6
CONTINUOUS
 62
    30
 10
555.1592456340104
 20
81.965255095610871
 30
0.0
 11
555.1592456340104
 21
242.08631854346461
 31
0.0
  0
LINE
  8
SIZE
  6
CONTINUOUS
 62
    30
 10
555.1592456340104
 20
-0.0000000000001137
 30
0.0
 11
555.1592456340104
 21
69.9652550956109
 31
0.0
  0
CIRCLE
  8
SIZE
  6
CONTINUOUS
 62
    30
 10
555.1592456340104
 20
-0.0000000000001137
 30
0.0
 40
6.0
  0
LINE
  8
SIZE
  6
CONTINUOUS
 62
    30
 10
555.1592456340104
 20
-0.0000000000001137
 30
0.0
 11
555.1592456340104
 21
-12.00000000000011
 31
0.0
  0
CIRCLE
  8
SIZE
  6
CONTINUOUS
 62
    30
 10
555.1592456340104
 20
69.9652550956109
 30
0.0
 40
6.0
  0
LINE
  8
SIZE
  6
CONTINUOUS
 62
    30
 10
555.1592456340104
 20
69.9652550956109
 30
0.0
 11
555.1592456340104
 21
81.965255095610871
 31
0.0
  0
TEXT
  8
SIZE
  6
CONTINUOUS
 62
    30
 10
530.1592456340104
 20
123.8291756863218
 30
0.0
 40
64.0
  1
70
 50
90.0
 41
0.9
 72
     1
 11
530.1592456340104
 21
170.45774711489321
 31
0.0
  0
LINE
  8
SIZE
  6
CONTINUOUS
 62
    30
 10
164.5615624067409
 20
0.0
 30
0.0
 11
187.1591489740899
 21
0.0
 31
0.0
  0
LINE
  8
SIZE
  6
CONTINUOUS
 62
    30
 10
46.02181772244208
 20
5.9999999952671601
 30
0.0
 11
187.1591489740899
 21
5.9999999952671317
 31
0.0
  0
LINE
  8
SIZE
  6
CONTINUOUS
 62
    30
 10
167.1591489740899
 20
-12.0
 30
0.0
 11
167.1591489740899
 21
-24.0
 31
0.0
  0
LINE
  8
SIZE
  6
CONTINUOUS
 62
    30
 10
167.1591489740899
 20
17.999999995267132
 30
0.0
 11
167.15914897408999
 21
170.41916868416109
 31
0.0
  0
LINE
  8
SIZE
  6
CONTINUOUS
 62
    30
 10
167.1591489740899
 20
0.0
 30
0.0
 11
167.1591489740899
 21
5.9999999952671317
 31
0.0
  0
CIRCLE
  8
SIZE
  6
CONTINUOUS
 62
    30
 10
167.1591489740899
 20
0.0
 30
0.0
 40
6.0
  0
LINE
  8
SIZE
  6
CONTINUOUS
 62
    30
 10
167.1591489740899
 20
0.0
 30
0.0
 11
167.1591489740899
 21
-12.0
 31
0.0
  0
CIRCLE
  8
SIZE
  6
CONTINUOUS
 62
    30
 10
167.1591489740899
 20
5.9999999952671317
 30
0.0
 40
6.0
  0
LINE
  8
SIZE
  6
CONTINUOUS
 62
    30
 10
167.1591489740899
 20
5.9999999952671317
 30
0.0
 11
167.1591489740899
 21
17.999999995267132
 31
0.0
  0
TEXT
  8
SIZE
  6
CONTINUOUS
 62
    30
 10
142.1591489740899
 20
109.76202582701831
 30
0.0
 40
64.0
  1
6
 50
90.0
 41
0.9
 72
     1
 11
142.1591489740899
 21
127.5905972555897
 31
0.0
  0
LINE
  8
SIZE
  6
CONTINUOUS
 62
    30
 10
164.5615624067409
 20
0.0
 30
0.0
 11
575.1592456340104
 21
-0.0000000000001137
 31
0.0
  0
LINE
  8
SIZE
  6
CONTINUOUS
 62
    30
 10
46.02181772244208
 20
-69.999999944784207
 30
0.0
 11
575.1592456340104
 21
-69.999999944784349
 31
0.0
  0
LINE
  8
SIZE
  6
CONTINUOUS
 62
    30
 10
555.1592456340104
 20
11.99999999999989
 30
0.0
 11
555.1592456340104
 21
23.99999999999989
 31
0.0
  0
LINE
  8
SIZE
  6
CONTINUOUS
 62
    30
 10
555.1592456340104
 20
-81.999999944784349
 30
0.0
 11
555.15924563401029
 21
-260.66450131800468
 31
0.0
  0
LINE
  8
SIZE
  6
CONTINUOUS
 62
    30
 10
555.1592456340104
 20
-0.0000000000001137
 30
0.0
 11
555.1592456340104
 21
-69.999999944784349
 31
0.0
  0
CIRCLE
  8
SIZE
  6
CONTINUOUS
 62
    30
 10
555.1592456340104
 20
-0.0000000000001137
 30
0.0
 40
6.0
  0
LINE
  8
SIZE
  6
CONTINUOUS
 62
    30
 10
555.1592456340104
 20
-0.0000000000001137
 30
0.0
 11
555.1592456340104
 21
11.99999999999989
 31
0.0
  0
CIRCLE
  8
SIZE
  6
CONTINUOUS
 62
    30
 10
555.1592456340104
 20
-69.999999944784349
 30
0.0
 40
6.0
  0
LINE
  8
SIZE
  6
CONTINUOUS
 62
    30
 10
555.1592456340104
 20
-69.999999944784349
 30
0.0
 11
555.1592456340104
 21
-81.999999944784349
 31
0.0
  0
TEXT
  8
SIZE
  6
CONTINUOUS
 62
    30
 10
530.1592456340104
 20
-235.6645013180046
 30
0.0
 40
64.0
  1
70
 50
90.0
 41
0.9
 72
     1
 11
530.1592456340104
 21
-189.03592988943311
 31
0.0
  0
LINE
  8
SIZE
  6
CONTINUOUS
 62
    30
 10
19.491273796699939
 20
-79.991120151099949
 30
0.0
 11
274.61211562470322
 21
-79.99112015110002
 31
0.0
  0
LINE
  8
SIZE
  6
CONTINUOUS
 62
    30
 10
4.5
 20
-84.800000000098862
 30
0.0
 11
274.61211562470322
 21
-84.800000000098933
 31
0.0
  0
LINE
  8
SIZE
  6
CONTINUOUS
 62
    30
 10
254.61211562470319
 20
-67.99112015110002
 30
0.0
 11
254.61211562470319
 21
-55.991120151100027
 31
0.0
  0
LINE
  8
SIZE
  6
CONTINUOUS
 62
    30
 10
254.61211562470319
 20
-96.800000000098919
 30
0.0
 11
254.61211562470319
 21
-207.71048652160539
 31
0.0
  0
LINE
  8
SIZE
  6
CONTINUOUS
 62
    30
 10
254.61211562470319
 20
-79.99112015110002
 30
0.0
 11
254.61211562470319
 21
-84.800000000098933
 31
0.0
  0
CIRCLE
  8
SIZE
  6
CONTINUOUS
 62
    30
 10
254.61211562470319
 20
-79.99112015110002
 30
0.0
 40
6.0
  0
LINE
  8
SIZE
  6
CONTINUOUS
 62
    30
 10
254.61211562470319
 20
-79.99112015110002
 30
0.0
 11
254.61211562470319
 21
-67.99112015110002
 31
0.0
  0
CIRCLE
  8
SIZE
  6
CONTINUOUS
 62
    30
 10
254.61211562470319
 20
-84.800000000098933
 30
0.0
 40
6.0
  0
LINE
  8
SIZE
  6
CONTINUOUS
 62
    30
 10
254.61211562470319
 20
-84.800000000098933
 30
0.0
 11
254.61211562470319
 21
-96.800000000098919
 31
0.0
  0
TEXT
  8
SIZE
  6
CONTINUOUS
 62
    30
 10
229.61211562470319
 20
-182.7104865216053
 30
0.0
 40
64.0
  1
5
 50
90.0
 41
0.9
 72
     1
 11
229.61211562470319
 21
-163.51048652160529
 31
0.0
  0
LINE
  8
SIZE
  6
CONTINUOUS
 62
    30
 10
57.453834890777443
 20
-47.500402876532462
 30
0.0
 11
452.25014154010307
 21
-47.500402876532583
 31
0.0
  0
LINE
  8
SIZE
  6
CONTINUOUS
 62
    30
 10
57.453834890777443
 20
47.500402876777123
 30
0.0
 11
452.25014154010307
 21
47.500402876777002
 31
0.0
  0
LINE
  8
SIZE
  6
CONTINUOUS
 62
    30
 10
432.25014154010307
 20
-35.50040287653259
 30
0.0
 11
432.25014154010307
 21
35.500402876777002
 31
0.0
  0
LINE
  8
SIZE
  6
CONTINUOUS
 62
    30
 10
432.25014154010307
 20
47.500402876777002
 30
0.0
 11
432.25014154010307
 21
270.95049571111502
 31
0.0
  0
CIRCLE
  8
SIZE
  6
CONTINUOUS
 62
    30
 10
432.25014154010307
 20
-47.500402876532583
 30
0.0
 40
6.0
  0
LINE
  8
SIZE
  6
CONTINUOUS
 62
    30
 10
432.25014154010307
 20
-47.500402876532583
 30
0.0
 11
432.25014154010307
 21
-35.50040287653259
 31
0.0
  0
CIRCLE
  8
SIZE
  6
CONTINUOUS
 62
    30
 10
432.25014154010307
 20
47.500402876777002
 30
0.0
 40
6.0
  0
LINE
  8
SIZE
  6
CONTINUOUS
 62
    30
 10
432.25014154010307
 20
47.500402876777002
 30
0.0
 11
432.25014154010307
 21
35.500402876777002
 31
0.0
  0
TEXT
  8
SIZE
  6
CONTINUOUS
 62
    30
 10
396.58347487343627
 20
82.201924282543686
 30
0.0
 40
64.0
  1
φ95
 50
90.0
 41
0.9
 72
     1
 11
396.58347487343627
 21
169.1504957111151
 31
0.0
  0
LINE
  8
SIZE
  6
CONTINUOUS
 62
    30
 10
146.0698096334136
 20
-27.881657312891889
 30
0.0
 11
309.72787987941678
 21
-27.881657312891932
 31
0.0
  0
LINE
  8
SIZE
  6
CONTINUOUS
 62
    30
 10
146.06980962759991
 20
27.881657312999781
 30
0.0
 11
309.72787987941678
 21
27.881657312999721
 31
0.0
  0
LINE
  8
SIZE
  6
CONTINUOUS
 62
    30
 10
289.72787987941678
 20
-39.881657312891932
 30
0.0
 11
289.72787987941678
 21
-51.881657312891932
 31
0.0
  0
LINE
  8
SIZE
  6
CONTINUOUS
 62
    30
 10
289.72787987941678
 20
39.881657312999721
 30
0.0
 11
289.72787987941689
 21
264.35006830833743
 31
0.0
  0
LINE
  8
SIZE
  6
CONTINUOUS
 62
    30
 10
289.72787987941678
 20
-27.881657312891932
 30
0.0
 11
289.72787987941678
 21
27.881657312999721
 31
0.0
  0
CIRCLE
  8
SIZE
  6
CONTINUOUS
 62
    30
 10
289.72787987941678
 20
-27.881657312891932
 30
0.0
 40
6.0
  0
LINE
  8
SIZE
  6
CONTINUOUS
 62
    30
 10
289.72787987941678
 20
-27.881657312891932
 30
0.0
 11
289.72787987941678
 21
-39.881657312891932
 31
0.0
  0
CIRCLE
  8
SIZE
  6
CONTINUOUS
 62
    30
 10
289.72787987941678
 20
27.881657312999721
 30
0.0
 40
6.0
  0
LINE
  8
SIZE
  6
CONTINUOUS
 62
    30
 10
289.72787987941678
 20
27.881657312999721
 30
0.0
 11
289.72787987941678
 21
39.881657312999721
 31
0.0
  0
TEXT
  8
SIZE
  6
CONTINUOUS
 62
    30
 10
254.0612132127502
 20
78.344354022623136
 30
0.0
 40
64.0
  1
φ56
 50
90.0
 41
0.9
 72
     1
 11
254.0612132127502
 21
163.92149687976601
 31
0.0
  0
LINE
  8
SIZE
  6
CONTINUOUS
 62
    30
 10
0.0
 20
-129.2854010143142
 30
0.0
 11
0.0
 21
-275.67477456083429
 31
0.0
  0
LINE
  8
SIZE
  6
CONTINUOUS
 62
    30
 10
61.5
 20
-63.499996992000433
 30
0.0
 11
61.5
 21
-275.67477456083429
 31
0.0
  0
LINE
  8
SIZE
  6
CONTINUOUS
 62
    30
 10
73.5
 20
-255.67477456083429
 30
0.0
 11
85.5
 21
-255.67477456083429
 31
0.0
  0
LINE
  8
SIZE
  6
CONTINUOUS
 62
    30
 10
-12.0
 20
-255.67477456083429
 30
0.0
 11
-244.05714285714291
 21
-255.67477456083429
 31
0.0
  0
LINE
  8
SIZE
  6
CONTINUOUS
 62
    30
 10
61.5
 20
-255.67477456083429
 30
0.0
 11
0.0
 21
-255.67477456083429
 31
0.0
  0
CIRCLE
  8
SIZE
  6
CONTINUOUS
 62
    30
 10
61.5
 20
-255.67477456083429
 30
0.0
 40
6.0
  0
LINE
  8
SIZE
  6
CONTINUOUS
 62
    30
 10
61.5
 20
-255.67477456083429
 30
0.0
 11
73.5
 21
-255.67477456083429
 31
0.0
  0
CIRCLE
  8
SIZE
  6
CONTINUOUS
 62
    30
 10
0.0
 20
-255.67477456083429
 30
0.0
 40
6.0
  0
LINE
  8
SIZE
  6
CONTINUOUS
 62
    30
 10
0.0
 20
-255.67477456083429
 30
0.0
 11
-12.0
 21
-255.67477456083429
 31
0.0
  0
TEXT
  8
SIZE
  6
CONTINUOUS
 62
    30
 10
-219.05714285714291
 20
-230.67477456083429
 30
0.0
 40
64.0
  1
61.5
 41
0.9
 72
     1
 11
-136.7714285714286
 21
-230.67477456083429
 31
0.0
  0
LINE
  8
SIZE
  6
CONTINUOUS
 62
    30
 10
0.0
 20
-129.2854010143142
 30
0.0
 11
0.0
 21
-384.11544475201208
 31
0.0
  0
LINE
  8
SIZE
  6
CONTINUOUS
 62
    30
 10
129.99999282063749
 20
-43.874687954119892
 30
0.0
 11
129.99999282063749
 21
-384.11544475201208
 31
0.0
  0
LINE
  8
SIZE
  6
CONTINUOUS
 62
    30
 10
117.9999928206375
 20
-364.11544475201208
 30
0.0
 11
12.0
 21
-364.11544475201208
 31
0.0
  0
LINE
  8
SIZE
  6
CONTINUOUS
 62
    30
 10
0.0
 20
-364.11544475201208
 30
0.0
 11
-218.34285714285721
 21
-364.11544475201208
 31
0.0
  0
CIRCLE
  8
SIZE
  6
CONTINUOUS
 62
    30
 10
129.99999282063749
 20
-364.11544475201208
 30
0.0
 40
6.0
  0
LINE
  8
SIZE
  6
CONTINUOUS
 62
    30
 10
129.99999282063749
 20
-364.11544475201208
 30
0.0
 11
117.9999928206375
 21
-364.11544475201208
 31
0.0
  0
CIRCLE
  8
SIZE
  6
CONTINUOUS
 62
    30
 10
0.0
 20
-364.11544475201208
 30
0.0
 40
6.0
  0
LINE
  8
SIZE
  6
CONTINUOUS
 62
    30
 10
0.0
 20
-364.11544475201208
 30
0.0
 11
12.0
 21
-364.11544475201208
 31
0.0
  0
TEXT
  8
SIZE
  6
CONTINUOUS
 62
    30
 10
-193.34285714285721
 20
-339.11544475201208
 30
0.0
 40
64.0
  1
130
 41
0.9
 72
     1
 11
-124.7714285714286
 21
-339.11544475201208
 31
0.0
  0
TEXT
  8
NOTE
  6
CONTINUOUS
 62
     4
 10
118.71172883204871
 20
458.8859053258866
 30
0.0
 40
64.0
  1
EL
 41
0.9
  0
TEXT
  8
NOTE
  6
CONTINUOUS
 62
     4
 10
133.5838435930423
 20
329.17552443105842
 30
0.0
 40
64.0
  1
2-φ4×10
 41
0.9
  0
TEXT
  8
NOTE
  6
CONTINUOUS
 62
     4
 10
209.68400097732089
 20
-454.41915202917369
 30
0.0
 40
64.0
  1
2-φ5×7
 41
0.9
  0
LINE
  8
NOTE
  6
CONTINUOUS
 62
     4
 10
3.1082140012345012
 20
65.123231046238885
 30
0.0
 11
107.4805600201113
 21
429.72792746570371
 31
0.0
  0
LINE
  8
NOTE
  6
CONTINUOUS
 62
     4
 10
107.4805600201113
 20
429.72792746570371
 30
0.0
 11
204.50913144868261
 21
429.72792746570371
 31
0.0
  0
LINE
  8
NOTE
  6
CONTINUOUS
 62
     4
 10
3.795922132967974
 20
10.916876488575101
 30
0.0
 11
0.0
 21
5.9999999952671894
 31
0.0
  0
LINE
  8
NOTE
  6
CONTINUOUS
 62
     4
 10
0.0
 20
5.9999999952671894
 30
0.0
 11
0.8289174743850936
 21
12.15610226136536
 31
0.0
  0
LINE
  8
NOTE
  6
CONTINUOUS
 62
     4
 10
0.0
 20
5.9999999952671894
 30
0.0
 11
4.6248396073531239
 21
17.072978754673269
 31
0.0
  0
LINE
  8
NOTE
  6
CONTINUOUS
 62
     4
 10
4.6248396073531239
 20
17.07297875467324
 30
0.0
 11
121.5838435930423
 21
297.17552443105842
 31
0.0
  0
LINE
  8
NOTE
  6
CONTINUOUS
 62
     4
 10
121.5838435930423
 20
297.17552443105842
 30
0.0
 11
533.1019699121789
 21
297.17552443105842
 31
0.0
  0
LINE
  8
NOTE
  6
CONTINUOUS
 62
     4
 10
0.9944408093057291
 20
-76.13154027057405
 30
0.0
 11
0.0
 21
-69.999999944784179
 31
0.0
  0
LINE
  8
NOTE
  6
CONTINUOUS
 62
     4
 10
0.0
 20
-69.999999944784179
 30
0.0
 11
3.926988419002214
 21
-74.81284330884894
 31
0.0
  0
LINE
  8
NOTE
  6
CONTINUOUS
 62
     4
 10
0.0
 20
-69.999999944784179
 30
0.0
 11
4.921429228307943
 21
-80.944383634638811
 31
0.0
  0
LINE
  8
NOTE
  6
CONTINUOUS
 62
     4
 10
4.921429228307943
 20
-80.944383634638811
 30
0.0
 11
197.68400097732089
 21
-510.92769145700203
 31
0.0
  0
LINE
  8
NOTE
  6
CONTINUOUS
 62
     4
 10
197.68400097732089
 20
-510.92769145700203
 30
0.0
 11
572.86540968630618
 21
-510.92769145700203
 31
0.0
  0
LINE
  8
NOTE
  6
CONTINUOUS
 62
     4
 10
0.0
 20
27.510942853512599
 30
0.0
 11
0.0
 21
79.554578298396763
 31
0.0
  0
LINE
  8
NOTE
  6
CONTINUOUS
 62
     4
 10
-26.021817722442051
 20
53.532760575954683
 30
0.0
 11
26.021817722442169
 21
53.532760575954711
 31
0.0
  0
LINE
  8
NOTE
  6
CONTINUOUS
 62
     4
 10
3.106940281873563
 20
58.911572840281387
 30
0.0
 11
0.0
 21
53.532760575954711
 31
0.0
  0
LINE
  8
NOTE
  6
CONTINUOUS
 62
     4
 10
0.0
 20
53.532760575954711
 30
0.0
 11
0.0012737193609382
 21
59.744418781912167
 31
0.0
  0
LINE
  8
NOTE
  6
CONTINUOUS
 62
     4
 10
0.0
 20
53.532760575954711
 30
0.0
 11
3.1082140012345012
 21
65.123231046238857
 31
0.0
  0
CIRCLE
  8
FIX
  6
CONTINUOUS
 62
    11
 39
50.315494059942047
 10
0.0
 20
53.532760575954711
 30
0.0
 40
7.0441691683918863
  0
LINE
  8
DETAIL
  6
CONTINUOUS
 62
     5
 10
37.453834890777443
 20
42.086945241286799
 30
0.0
 11
50.299999999941747
 21
42.127120270288742
 31
0.0
  0
ARC
  8
DETAIL
  6
CONTINUOUS
 62
     5
 10
51.730498940625687
 20
58.123295001608767
 30
0.0
 40
9.9999999999999609
 50
260.14624466803838
 51
265.57867891065979
  0
ARC
  8
DETAIL
  6
CONTINUOUS
 62
     5
 10
48.64689696957862
 20
18.242329631094439
 30
0.0
 40
29.999999999999972
 50
74.526412636275197
 51
85.578678910659875
  0
ARC
  8
DETAIL
  6
CONTINUOUS
 62
     5
 10
55.437113749306043
 20
40.224926606891131
 30
0.0
 40
7.0000000000000124
 50
26.87604462994026
 51
75.848593004571796
  0
LINE
  8
DETAIL
  6
CONTINUOUS
 62
     5
 10
50.019159528306552
 20
48.270817271827127
 30
0.0
 11
43.229758824503662
 21
49.450111387390088
 31
0.0
  0
LINE
  8
DETAIL
  6
CONTINUOUS
 62
     5
 10
43.229758824503598
 20
49.450111387390088
 30
0.0
 11
0.0
 21
49.827371777314063
 31
0.0
  0
ARC
  8
DETAIL
  6
CONTINUOUS
 62
     5
 10
-23.5
 20
-58.128055710300032
 30
0.0
 40
0.999999539399994
 50
271.00000092130722
 51
0.0
  0
LINE
  8
DETAIL
  6
CONTINUOUS
 62
     5
 10
-23.481109800899961
 20
-59.131520464200086
 30
0.0
 11
-23.482547070699869
 21
-59.127902475700012
 31
0.0
  0
LINE
  8
DETAIL
  6
CONTINUOUS
 62
     5
 10
-43.5
 20
-59.477308415599957
 30
0.0
 11
-23.482547593599971
 21
-59.127902484100098
 31
0.0
  0
LINE
  8
DETAIL
  6
CONTINUOUS
 62
     5
 10
-43.5
 20
-59.449251433799873
 30
0.0
 11
-24.799999999236551
 21
-58.9876383891052
 31
0.0
  0
ARC
  8
DETAIL
  6
CONTINUOUS
 62
     5
 10
-21.200000000000049
 20
16.933333333299739
 30
0.0
 40
2.8000000000000691
 50
180.0
 51
213.94792652699809
  0
ARC
  8
DETAIL
  6
CONTINUOUS
 62
     5
 10
-22.700000000000049
 20
13.65979797469981
 30
0.0
 40
1.0
 50
180.0
 51
224.99999999999881
  0
ARC
  8
DETAIL
  6
CONTINUOUS
 62
     5
 10
-22.700000000000049
 20
13.65979797469981
 30
0.0
 40
2.8000000000000158
 50
221.39981579780169
 51
224.99999999999079
  0
ARC
  8
DETAIL
  6
CONTINUOUS
 62
     5
 10
-26.5
 20
7.8431457504998434
 30
0.0
 40
4.0
 50
0.0
 51
44.999999999998849
  0
ARC
  8
DETAIL
  6
CONTINUOUS
 62
     5
 10
-28.5
 20
12.019068383199739
 30
0.0
 40
6.0000000000000302
 50
359.99906334149853
 51
33.948218247597993
  0
LINE
  8
DETAIL
  6
CONTINUOUS
 62
     5
 10
-23.4071067811999
 20
12.952691193499961
 30
0.0
 11
-22.50102017170002
 21
12.046604583899811
 31
0.0
  0
LINE
  8
DETAIL
  6
CONTINUOUS
 62
     5
 10
-23.67157287529994
 20
10.67157287529972
 30
0.0
 11
-24.679898987399842
 21
11.679898987300019
 31
0.0
  0
LINE
  8
DETAIL
  6
CONTINUOUS
 62
     5
 10
-23.700000000000049
 20
15.6759123001998
 30
0.0
 11
-23.700000000000049
 21
13.65979797469981
 31
0.0
  0
LINE
  8
DETAIL
  6
CONTINUOUS
 62
     5
 10
-28.89488244180006
 20
6.0013672671998393
 30
0.0
 11
-24.800000019167332
 21
0.2003788541716176
 31
0.0
  0
LINE
  8
DETAIL
  6
CONTINUOUS
 62
     5
 10
-35.62062408809993
 20
15.459165436699999
 30
0.0
 11
-28.89488244180006
 21
6.0013672671998393
 31
0.0
  0
LINE
  8
DETAIL
  6
CONTINUOUS
 62
     5
 10
-43.5
 20
26.512908206600059
 30
0.0
 11
-35.62062408809993
 21
15.459165436699999
 31
0.0
  0
LINE
  8
DETAIL
  6
CONTINUOUS
 62
     5
 10
-35.468446581299993
 20
-15.245565492500191
 30
0.0
 11
-43.5
 21
-26.512909919700181
 31
0.0
  0
LINE
  8
DETAIL
  6
CONTINUOUS
 62
     5
 10
-31.172898161499919
 20
-9.2111995061000016
 30
0.0
 11
-35.468446581299993
 21
-15.245565492500191
 31
0.0
  0
LINE
  8
DETAIL
  6
CONTINUOUS
 62
     5
 10
-28.95192045220006
 20
-6.0819327864001016
 30
0.0
 11
-31.172898161499919
 21
-9.2111995061000016
 31
0.0
  0
LINE
  8
DETAIL
  6
CONTINUOUS
 62
     5
 10
-24.8000000190317
 20
-0.2024765719896777
 30
0.0
 11
-28.95192045220006
 21
-6.0819327864001016
 31
0.0
  0
LINE
  8
DETAIL
  6
CONTINUOUS
 62
     5
 10
-24.800000038963159
 20
58.987639171967942
 30
0.0
 11
-24.799999999236551
 21
-58.9876383891052
 31
0.0
  0
LINE
  8
DETAIL
  6
CONTINUOUS
 62
     5
 10
-23.99999372699995
 20
78.598381288099972
 30
0.0
 11
-23.99999372699995
 21
16.92740638123087
 31
0.0
  0
ARC
  8
DETAIL
  6
CONTINUOUS
 62
     5
 10
-22.99999372699995
 20
78.598381288099972
 30
0.0
 40
1.000000000000052
 50
91.000359473999978
 51
180.00000627360001
  0
ARC
  8
DETAIL
  6
CONTINUOUS
 62
     5
 10
-22.700000000000049
 20
49.840202025399783
 30
0.0
 40
2.800000000000054
 50
135.00000000000111
 51
138.6215035164968
  0
ARC
  8
DETAIL
  6
CONTINUOUS
 62
     5
 10
-22.700000000000049
 20
71.464663351599938
 30
0.0
 40
2.799999999999971
 50
117.68822059930559
 51
180.00000116609621
  0
ARC
  8
DETAIL
  6
CONTINUOUS
 62
     5
 10
-25.0
 20
58.154238307799908
 30
0.0
 40
0.99999953940002
 50
359.99994720950627
 51
88.999999078692738
  0
ARC
  8
DETAIL
  6
CONTINUOUS
 62
     5
 10
-25.0
 20
71.845762613600073
 30
0.0
 40
1.000000000000014
 50
271.00000000000182
 51
0.0
  0
LINE
  8
DETAIL
  6
CONTINUOUS
 62
     5
 10
-0.508726203300057
 20
79.991120151099949
 30
0.0
 11
-23.017452406499839
 21
79.598228873800053
 31
0.0
  0
LINE
  8
DETAIL
  6
CONTINUOUS
 62
     5
 10
-43.5
 20
70.522691584400036
 30
0.0
 11
-24.982547593599971
 21
70.845914918500057
 31
0.0
  0
LINE
  8
DETAIL
  6
CONTINUOUS
 62
     5
 10
-43.5
 20
59.477308415599957
 30
0.0
 11
-24.982547593599971
 21
59.154085081499943
 31
0.0
  0
LINE
  8
DETAIL
  6
CONTINUOUS
 62
     5
 10
-25.5
 20
70.836882753099871
 30
0.0
 11
-25.5
 21
71.464623014900098
 31
0.0
  0
LINE
  8
DETAIL
  6
CONTINUOUS
 62
     5
 10
-24.679898987399842
 20
51.820101012699979
 30
0.0
 11
-24.0
 21
52.5
 31
0.0
  0
ARC
  8
DETAIL
  6
CONTINUOUS
 62
     5
 10
-43.799999999999947
 20
79.694705203599824
 30
0.0
 40
0.300000000000126
 50
0.0024023135055683
 51
90.999958079488138
  0
ARC
  8
DETAIL
  6
CONTINUOUS
 62
     5
 10
-48.5
 20
78.912572347299829
 30
0.0
 40
1.00000000000001
 50
90.999999999988745
 51
180.00084192510079
  0
LINE
  8
DETAIL
  6
CONTINUOUS
 62
     5
 10
-48.517452406499842
 20
79.912420042499889
 30
0.0
 11
-43.805235721999907
 21
79.994672090700078
 31
0.0
  0
LINE
  8
DETAIL
  6
CONTINUOUS
 62
     5
 10
-24.800000038963159
 20
58.987639171967942
 30
0.0
 11
-43.5
 21
59.449252215599699
 31
0.0
  0
ARC
  8
DETAIL
  6
CONTINUOUS
 62
     5
 10
-14.799999999999949
 20
-83.700000000098939
 30
0.0
 40
0.3999999999999779
 50
0.0
 51
90.0
  0
ARC
  8
DETAIL
  6
CONTINUOUS
 62
     5
 10
-14.799999999999949
 20
-83.900000000098757
 30
0.0
 40
0.3999999999999779
 50
270.0
 51
0.0
  0
LINE
  8
DETAIL
  6
CONTINUOUS
 62
     5
 10
-14.39999999999986
 20
-83.700000000098939
 30
0.0
 11
-14.39999999999986
 21
-83.900000000098757
 31
0.0
  0
LINE
  8
DETAIL
  6
CONTINUOUS
 62
     5
 10
-15.0
 20
-83.300000000098862
 30
0.0
 11
-14.799999999999949
 21
-83.300000000098862
 31
0.0
  0
LINE
  8
DETAIL
  6
CONTINUOUS
 62
     5
 10
-15.0
 20
-84.300000000098862
 30
0.0
 11
-14.799999999999949
 21
-84.300000000098862
 31
0.0
  0
ARC
  8
DETAIL
  6
CONTINUOUS
 62
     5
 10
-17.5
 20
-80.194612527735913
 30
0.0
 40
0.5
 50
0.0
 51
88.999999999815827
  0
ARC
  8
DETAIL
  6
CONTINUOUS
 62
     5
 10
-14.5
 20
-80.246977722529664
 30
0.0
 40
0.500000000000034
 50
88.999999999815827
 51
180.0
  0
LINE
  8
DETAIL
  6
CONTINUOUS
 62
     5
 10
-21.517452406439361
 20
-79.624411471101212
 30
0.0
 11
-0.508726203300057
 21
-79.991120151099949
 31
0.0
  0
ARC
  8
DETAIL
  6
CONTINUOUS
 62
     5
 10
-16.5
 20
-84.300000000098862
 30
0.0
 40
0.5
 50
180.0
 51
270.0
  0
ARC
  8
DETAIL
  6
CONTINUOUS
 62
     5
 10
-15.5
 20
-84.300000000098862
 30
0.0
 40
0.5
 50
270.0
 51
0.0
  0
LINE
  8
DETAIL
  6
CONTINUOUS
 62
     5
 10
-17.0
 20
-80.194612527735913
 30
0.0
 11
-17.0
 21
-84.300000000098862
 31
0.0
  0
LINE
  8
DETAIL
  6
CONTINUOUS
 62
     5
 10
-15.0
 20
-80.246977722529664
 30
0.0
 11
-15.0
 21
-84.300000000098862
 31
0.0
  0
LINE
  8
DETAIL
  6
CONTINUOUS
 62
     5
 10
-16.5
 20
-84.800000000098862
 30
0.0
 11
-15.5
 21
-84.800000000098862
 31
0.0
  0
ARC
  8
DETAIL
  6
CONTINUOUS
 62
     5
 10
-48.5
 20
-78.912572347300298
 30
0.0
 40
0.999999999999836
 50
179.99915766709779
 51
269.00000000001131
  0
LINE
  8
DETAIL
  6
CONTINUOUS
 62
     5
 10
-48.517452406499842
 20
-79.912420042499889
 30
0.0
 11
-43.805235721999907
 21
-79.994672090600034
 31
0.0
  0
ARC
  8
DETAIL
  6
CONTINUOUS
 62
     5
 10
-23.5
 20
-71.871944289599924
 30
0.0
 40
0.99999953940002
 50
359.99994720950627
 51
88.999999078692738
  0
ARC
  8
DETAIL
  6
CONTINUOUS
 62
     5
 10
-21.5
 20
-78.624563776000301
 30
0.0
 40
1.0
 50
180.0
 51
268.99999999980281
  0
LINE
  8
DETAIL
  6
CONTINUOUS
 62
     5
 10
-22.5
 20
-78.624563776000301
 30
0.0
 11
-22.5
 21
12.018970296599949
 31
0.0
  0
LINE
  8
DETAIL
  6
CONTINUOUS
 62
     5
 10
-43.5
 20
-70.52269158440005
 30
0.0
 11
-23.482547593599971
 21
-70.87209751580032
 31
0.0
  0
ARC
  8
DETAIL
  6
CONTINUOUS
 62
     5
 10
-43.799999999999947
 20
-79.69471778210027
 30
0.0
 40
0.300000000000024
 50
269.00000000002427
 51
0.0
  0
LINE
  8
DETAIL
  6
CONTINUOUS
 62
     5
 10
-43.5
 20
79.694717782099815
 30
0.0
 11
-43.5
 21
-79.69471778210027
 31
0.0
  0
LINE
  8
DETAIL
  6
CONTINUOUS
 62
     5
 10
-48.125451844899999
 20
79.91926243775589
 30
0.0
 11
-48.125451844899999
 21
-79.919262437747548
 31
0.0
  0
LINE
  8
DETAIL
  6
CONTINUOUS
 62
     5
 10
-49.5
 20
-78.912572347300298
 30
0.0
 11
-49.5
 21
78.912572347299829
 31
0.0
  0
LINE
  8
DETAIL
  6
CONTINUOUS
 62
     5
 10
50.299999999941747
 20
26.379010463712799
 30
0.0
 11
50.299999999941747
 21
44.251873402944909
 31
0.0
  0
ARC
  8
DETAIL
  6
CONTINUOUS
 62
     5
 10
-0.5
 20
79.491187319099936
 30
0.0
 40
0.5
 50
0.0
 51
90.999982033808564
  0
ARC
  8
DETAIL
  6
CONTINUOUS
 62
     5
 10
-0.5
 20
-79.491196303546531
 30
0.0
 40
0.5000000000000221
 50
268.99999999989399
 51
0.0
  0
LINE
  8
DETAIL
  6
CONTINUOUS
 62
     5
 10
0.0
 20
79.491187319099936
 30
0.0
 11
0.0
 21
-79.491196303546985
 31
0.0
  0
LINE
  8
DETAIL
  6
CONTINUOUS
 62
     5
 10
55.499999999927013
 20
26.96506604728847
 30
0.0
 11
54.499999999929742
 21
26.947610982367681
 31
0.0
  0
ARC
  8
DETAIL
  6
CONTINUOUS
 62
     5
 10
54.999999999928377
 20
28.607132606181491
 30
0.0
 40
0.499999999998626
 50
91.22466823850651
 51
179.99999999989581
  0
LINE
  8
DETAIL
  6
CONTINUOUS
 62
     5
 10
57.299999999921738
 20
39.672309231950287
 30
0.0
 11
59.5
 21
39.648795221497039
 31
0.0
  0
LINE
  8
DETAIL
  6
CONTINUOUS
 62
     5
 10
55.499999999927013
 20
14.069333660222579
 30
0.0
 11
55.499999999926793
 21
-14.25
 31
0.0
  0
LINE
  8
DETAIL
  6
CONTINUOUS
 62
     5
 10
55.499999999927013
 20
29.117936834380089
 30
0.0
 11
55.499999999927013
 21
26.056744395688838
 31
0.0
  0
LINE
  8
DETAIL
  6
CONTINUOUS
 62
     5
 10
54.499999999929742
 20
14.007053724422351
 30
0.0
 11
54.499999999929742
 21
-14.25
 31
0.0
  0
LINE
  8
DETAIL
  6
CONTINUOUS
 62
     5
 10
54.499999999929742
 20
28.607132606181491
 30
0.0
 11
54.499999999929742
 21
26.11836502486085
 31
0.0
  0
LINE
  8
DETAIL
  6
CONTINUOUS
 62
     5
 10
55.499999964026983
 20
29.11793683348014
 30
0.0
 11
54.989274757228259
 21
29.107018549379969
 31
0.0
  0
ARC
  8
DETAIL
  6
CONTINUOUS
 62
     5
 10
56.799999999923102
 20
46.653971591030768
 30
0.0
 40
0.499999999998636
 50
0.0
 51
89.02224891588925
  0
ARC
  8
DETAIL
  6
CONTINUOUS
 62
     5
 10
56.803383970823461
 20
45.235966375934822
 30
0.0
 40
0.507474319198604
 50
269.12527345090018
 51
275.03508980259181
  0
ARC
  8
DETAIL
  6
CONTINUOUS
 62
     5
 10
-17.449331038315218
 20
-4825.5665073837336
 30
0.0
 40
4870.8609349511726
 50
89.120691522418952
 51
89.354162159952196
  0
LINE
  8
DETAIL
  6
CONTINUOUS
 62
     5
 10
57.299999999921738
 20
39.672309231950287
 30
0.0
 11
57.299999999921738
 21
46.653955003230749
 31
0.0
  0
LINE
  8
DETAIL
  6
CONTINUOUS
 62
     5
 10
59.299999999916281
 20
25.820484523315489
 30
0.0
 11
37.453834890777443
 21
27.17622340239194
 31
0.0
  0
LINE
  8
DETAIL
  6
CONTINUOUS
 62
     5
 10
50.299999999941292
 20
29.462316400479271
 30
0.0
 11
37.453834890777443
 21
29.68814482256704
 31
0.0
  0
LINE
  8
DETAIL
  6
CONTINUOUS
 62
     5
 10
54.950100376528333
 20
14.03510846002246
 30
0.0
 11
59.299999999916281
 21
14.305841842754431
 31
0.0
  0
LINE
  8
DETAIL
  6
CONTINUOUS
 62
     5
 10
37.453834890777443
 20
12.94134258873339
 30
0.0
 11
54.950100376528333
 21
14.03510846002246
 31
0.0
  0
LINE
  8
DETAIL
  6
CONTINUOUS
 62
     5
 10
59.299999999916281
 20
14.305841842754431
 30
0.0
 11
59.299999999916281
 21
25.820484523315489
 31
0.0
  0
ARC
  8
DETAIL
  6
CONTINUOUS
 62
     5
 10
58.799999999916281
 20
-46.81409867656248
 30
0.0
 40
0.50000000000001
 50
270.50000000008282
 51
0.0
  0
ARC
  8
DETAIL
  6
CONTINUOUS
 62
     5
 10
54.999999999928377
 20
-35.291196303238848
 30
0.0
 40
0.499999999998636
 50
180.0
 51
268.99999999999818
  0
ARC
  8
DETAIL
  6
CONTINUOUS
 62
     5
 10
47.799999999948568
 20
-34.401092123241597
 30
0.0
 40
2.4999999999929741
 50
26.3750302887963
 51
84.784091424801929
  0
ARC
  8
DETAIL
  6
CONTINUOUS
 62
     5
 10
48.299999999947197
 20
-28.92386654815709
 30
0.0
 40
2.999999999991569
 50
185.28729712301339
 51
264.78409143350132
  0
LINE
  8
DETAIL
  6
CONTINUOUS
 62
     5
 10
50.299999999941292
 20
-44.444196488474176
 30
0.0
 11
50.299999999941292
 21
-36.290480167000169
 31
0.0
  0
LINE
  8
DETAIL
  6
CONTINUOUS
 62
     5
 10
55.499999999927013
 20
-35.799999999737793
 30
0.0
 11
54.991273796728137
 21
-35.791120150837742
 31
0.0
  0
LINE
  8
DETAIL
  6
CONTINUOUS
 62
     5
 10
59.299999999916281
 20
-44.449725643442783
 30
0.0
 11
49.742845197142969
 21
-44.443854200113492
 31
0.0
  0
LINE
  8
DETAIL
  6
CONTINUOUS
 62
     5
 10
49.742845197142969
 20
-44.443854200113492
 30
0.0
 11
37.453834890777443
 21
-44.427125403432463
 31
0.0
  0
LINE
  8
DETAIL
  6
CONTINUOUS
 62
     5
 10
59.299999999916281
 20
-46.81409867656248
 30
0.0
 11
59.299999999916281
 21
-35.768580883201587
 31
0.0
  0
LINE
  8
DETAIL
  6
CONTINUOUS
 62
     5
 10
58.80436326766619
 20
-47.314079638094569
 30
0.0
 11
0.0
 21
-47.527257541933572
 31
0.0
  0
LINE
  8
DETAIL
  6
CONTINUOUS
 62
     5
 10
55.499999999926793
 20
-29.200316026200198
 30
0.0
 11
55.499999999927013
 21
-35.799999999737793
 31
0.0
  0
LINE
  8
DETAIL
  6
CONTINUOUS
 62
     5
 10
55.499999999926793
 20
-17.25
 30
0.0
 11
55.499999999926793
 21
-23.548912278200081
 31
0.0
  0
LINE
  8
DETAIL
  6
CONTINUOUS
 62
     5
 10
54.499999999929742
 20
-17.25
 30
0.0
 11
54.499999999929742
 21
-23.548912278200081
 31
0.0
  0
LINE
  8
DETAIL
  6
CONTINUOUS
 62
     5
 10
55.500000035700168
 20
29.160692835899681
 30
0.0
 11
59.5
 21
29.075180831682701
 31
0.0
  0
LINE
  8
DETAIL
  6
CONTINUOUS
 62
     5
 10
55.499999999927013
 20
26.96506604728847
 30
0.0
 11
59.5
 21
26.895245787575281
 31
0.0
  0
LINE
  8
DETAIL
  6
CONTINUOUS
 62
     5
 10
59.5
 20
-35.765089870214517
 30
0.0
 11
55.499999999927013
 21
-35.83491012992954
 31
0.0
  0
ARC
  8
DETAIL
  6
CONTINUOUS
 62
     5
 10
126.0
 20
23.882266532599711
 30
0.0
 40
4.0
 50
359.99999880349748
 51
88.999999971893516
  0
LINE
  8
DETAIL
  6
CONTINUOUS
 62
     5
 10
70.0
 20
28.860359480752781
 30
0.0
 11
126.06980962759989
 21
27.881657312999781
 31
0.0
  0
ARC
  8
DETAIL
  6
CONTINUOUS
 62
     5
 10
104.8653820693673
 20
28.159209110528082
 30
0.0
 40
3.9999999999999498
 50
0.3259249643048648
 51
88.945643325067564
  0
LINE
  8
DETAIL
  6
CONTINUOUS
 62
     5
 10
104.88017553260011
 20
32.159614212999713
 30
0.0
 11
69.352106033601387
 21
32.813475394988188
 31
0.0
  0
ARC
  8
DETAIL
  6
CONTINUOUS
 62
     5
 10
69.000003404200015
 20
31.877517634199648
 30
0.0
 40
0.999996595800034
 50
0.0001001474949803
 51
88.394687458803517
  0
LINE
  8
DETAIL
  6
CONTINUOUS
 62
     5
 10
130.0
 20
-23.88329807460013
 30
0.0
 11
130.0
 21
23.88218144519988
 31
0.0
  0
LINE
  8
DETAIL
  6
CONTINUOUS
 62
     5
 10
126.3704841767033
 20
-19.298658605477272
 30
0.0
 11
122.1939256247999
 21
-21.16281325320006
 31
0.0
  0
ARC
  8
DETAIL
  6
CONTINUOUS
 62
     5
 10
150.30174226200009
 20
-18.618904458799989
 30
0.0
 40
30.897472835999949
 50
178.61125656529879
 51
181.38874360289731
  0
ARC
  8
DETAIL
  6
CONTINUOUS
 62
     5
 10
126.0
 20
-23.882266532400081
 30
0.0
 40
4.000000000000024
 50
271.00000010980159
 51
0.0000046942959686
  0
ARC
  8
DETAIL
  6
CONTINUOUS
 62
     5
 10
126.0000490365999
 20
-15.31590477380041
 30
0.0
 40
3.999943784199997
 50
275.31378136129717
 51
0.0005162703032934
  0
ARC
  8
DETAIL
  6
CONTINUOUS
 62
     5
 10
104.6880006258523
 20
-26.684268865097241
 30
0.0
 40
3.9999999999999978
 50
271.00000000027541
 51
337.88408962803948
  0
LINE
  8
DETAIL
  6
CONTINUOUS
 62
     5
 10
82.0
 20
-28.650898701421738
 30
0.0
 11
126.0698096334002
 21
-27.88165731280014
 31
0.0
  0
LINE
  8
DETAIL
  6
CONTINUOUS
 62
     5
 10
82.0
 20
-31.080898701400201
 30
0.0
 11
104.75781025162109
 21
-30.6836596457224
 31
0.0
  0
ARC
  8
DETAIL
  6
CONTINUOUS
 62
     5
 10
81.0
 20
-34.156510515936588
 30
0.0
 40
0.999999999999998
 50
270.89270766179021
 51
0.0
  0
LINE
  8
DETAIL
  6
CONTINUOUS
 62
     5
 10
82.0
 20
-34.156510515936588
 30
0.0
 11
82.0
 21
-26.886489340401109
 31
0.0
  0
LINE
  8
DETAIL
  6
CONTINUOUS
 62
     5
 10
120.42548289
 20
-11.148844899800221
 30
0.0
 11
62.0
 21
-10.7576463021237
 31
0.0
  0
LINE
  8
DETAIL
  6
CONTINUOUS
 62
     5
 10
126.0857806062002
 20
-9.0158848358000796
 30
0.0
 11
70.0
 21
-8.64035214633941
 31
0.0
  0
LINE
  8
DETAIL
  6
CONTINUOUS
 62
     5
 10
70.0
 20
31.87751956019974
 30
0.0
 11
70.0
 21
-9.3695364582144975
 31
0.0
  0
LINE
  8
DETAIL
  6
CONTINUOUS
 62
     5
 10
70.0
 20
-27.047134944801201
 30
0.0
 11
82.0
 21
-26.886489340401109
 31
0.0
  0
LINE
  8
DETAIL
  6
CONTINUOUS
 62
     5
 10
62.0
 20
-23.11784955140001
 30
0.0
 11
119.94370143660009
 21
-21.755066288199941
 31
0.0
  0
LINE
  8
DETAIL
  6
CONTINUOUS
 62
     5
 10
69.014325270742802
 20
-31.60709399706229
 30
0.0
 11
64.0
 21
-31.678932935691591
 31
0.0
  0
LINE
  8
DETAIL
  6
CONTINUOUS
 62
     5
 10
70.0
 20
-22.93051899280044
 30
0.0
 11
70.0
 21
-30.60719660901805
 31
0.0
  0
LINE
  8
DETAIL
  6
CONTINUOUS
 62
     5
 10
64.0
 20
-23.07101691180014
 30
0.0
 11
64.0
 21
-35.006141524485876
 31
0.0
  0
LINE
  8
DETAIL
  6
CONTINUOUS
 62
     5
 10
64.0
 20
-10.771037671037901
 30
0.0
 11
64.0
 21
35.473741238599807
 31
0.0
  0
LINE
  8
DETAIL
  6
CONTINUOUS
 62
     5
 10
64.982530633800025
 20
32.947939734199743
 30
0.0
 11
69.028068387600115
 21
32.87732460999996
 31
0.0
  0
ARC
  8
DETAIL
  6
CONTINUOUS
 62
     5
 10
62.5
 20
35.491196303599743
 30
0.0
 40
0.499999999986594
 50
88.999999995685442
 51
179.9999871960008
  0
ARC
  8
DETAIL
  6
CONTINUOUS
 62
     5
 10
63.5
 20
35.473741238599807
 30
0.0
 40
0.5
 50
0.0
 51
89.000000237904516
  0
ARC
  8
DETAIL
  6
CONTINUOUS
 62
     5
 10
65.0
 20
33.947787133399743
 30
0.0
 40
1.00000000000001
 50
180.00069121539681
 51
268.99902813810633
  0
LINE
  8
DETAIL
  6
CONTINUOUS
 62
     5
 10
70.0
 20
-9.3695364582144975
 30
0.0
 11
64.008007720101659
 21
-9.3215527227171151
 31
0.0
  0
ARC
  8
DETAIL
  6
CONTINUOUS
 62
     5
 10
69.0
 20
-30.60719660901805
 30
0.0
 40
0.999999999999978
 50
270.82080562894743
 51
0.0
  0
ARC
  8
DETAIL
  6
CONTINUOUS
 62
     5
 10
63.5
 20
-35.006141524485876
 30
0.0
 40
0.5000000000000201
 50
270.88048004694309
 51
0.0
  0
LINE
  8
DETAIL
  6
CONTINUOUS
 62
     5
 10
126.0857806062002
 20
-9.0158848358000796
 30
0.0
 11
120.4254828899948
 21
-11.14884489981387
 31
0.0
  0
LINE
  8
DETAIL
  6
CONTINUOUS
 62
     5
 10
63.772955935178743
 20
-35.425062826702288
 30
0.0
 11
81.015580057574653
 21
-35.156389139473497
 31
0.0
  0
LINE
  8
DETAIL
  6
CONTINUOUS
 62
     5
 10
62.508726201200027
 20
35.991120151199993
 30
0.0
 11
63.508726200999938
 21
35.973665086199617
 31
0.0
  0
LINE
  8
DETAIL
  6
CONTINUOUS
 62
     5
 10
62.0
 20
-35.529166818800149
 30
0.0
 11
62.0
 21
35.491196303599743
 31
0.0
  0
LINE
  8
DETAIL
  6
CONTINUOUS
 62
     5
 10
61.5
 20
-35.536937539804512
 30
0.0
 11
63.507683335493077
 21
-35.506082487356252
 31
0.0
  0
LINE
  8
DETAIL
  6
CONTINUOUS
 62
     5
 10
74.194826441276064
 20
32.724349615443771
 30
0.0
 11
61.16544710958172
 21
43.828761179243003
 31
0.0
  0
LINE
  8
DETAIL
  6
CONTINUOUS
 62
     5
 10
59.5
 20
-43.965017504000123
 30
0.0
 11
59.5
 21
43.965020176999587
 31
0.0
  0
LINE
  8
DETAIL
  6
CONTINUOUS
 62
     5
 10
61.5
 20
43.499996992199613
 30
0.0
 11
61.00007311100012
 21
43.991273743799873
 31
0.0
  0
LINE
  8
DETAIL
  6
CONTINUOUS
 62
     5
 10
59.5
 20
43.96508987019979
 30
0.0
 11
61.00007311100012
 21
43.991273743799873
 31
0.0
  0
LINE
  8
DETAIL
  6
CONTINUOUS
 62
     5
 10
59.5
 20
-43.965089870000163
 30
0.0
 11
61.00007311100012
 21
-43.991273743600232
 31
0.0
  0
LINE
  8
DETAIL
  6
CONTINUOUS
 62
     5
 10
61.5
 20
-43.499996992000433
 30
0.0
 11
61.00007311100012
 21
-43.991273743600232
 31
0.0
  0
LINE
  8
DETAIL
  6
CONTINUOUS
 62
     5
 10
61.5
 20
43.499952204999772
 30
0.0
 11
61.5
 21
-43.499965203000102
 31
0.0
  0
LINE
  8
DETAIL
  6
CONTINUOUS
 62
     5
 10
39.25
 20
-23.548912278200081
 30
0.0
 11
59.5
 21
-23.548912278200081
 31
0.0
  0
LINE
  8
DETAIL
  6
CONTINUOUS
 62
     5
 10
37.453834890600092
 20
-27.81603369840013
 30
0.0
 11
59.5
 21
-27.81603369840013
 31
0.0
  0
LINE
  8
DETAIL
  6
CONTINUOUS
 62
     5
 10
37.453834890600092
 20
-29.200316026200198
 30
0.0
 11
59.5
 21
-29.200316026200198
 31
0.0
  0
LINE
  8
DETAIL
  6
CONTINUOUS
 62
     5
 10
59.5
 20
-17.25
 30
0.0
 11
49.5
 21
-17.25
 31
0.0
  0
LINE
  8
DETAIL
  6
CONTINUOUS
 62
     5
 10
59.5
 20
-14.25
 30
0.0
 11
49.5
 21
-14.25
 31
0.0
  0
LINE
  8
DETAIL
  6
CONTINUOUS
 62
     5
 10
54.499999999929742
 20
-29.200316026200198
 30
0.0
 11
54.5
 21
-36.290448556200317
 31
0.0
  0
LINE
  8
DETAIL
  6
CONTINUOUS
 62
     5
 10
49.5
 20
-33.290480167000169
 30
0.0
 11
54.5
 21
-33.290480167000169
 31
0.0
  0
LINE
  8
DETAIL
  6
CONTINUOUS
 62
     5
 10
49.5
 20
-36.290480167000169
 30
0.0
 11
54.5
 21
-36.290480167000169
 31
0.0
  0
ARC
  8
OUTLINE
  6
CONTINUOUS
 62
     3
 10
51.730498940625687
 20
58.123295001608767
 30
0.0
 40
9.9999999999999609
 50
260.14624466803838
 51
265.57867891065979
  0
ARC
  8
OUTLINE
  6
CONTINUOUS
 62
     3
 10
48.64689696957862
 20
18.242329631094439
 30
0.0
 40
29.999999999999972
 50
74.526412636275197
 51
85.578678910659875
  0
ARC
  8
OUTLINE
  6
CONTINUOUS
 62
     3
 10
55.437113749306043
 20
40.224926606891131
 30
0.0
 40
7.0000000000000124
 50
26.87604462994026
 51
75.848593004571796
  0
LINE
  8
OUTLINE
  6
CONTINUOUS
 62
     3
 10
50.019159528306552
 20
48.270817271827127
 30
0.0
 11
43.229758824503662
 21
49.450111387390088
 31
0.0
  0
LINE
  8
OUTLINE
  6
CONTINUOUS
 62
     3
 10
43.229758824503598
 20
49.450111387390088
 30
0.0
 11
0.0
 21
49.827371777314063
 31
0.0
  0
LINE
  8
OUTLINE
  6
CONTINUOUS
 62
     3
 10
-23.99999372699995
 20
78.598381288099972
 30
0.0
 11
-24.00104802358544
 21
73.944033037694453
 31
0.0
  0
ARC
  8
OUTLINE
  6
CONTINUOUS
 62
     3
 10
-22.99999372699995
 20
78.598381288099972
 30
0.0
 40
1.000000000000052
 50
91.000359473999978
 51
180.00000627360001
  0
ARC
  8
OUTLINE
  6
CONTINUOUS
 62
     3
 10
-22.700000000000049
 20
71.464663351599938
 30
0.0
 40
2.799999999999971
 50
117.68822059930559
 51
180.00000116609621
  0
ARC
  8
OUTLINE
  6
CONTINUOUS
 62
     3
 10
-25.0
 20
71.845762613600073
 30
0.0
 40
1.000000000000014
 50
271.00000000000182
 51
0.0
  0
LINE
  8
OUTLINE
  6
CONTINUOUS
 62
     3
 10
-0.508726203300057
 20
79.991120151099949
 30
0.0
 11
-23.017452406499839
 21
79.598228873800053
 31
0.0
  0
LINE
  8
OUTLINE
  6
CONTINUOUS
 62
     3
 10
-43.5
 20
70.522691584400036
 30
0.0
 11
-24.982547593599971
 21
70.845914918500057
 31
0.0
  0
LINE
  8
OUTLINE
  6
CONTINUOUS
 62
     3
 10
-25.5
 20
70.836882753099871
 30
0.0
 11
-25.5
 21
71.464623014900098
 31
0.0
  0
ARC
  8
OUTLINE
  6
CONTINUOUS
 62
     3
 10
-43.799999999999947
 20
79.694705203599824
 30
0.0
 40
0.300000000000126
 50
0.0024023135055683
 51
90.999958079488138
  0
ARC
  8
OUTLINE
  6
CONTINUOUS
 62
     3
 10
-48.5
 20
78.912572347299829
 30
0.0
 40
1.00000000000001
 50
90.999999999988745
 51
180.00084192510079
  0
LINE
  8
OUTLINE
  6
CONTINUOUS
 62
     3
 10
-48.517452406499842
 20
79.912420042499889
 30
0.0
 11
-43.805235721999907
 21
79.994672090700078
 31
0.0
  0
LINE
  8
OUTLINE
  6
CONTINUOUS
 62
     3
 10
-21.517452406439361
 20
-79.624411471101212
 30
0.0
 11
-17.491273796779861
 21
-79.69468868015764
 31
0.0
  0
LINE
  8
OUTLINE
  6
CONTINUOUS
 62
     3
 10
-14.491273796779859
 20
-79.747053874951405
 30
0.0
 11
-0.508726203300057
 21
-79.991120151099949
 31
0.0
  0
ARC
  8
OUTLINE
  6
CONTINUOUS
 62
     3
 10
-48.5
 20
-78.912572347300298
 30
0.0
 40
0.999999999999836
 50
179.99915766709779
 51
269.00000000001131
  0
LINE
  8
OUTLINE
  6
CONTINUOUS
 62
     3
 10
-48.517452406499842
 20
-79.912420042499889
 30
0.0
 11
-43.805235721999907
 21
-79.994672090600034
 31
0.0
  0
ARC
  8
OUTLINE
  6
CONTINUOUS
 62
     3
 10
-23.5
 20
-71.871944289599924
 30
0.0
 40
0.99999953940002
 50
359.99994720950627
 51
88.999999078692738
  0
ARC
  8
OUTLINE
  6
CONTINUOUS
 62
     3
 10
-21.5
 20
-78.624563776000301
 30
0.0
 40
1.0
 50
180.0
 51
268.99999999980281
  0
LINE
  8
OUTLINE
  6
CONTINUOUS
 62
     3
 10
-22.5
 20
-78.624563776000301
 30
0.0
 11
-22.5000004606004
 21
-71.871945210967411
 31
0.0
  0
LINE
  8
OUTLINE
  6
CONTINUOUS
 62
     3
 10
-43.5
 20
-70.52269158440005
 30
0.0
 11
-23.482547593599971
 21
-70.87209751580032
 31
0.0
  0
ARC
  8
OUTLINE
  6
CONTINUOUS
 62
     3
 10
-43.799999999999947
 20
-79.69471778210027
 30
0.0
 40
0.300000000000024
 50
269.00000000002427
 51
0.0
  0
LINE
  8
OUTLINE
  6
CONTINUOUS
 62
     3
 10
-43.5
 20
79.694717782099815
 30
0.0
 11
-43.5
 21
-79.69471778210027
 31
0.0
  0
LINE
  8
OUTLINE
  6
CONTINUOUS
 62
     3
 10
-49.5
 20
-78.912572347300298
 30
0.0
 11
-49.5
 21
78.912572347299829
 31
0.0
  0
ARC
  8
OUTLINE
  6
CONTINUOUS
 62
     3
 10
-0.5
 20
79.491187319099936
 30
0.0
 40
0.5
 50
0.0
 51
90.999982033808564
  0
ARC
  8
OUTLINE
  6
CONTINUOUS
 62
     3
 10
-0.5
 20
-79.491196303546531
 30
0.0
 40
0.5000000000000221
 50
268.99999999989399
 51
0.0
  0
LINE
  8
OUTLINE
  6
CONTINUOUS
 62
     3
 10
0.0
 20
79.491187319099936
 30
0.0
 11
0.0
 21
-79.491196303546985
 31
0.0
  0
ARC
  8
OUTLINE
  6
CONTINUOUS
 62
     3
 10
56.799999999923102
 20
46.653971591030768
 30
0.0
 40
0.499999999998636
 50
45.811679646486837
 51
89.02224891588925
  0
ARC
  8
OUTLINE
  6
CONTINUOUS
 62
     3
 10
58.799999999916281
 20
-46.81409867656248
 30
0.0
 40
0.50000000000001
 50
270.50000000008282
 51
0.0
  0
LINE
  8
OUTLINE
  6
CONTINUOUS
 62
     3
 10
59.299999999916281
 20
-46.81409867656248
 30
0.0
 11
59.299999999916281
 21
-43.961598857006322
 31
0.0
  0
LINE
  8
OUTLINE
  6
CONTINUOUS
 62
     3
 10
58.80436326766619
 20
-47.314079638094569
 30
0.0
 11
0.0
 21
-47.527257541933572
 31
0.0
  0
ARC
  8
OUTLINE
  6
CONTINUOUS
 62
     3
 10
126.0
 20
23.882266532599711
 30
0.0
 40
4.0
 50
359.99999880349748
 51
88.999999971893516
  0
LINE
  8
OUTLINE
  6
CONTINUOUS
 62
     3
 10
108.8653173523023
 20
28.18196284278055
 30
0.0
 11
126.06980962759989
 21
27.881657312999781
 31
0.0
  0
ARC
  8
OUTLINE
  6
CONTINUOUS
 62
     3
 10
104.8653820693673
 20
28.159209110528082
 30
0.0
 40
3.9999999999999498
 50
0.3259249643048648
 51
88.945643325067564
  0
LINE
  8
OUTLINE
  6
CONTINUOUS
 62
     3
 10
104.88017553260011
 20
32.159614212999713
 30
0.0
 11
74.194826441275922
 21
32.724349615443892
 31
0.0
  0
LINE
  8
OUTLINE
  6
CONTINUOUS
 62
     3
 10
130.0
 20
-23.88329807460013
 30
0.0
 11
130.0
 21
23.88218144519988
 31
0.0
  0
ARC
  8
OUTLINE
  6
CONTINUOUS
 62
     3
 10
126.0
 20
-23.882266532400081
 30
0.0
 40
4.000000000000024
 50
271.00000010980159
 51
0.0000046942959686
  0
ARC
  8
OUTLINE
  6
CONTINUOUS
 62
     3
 10
104.6880006258523
 20
-26.684268865097241
 30
0.0
 40
3.9999999999999978
 50
271.00000000027541
 51
337.88408962803948
  0
LINE
  8
OUTLINE
  6
CONTINUOUS
 62
     3
 10
108.3936971140357
 20
-28.190195004542801
 30
0.0
 11
126.0698096334002
 21
-27.88165731280014
 31
0.0
  0
LINE
  8
OUTLINE
  6
CONTINUOUS
 62
     3
 10
82.0
 20
-31.080898701400201
 30
0.0
 11
104.75781025162109
 21
-30.6836596457224
 31
0.0
  0
ARC
  8
OUTLINE
  6
CONTINUOUS
 62
     3
 10
81.0
 20
-34.156510515936588
 30
0.0
 40
0.999999999999998
 50
270.89270766179021
 51
0.0
  0
LINE
  8
OUTLINE
  6
CONTINUOUS
 62
     3
 10
82.0
 20
-34.156510515936588
 30
0.0
 11
82.0
 21
-31.080898701400201
 31
0.0
  0
ARC
  8
OUTLINE
  6
CONTINUOUS
 62
     3
 10
63.5
 20
-35.006141524485876
 30
0.0
 40
0.5000000000000201
 50
270.88048004694309
 51
303.08699970907668
  0
LINE
  8
OUTLINE
  6
CONTINUOUS
 62
     3
 10
63.772955935178743
 20
-35.425062826702288
 30
0.0
 11
81.015580057574653
 21
-35.156389139473497
 31
0.0
  0
LINE
  8
OUTLINE
  6
CONTINUOUS
 62
     3
 10
61.5
 20
-35.536937539804512
 30
0.0
 11
63.507683335493077
 21
-35.506082487356252
 31
0.0
  0
LINE
  8
OUTLINE
  6
CONTINUOUS
 62
     3
 10
74.194826441276064
 20
32.724349615443771
 30
0.0
 11
61.681020051798399
 21
43.389359271002711
 31
0.0
  0
LINE
  8
OUTLINE
  6
CONTINUOUS
 62
     3
 10
59.299999999916288
 20
-43.961598857006329
 30
0.0
 11
61.00007311100012
 21
-43.991273743600232
 31
0.0
  0
LINE
  8
OUTLINE
  6
CONTINUOUS
 62
     3
 10
61.5
 20
-43.499996992000433
 30
0.0
 11
61.00007311100012
 21
-43.991273743600232
 31
0.0
  0
LINE
  8
OUTLINE
  6
CONTINUOUS
 62
     3
 10
61.5
 20
-35.536937539804519
 30
0.0
 11
61.5
 21
-43.499965203000102
 31
0.0
  0
ARC
  8
DETAIL
  6
CONTINUOUS
 62
     5
 39
50.0
 10
49.822065609263859
 20
-21.965012634903928
 30
0.0
 40
14.329087419295551
 50
210.3272490187334
 51
268.71209145068502
  0
ARC
  8
DETAIL
  6
CONTINUOUS
 62
     5
 39
50.0
 10
50.355565453921827
 20
-19.74737285698734
 30
0.0
 40
13.57010493166753
 50
224.15490156183361
 51
266.38522883608732
  0
ARC
  8
DETAIL
  6
CONTINUOUS
 62
     5
 39
50.0
 10
59.043229247709178
 20
-44.455568889197018
 30
0.0
 40
28.830820367432679
 50
109.3299622088705
 51
138.48916368106549
  0
ARC
  8
DETAIL
  6
CONTINUOUS
 62
     5
 39
50.0
 10
50.569967377872331
 20
-30.48540247333165
 30
0.0
 40
16.270621489690381
 50
93.770531211652724
 51
143.71891042484751
  0
LINE
  8
DETAIL
  6
CONTINUOUS
 62
     5
 39
50.0
 10
50.299999999941747
 20
40.073641972903687
 30
0.0
 11
37.453834890777443
 21
39.238313113848278
 31
0.0
  0
LINE
  8
DETAIL
  6
CONTINUOUS
 62
     5
 39
50.0
 10
50.299999999941747
 20
44.251873402944909
 30
0.0
 11
37.49999999997749
 21
44.321981932737337
 31
0.0
  0
ARC
  8
DETAIL
  6
CONTINUOUS
 62
     5
 39
50.0
 10
126.09806767246501
 20
-15.109942000847241
 30
0.0
 40
6.0940695518560908
 50
50.187035587992902
 51
90.115521739711824
  0
LINE
  8
DETAIL
  6
CONTINUOUS
 62
     5
 39
50.0
 10
120.4254828899948
 20
-11.14884489981387
 30
0.0
 11
119.413344924185
 21
-17.87008034552866
 31
0.0
  0
LINE
  8
DETAIL
  6
CONTINUOUS
 62
     5
 39
50.0
 10
119.4133449263833
 20
-19.367728662746462
 30
0.0
 11
119.94370143660009
 21
-21.755066288199941
 31
0.0
  0
LINE
  8
DETAIL
  6
CONTINUOUS
 62
     5
 39
50.0
 10
122.1939256247999
 20
-21.16281325320006
 30
0.0
 11
119.94370143660009
 21
-21.755066288199941
 31
0.0
  0
ARC
  8
OUTLINE
  6
CONTINUOUS
 62
     3
 10
-14.799999999999949
 20
-83.700000000098939
 30
0.0
 40
0.3999999999999779
 50
0.0
 51
90.0
  0
ARC
  8
OUTLINE
  6
CONTINUOUS
 62
     3
 10
-14.799999999999949
 20
-83.900000000098757
 30
0.0
 40
0.3999999999999779
 50
270.0
 51
0.0
  0
LINE
  8
OUTLINE
  6
CONTINUOUS
 62
     3
 10
-14.39999999999986
 20
-83.700000000098939
 30
0.0
 11
-14.39999999999986
 21
-83.900000000098757
 31
0.0
  0
LINE
  8
OUTLINE
  6
CONTINUOUS
 62
     3
 10
-15.0
 20
-83.300000000098862
 30
0.0
 11
-14.799999999999949
 21
-83.300000000098862
 31
0.0
  0
LINE
  8
OUTLINE
  6
CONTINUOUS
 62
     3
 10
-15.0
 20
-84.300000000098862
 30
0.0
 11
-14.799999999999949
 21
-84.300000000098862
 31
0.0
  0
ARC
  8
OUTLINE
  6
CONTINUOUS
 62
     3
 10
-17.5
 20
-80.194612527735913
 30
0.0
 40
0.5
 50
0.0
 51
88.999999999815827
  0
ARC
  8
OUTLINE
  6
CONTINUOUS
 62
     3
 10
-14.5
 20
-80.246977722529664
 30
0.0
 40
0.500000000000034
 50
88.999999999815827
 51
180.0
  0
ARC
  8
OUTLINE
  6
CONTINUOUS
 62
     3
 10
-16.5
 20
-84.300000000098862
 30
0.0
 40
0.5
 50
180.0
 51
270.0
  0
ARC
  8
OUTLINE
  6
CONTINUOUS
 62
     3
 10
-15.5
 20
-84.300000000098862
 30
0.0
 40
0.5
 50
270.0
 51
0.0
  0
LINE
  8
OUTLINE
  6
CONTINUOUS
 62
     3
 10
-17.0
 20
-80.194612527735913
 30
0.0
 11
-17.0
 21
-84.300000000098862
 31
0.0
  0
LINE
  8
OUTLINE
  6
CONTINUOUS
 62
     3
 10
-15.0
 20
-80.246977722529664
 30
0.0
 11
-15.0
 21
-83.300000000098862
 31
0.0
  0
LINE
  8
OUTLINE
  6
CONTINUOUS
 62
     3
 10
-16.5
 20
-84.800000000098862
 30
0.0
 11
-15.5
 21
-84.800000000098862
 31
0.0
  0
LINE
  8
DETAIL
  6
CONTINUOUS
 62
     5
 10
37.453834383559311
 20
-47.391479693812393
 30
0.0
 11
37.453834383559311
 21
47.281102318926891
 31
0.0
  0
LINE
  8
DETAIL
  6
CONTINUOUS
 62
     5
 10
56.808532073641317
 20
47.153898789447403
 30
0.0
 11
0.0
 21
47.527257541933572
 31
0.0
  0
LINE
  8
OUTLINE
  6
CONTINUOUS
 62
     3
 10
56.808532073641317
 20
47.153898789447403
 30
0.0
 11
56.650720753681817
 21
47.154935961776943
 31
0.0
  0
TEXT
  8
ETC
  6
CONTINUOUS
 62
    61
 10
633.69356394181386
 20
462.40171619133559
 30
0.0
 40
64.0
  1
V-08PXND8_4
 41
0.9
  0
TEXT
  8
ETC
  6
CONTINUOUS
 62
    61
 10
629.50756994181347
 20
344.4464061765043
 30
0.0
 40
64.0
  1
換気扇
 41
0.9
  0
TEXT
  8
ETC
  6
CONTINUOUS
 62
    61
 10
680.20896819036943
 20
236.29763329027901
 30
0.0
 40
40.0
  1
V-08PXND8
 41
0.9
  0
ENDSEC
  0
EOF
