  0
SECTION
  2
HEADER
  9
$ACADVER
  1
AC1009
  9
$DWGCODEPAGE
  3
dos932
  9
$INSBASE
 10
0.0
 20
0.0
 30
0.0
  9
$EXTMIN
 10
-547.44871381839039
 20
-299.2858767966809
 30
-0.0030708734582987
  9
$EXTMAX
 10
827.51771153127447
 20
696.62476400451851
 30
50.318565402014201
  9
$LIMMIN
 10
-2970.0
 20
-2100.0
  9
$LIMMAX
 10
2970.0
 20
2100.0
  9
$ORTHOMODE
 70
     1
  9
$REGENMODE
 70
     1
  9
$FILLMODE
 70
     1
  9
$QTEXTMODE
 70
     0
  9
$MIRRTEXT
 70
     0
  9
$LTSCALE
 40
20.0
  9
$ATTMODE
 70
     1
  9
$TEXTSIZE
 40
64.0
  9
$TRACEWID
 40
0.05
  9
$TEXTSTYLE
  7
STANDARD
  9
$CLAYER
  8
SIZE
  9
$CELTYPE
  6
CONTINUOUS
  9
$CECOLOR
 62
     7
  9
$DIMSCALE
 40
1.0
  9
$DIMASZ
 40
12.0
  9
$DIMEXO
 40
20.0
  9
$DIMDLI
 40
200.0
  9
$DIMRND
 40
0.0
  9
$DIMDLE
 40
0.0
  9
$DIMEXE
 40
20.0
  9
$DIMTP
 40
0.0
  9
$DIMTM
 40
0.0
  9
$DIMTXT
 40
64.0
  9
$DIMCEN
 40
0.09
  9
$DIMTSZ
 40
0.0
  9
$DIMTOL
 70
     0
  9
$DIMLIM
 70
     0
  9
$DIMTIH
 70
     0
  9
$DIMTOH
 70
     0
  9
$DIMSE1
 70
     0
  9
$DIMSE2
 70
     0
  9
$DIMTAD
 70
     1
  9
$DIMZIN
 70
     8
  9
$DIMBLK
  1

  9
$DIMASO
 70
     1
  9
$DIMSHO
 70
     0
  9
$DIMPOST
  1

  9
$DIMAPOST
  1

  9
$DIMALT
 70
     0
  9
$DIMALTD
 70
     2
  9
$DIMALTF
 40
25.399999999999999
  9
$DIMLFAC
 40
1.0
  9
$DIMTOFL
 70
     1
  9
$DIMTVP
 40
0.0
  9
$DIMTIX
 70
     1
  9
$DIMSOXD
 70
     0
  9
$DIMSAH
 70
     0
  9
$DIMBLK1
  1

  9
$DIMBLK2
  1

  9
$DIMSTYLE
  2
STANDARD
  9
$DIMCLRD
 70
     7
  9
$DIMCLRE
 70
     7
  9
$DIMCLRT
 70
     7
  9
$DIMTFAC
 40
1.0
  9
$DIMGAP
 40
25.0
  9
$LUNITS
 70
     2
  9
$LUPREC
 70
     4
  9
$SKETCHINC
 40
0.1
  9
$FILLETRAD
 40
3.0
  9
$AUNITS
 70
     1
  9
$AUPREC
 70
     3
  9
$MENU
  1
ACAD
  9
$ELEVATION
 40
0.0
  9
$PELEVATION
 40
0.0
  9
$THICKNESS
 40
0.0
  9
$LIMCHECK
 70
     0
  9
$CHAMFERA
 40
0.0
  9
$CHAMFERB
 40
0.0
  9
$SKPOLY
 70
     0
  9
$TDCREATE
 40
2453019.62301037
  9
$TDUPDATE
 40
2459356.660758414
  9
$TDINDWG
 40
1.8055831134
  9
$TDUSRTIMER
 40
1.8055831134
  9
$USRTIMER
 70
     1
  9
$ANGBASE
 50
0.0
  9
$ANGDIR
 70
     0
  9
$PDMODE
 70
     3
  9
$PDSIZE
 40
-2.0
  9
$PLINEWID
 40
0.0
  9
$SPLFRAME
 70
     0
  9
$SPLINETYPE
 70
     6
  9
$SPLINESEGS
 70
     8
  9
$SURFTAB1
 70
     6
  9
$SURFTAB2
 70
     6
  9
$SURFTYPE
 70
     6
  9
$SURFU
 70
     6
  9
$SURFV
 70
     6
  9
$UCSNAME
  2

  9
$UCSORG
 10
0.0
 20
0.0
 30
0.0
  9
$UCSXDIR
 10
1.0
 20
0.0
 30
0.0
  9
$UCSYDIR
 10
0.0
 20
1.0
 30
0.0
  9
$PUCSNAME
  2

  9
$PUCSORG
 10
0.0
 20
0.0
 30
0.0
  9
$PUCSXDIR
 10
1.0
 20
0.0
 30
0.0
  9
$PUCSYDIR
 10
0.0
 20
1.0
 30
0.0
  9
$USERI1
 70
     0
  9
$USERI2
 70
     0
  9
$USERI3
 70
     0
  9
$USERI4
 70
     0
  9
$USERI5
 70
     0
  9
$USERR1
 40
20.0
  9
$USERR2
 40
0.0
  9
$USERR3
 40
0.0
  9
$USERR4
 40
0.0
  9
$USERR5
 40
0.0
  9
$WORLDVIEW
 70
     1
  9
$SHADEDGE
 70
     3
  9
$SHADEDIF
 70
    70
  9
$TILEMODE
 70
     1
  9
$MAXACTVP
 70
    48
  9
$PINSBASE
 10
0.0
 20
0.0
 30
0.0
  9
$PLIMCHECK
 70
     0
  9
$PEXTMIN
 10
-100000000000000000000.0
 20
-100000000000000000000.0
 30
-100000000000000000000.0
  9
$PEXTMAX
 10
100000000000000000000.0
 20
100000000000000000000.0
 30
100000000000000000000.0
  9
$PLIMMIN
 10
0.0
 20
0.0
  9
$PLIMMAX
 10
12.0
 20
9.0
  9
$UNITMODE
 70
     0
  9
$VISRETAIN
 70
     0
  9
$PLINEGEN
 70
     0
  9
$PSLTSCALE
 70
     0
  9
$TREEDEPTH
 70
  3020
  9
$ATTDIA
 70
     0
  9
$ATTREQ
 70
     1
  9
$BLIPMODE
 70
     1
  9
$COORDS
 70
     1
  9
$DRAGMODE
 70
     2
  9
$OSMODE
 70
     0
  9
$HANDLING
 70
     0
  9
$HANDSEED
  5
FEAF
  0
ENDSEC
  0
SECTION
  2
TABLES
  0
TABLE
  2
LTYPE
 70
     2
  0
LTYPE
  2
CONTINUOUS
 70
     0
  3
実線
 72
    65
 73
     0
 40
0.0
  0
LTYPE
  2
DASHDOT
 70
     0
  3
____ _ ____ _ ____ _ ____ _ ____ _ ____ _ ____
 72
    65
 73
     4
 40
5.5
 49
4.0
 49
-0.6
 49
0.3
 49
-0.6
  0
ENDTAB
  0
TABLE
  2
LAYER
 70
    12
  0
LAYER
  2
0
 70
     0
 62
     7
  6
CONTINUOUS
  0
LAYER
  2
BASIS
 70
     0
 62
     6
  6
DASHDOT
  0
LAYER
  2
OUTLINE
 70
     0
 62
     3
  6
CONTINUOUS
  0
LAYER
  2
DETAIL
 70
     0
 62
     5
  6
CONTINUOUS
  0
LAYER
  2
SIZE
 70
     0
 62
    30
  6
CONTINUOUS
  0
LAYER
  2
ARRANGE
 70
     0
 62
     1
  6
CONTINUOUS
  0
LAYER
  2
ETC
 70
     0
 62
    61
  6
CONTINUOUS
  0
LAYER
  2
FIX
 70
     0
 62
    11
  6
CONTINUOUS
  0
LAYER
  2
NOTE
 70
     0
 62
     4
  6
CONTINUOUS
  0
LAYER
  2
DEFPOINTS
 70
    64
 62
     7
  6
CONTINUOUS
  0
LAYER
  2
SERVICESPACE
 70
    64
 62
     2
  6
DASHDOT
  0
LAYER
  2
SYMBOLLINE
 70
    64
 62
    15
  6
CONTINUOUS
  0
ENDTAB
  0
TABLE
  2
STYLE
 70
     1
  0
STYLE
  2
STANDARD
 70
     0
 40
64.0
 41
0.9
 50
0.0
 71
     0
 42
64.0
  3
SIMPLEX.shx
  4
BIGFONT.shx
  0
ENDTAB
  0
TABLE
  2
APPID
 70
    19
  0
APPID
  2
ACAD
 70
     0
  0
APPID
  2
AUTOCAD_POSTSCRIPT_FIGURE
 70
     0
  0
APPID
  2
ACAD_EXEMPT_FROM_CAD_STANDARDS
 70
     0
  0
APPID
  2
ACAD_PSEXT
 70
     0
  0
APPID
  2
ACAUTHENVIRON
 70
     0
  0
APPID
  2
GENIUS_GENOENT_13
 70
     0
  0
APPID
  2
GENIUS_GENCFG_13
 70
     0
  0
APPID
  2
GENIUS_GENCFG0_13
 70
     0
  0
APPID
  2
GENIUS_GENCFG1_13
 70
     0
  0
APPID
  2
GENIUS_GENCFG2_13
 70
     0
  0
APPID
  2
GENIUS_GENCFG3_13
 70
     0
  0
APPID
  2
GENIUS_GENCFG4_13
 70
     0
  0
APPID
  2
GENIUS_GEVCFG0_13
 70
     0
  0
APPID
  2
CONTENTBLOCKICON
 70
     0
  0
APPID
  2
CONTENTBLOCKDESCRIPTION
 70
     0
  0
APPID
  2
ACAD_NAV_VCDISPLAY
 70
     0
  0
APPID
  2
ACAD_MLEADERVER
 70
     0
  0
APPID
  2
ACDBDYNAMICBLOCKTRUENAME
 70
     0
  0
APPID
  2
ACDBDYNAMICBLOCKGUID
 70
     0
  0
ENDTAB
  0
TABLE
  2
DIMSTYLE
 70
     1
  0
DIMSTYLE
  2
STANDARD
 70
     0
  3

  4

  5
_ORIGIN
  6

  7

 40
1.0
 41
12.0
 42
20.0
 43
200.0
 44
20.0
 45
0.0
 46
0.0
 47
0.0
 48
0.0
140
64.0
141
0.09
142
0.0
143
25.399999999999999
144
1.0
145
0.0
146
1.0
147
25.0
 71
     0
 72
     0
 73
     0
 74
     0
 75
     0
 76
     0
 77
     1
 78
     8
170
     0
171
     2
172
     1
173
     0
174
     1
175
     0
176
     7
177
     7
178
     7
  0
ENDTAB
  0
TABLE
  2
VIEW
 70
     1
  0
VIEW
  2
ALL
 70
     0
 40
4282.6198079999986
 10
0.0
 20
41.309904000000003
 41
5940.0
 11
0.0
 21
0.0
 31
1.0
 12
0.0
 22
0.0
 32
0.0
 42
50.0
 43
0.0
 44
0.0
 50
0.0
 71
     0
  0
ENDTAB
  0
TABLE
  2
UCS
 70
     0
  0
ENDTAB
  0
TABLE
  2
VPORT
 70
     1
  0
VPORT
  2
*ACTIVE
 70
     0
 10
0.0
 20
0.0
 11
1.0
 21
1.0
 12
140.03449885644201
 22
198.66944360391881
 13
0.0
 23
0.0
 14
1.0
 24
1.0
 15
0.0
 25
0.0
 16
0.0
 26
0.0
 36
1.0
 17
0.0
 27
0.0
 37
0.0
 40
752.78050935636691
 41
2.056631892697466
 42
50.0
 43
0.0
 44
0.0
 50
0.0
 51
0.0
 71
     0
 72
  1000
 73
     1
 74
     3
 75
     0
 76
     0
 77
     0
 78
     0
  0
ENDTAB
  0
ENDSEC
  0
SECTION
  2
BLOCKS
  0
BLOCK
  8
0
  2
_ORIGIN
 70
     0
 10
0.0
 20
0.0
 30
0.0
  3
_ORIGIN
  1
_ORIGIN
  0
CIRCLE
  8
SIZE
  6
CONTINUOUS
 62
    30
 10
0.0
 20
0.0
 30
0.0
 40
0.5
  0
LINE
  8
SIZE
  6
CONTINUOUS
 62
    30
 10
0.0
 20
0.0
 30
0.0
 11
-1.0
 21
0.0
 31
0.0
  0
ENDBLK
  8
0
  0
ENDSEC
  0
SECTION
  2
ENTITIES
  0
LINE
  8
BASIS
  6
DASHDOT
 62
     6
 39
50.0
 10
0.0
 20
-109.2854010143142
 30
0.0
 11
0.0
 21
142.08408658540429
 31
0.0
  0
LINE
  8
BASIS
  6
DASHDOT
 62
     6
 39
50.0
 10
95.967552833830439
 20
0.0
 30
0.0
 11
-95.967646960021909
 21
0.0
 31
0.0
  0
CIRCLE
  8
FIX
  6
CONTINUOUS
 62
    11
 39
50.315494059942047
 10
69.945735111388387
 20
0.0
 30
0.0
 40
7.0441691683918863
  0
LINE
  8
NOTE
  6
CONTINUOUS
 62
     4
 10
69.945735111388387
 20
-26.021817722442051
 30
0.0
 11
69.945735111388387
 21
26.021817722442051
 31
0.0
  0
LINE
  8
NOTE
  6
CONTINUOUS
 62
     4
 10
95.967552833830439
 20
0.0
 30
0.0
 11
43.923917388946279
 21
0.0
 31
0.0
  0
CIRCLE
  8
FIX
  6
CONTINUOUS
 62
    11
 39
50.315494059942047
 10
-69.945829237579844
 20
0.0
 30
0.0
 40
7.0441691683918863
  0
LINE
  8
NOTE
  6
CONTINUOUS
 62
     4
 10
-69.945829237579844
 20
-26.021817722442051
 30
0.0
 11
-69.945829237579844
 21
26.021817722442051
 31
0.0
  0
LINE
  8
NOTE
  6
CONTINUOUS
 62
     4
 10
-43.924011515137778
 20
0.0
 30
0.0
 11
-95.967646960021909
 21
0.0
 31
0.0
  0
LINE
  8
SIZE
  6
CONTINUOUS
 62
    30
 10
-79.919262437755876
 20
-68.125451844899999
 30
0.0
 11
-79.91926243775589
 21
-225.12943962455171
 31
0.0
  0
LINE
  8
SIZE
  6
CONTINUOUS
 62
    30
 10
79.991120151099949
 20
-68.517452406499842
 30
0.0
 11
79.991120151099921
 21
-225.12943962455171
 31
0.0
  0
LINE
  8
SIZE
  6
CONTINUOUS
 62
    30
 10
-67.91926243775589
 20
-205.12943962455171
 30
0.0
 11
67.991120151099921
 21
-205.12943962455171
 31
0.0
  0
LINE
  8
SIZE
  6
CONTINUOUS
 62
    30
 10
79.991120151099921
 20
-205.12943962455171
 30
0.0
 11
344.42281023155232
 21
-205.12943962455171
 31
0.0
  0
CIRCLE
  8
SIZE
  6
CONTINUOUS
 62
    30
 10
-79.91926243775589
 20
-205.12943962455171
 30
0.0
 40
6.0
  0
LINE
  8
SIZE
  6
CONTINUOUS
 62
    30
 10
-79.91926243775589
 20
-205.12943962455171
 30
0.0
 11
-67.91926243775589
 21
-205.12943962455171
 31
0.0
  0
CIRCLE
  8
SIZE
  6
CONTINUOUS
 62
    30
 10
79.991120151099921
 20
-205.12943962455171
 30
0.0
 40
6.0
  0
LINE
  8
SIZE
  6
CONTINUOUS
 62
    30
 10
79.991120151099921
 20
-205.12943962455171
 30
0.0
 11
67.991120151099921
 21
-205.12943962455171
 31
0.0
  0
TEXT
  8
SIZE
  6
CONTINUOUS
 62
    30
 10
113.1599530886951
 20
-180.12943962455179
 30
0.0
 40
64.0
  1
□160
 41
0.9
 72
     1
 11
218.21138166012369
 21
-180.12943962455179
 31
0.0
  0
LINE
  8
SIZE
  6
CONTINUOUS
 62
    30
 10
-69.945829237579844
 20
46.021817722442051
 30
0.0
 11
-69.945829237579801
 21
619.63393611607853
 31
0.0
  0
LINE
  8
SIZE
  6
CONTINUOUS
 62
    30
 10
69.945735111388387
 20
46.021817722442051
 30
0.0
 11
69.945735111388444
 21
619.63393611607853
 31
0.0
  0
LINE
  8
SIZE
  6
CONTINUOUS
 62
    30
 10
-57.945829237579829
 20
599.63393611607853
 30
0.0
 11
57.945735111388387
 21
599.63393611607853
 31
0.0
  0
CIRCLE
  8
SIZE
  6
CONTINUOUS
 62
    30
 10
-69.945829237579829
 20
599.63393611607853
 30
0.0
 40
6.0
  0
LINE
  8
SIZE
  6
CONTINUOUS
 62
    30
 10
-69.945829237579829
 20
599.63393611607853
 30
0.0
 11
-57.945829237579829
 21
599.63393611607853
 31
0.0
  0
CIRCLE
  8
SIZE
  6
CONTINUOUS
 62
    30
 10
69.945735111388387
 20
599.63393611607853
 30
0.0
 40
6.0
  0
LINE
  8
SIZE
  6
CONTINUOUS
 62
    30
 10
69.945735111388387
 20
599.63393611607853
 30
0.0
 11
57.945735111388387
 21
599.63393611607853
 31
0.0
  0
TEXT
  8
SIZE
  6
CONTINUOUS
 62
    30
 10
-68.571475634524276
 20
624.63393611607853
 30
0.0
 40
64.0
  1
140
 41
0.9
 72
     1
 11
-0.0000470630957068
 21
624.63393611607853
 31
0.0
  0
LINE
  8
SIZE
  6
CONTINUOUS
 62
    30
 10
47.656834031322603
 20
78.810558239126976
 30
0.0
 11
47.65683403132266
 21
483.2881850301078
 31
0.0
  0
LINE
  8
SIZE
  6
CONTINUOUS
 62
    30
 10
-47.656834031322461
 20
78.81055823912709
 30
0.0
 11
-47.656834031322433
 21
483.2881850301078
 31
0.0
  0
LINE
  8
SIZE
  6
CONTINUOUS
 62
    30
 10
35.65683403132266
 20
463.2881850301078
 30
0.0
 11
-35.656834031322433
 21
463.2881850301078
 31
0.0
  0
LINE
  8
SIZE
  6
CONTINUOUS
 62
    30
 10
-47.656834031322433
 20
463.2881850301078
 30
0.0
 11
-276.71121120037361
 21
463.2881850301078
 31
0.0
  0
CIRCLE
  8
SIZE
  6
CONTINUOUS
 62
    30
 10
47.65683403132266
 20
463.2881850301078
 30
0.0
 40
6.0
  0
LINE
  8
SIZE
  6
CONTINUOUS
 62
    30
 10
47.65683403132266
 20
463.2881850301078
 30
0.0
 11
35.65683403132266
 21
463.2881850301078
 31
0.0
  0
CIRCLE
  8
SIZE
  6
CONTINUOUS
 62
    30
 10
-47.656834031322433
 20
463.2881850301078
 30
0.0
 40
6.0
  0
LINE
  8
SIZE
  6
CONTINUOUS
 62
    30
 10
-47.656834031322433
 20
463.2881850301078
 30
0.0
 11
-35.656834031322433
 21
463.2881850301078
 31
0.0
  0
TEXT
  8
SIZE
  6
CONTINUOUS
 62
    30
 10
-261.85978262894503
 20
498.95485169677431
 30
0.0
 40
64.0
  1
φ95
 41
0.9
 72
     1
 11
-174.9112112003736
 21
498.95485169677431
 31
0.0
  0
LINE
  8
SIZE
  6
CONTINUOUS
 62
    30
 10
-27.881657312999781
 20
146.06980962759991
 30
0.0
 11
-27.88165731299976
 21
341.74831162423021
 31
0.0
  0
LINE
  8
SIZE
  6
CONTINUOUS
 62
    30
 10
27.881657312999781
 20
146.06980962759991
 30
0.0
 11
27.881657312999781
 21
341.74831162423021
 31
0.0
  0
LINE
  8
SIZE
  6
CONTINUOUS
 62
    30
 10
39.881657312999778
 20
321.74831162423021
 30
0.0
 11
51.881657312999778
 21
321.74831162423021
 31
0.0
  0
LINE
  8
SIZE
  6
CONTINUOUS
 62
    30
 10
-39.881657312999749
 20
321.74831162423021
 30
0.0
 11
-276.63861542032589
 21
321.74831162423021
 31
0.0
  0
LINE
  8
SIZE
  6
CONTINUOUS
 62
    30
 10
27.881657312999781
 20
321.74831162423021
 30
0.0
 11
-27.88165731299976
 21
321.74831162423021
 31
0.0
  0
CIRCLE
  8
SIZE
  6
CONTINUOUS
 62
    30
 10
27.881657312999781
 20
321.74831162423021
 30
0.0
 40
6.0
  0
LINE
  8
SIZE
  6
CONTINUOUS
 62
    30
 10
27.881657312999781
 20
321.74831162423021
 30
0.0
 11
39.881657312999778
 21
321.74831162423021
 31
0.0
  0
CIRCLE
  8
SIZE
  6
CONTINUOUS
 62
    30
 10
-27.88165731299976
 20
321.74831162423021
 30
0.0
 40
6.0
  0
LINE
  8
SIZE
  6
CONTINUOUS
 62
    30
 10
-27.88165731299976
 20
321.74831162423021
 30
0.0
 11
-39.881657312999778
 21
321.74831162423021
 31
0.0
  0
TEXT
  8
SIZE
  6
CONTINUOUS
 62
    30
 10
-261.78718684889719
 20
357.4149782908969
 30
0.0
 40
64.0
  1
φ56
 41
0.9
 72
     1
 11
-176.21004399175439
 21
357.4149782908969
 31
0.0
  0
LINE
  8
SIZE
  6
CONTINUOUS
 62
    30
 10
-98.912572347299829
 20
-49.5
 30
0.0
 11
-166.01928072223561
 21
-49.5
 31
0.0
  0
LINE
  8
SIZE
  6
CONTINUOUS
 62
    30
 10
-115.96764696002199
 20
0.0
 30
0.0
 11
-166.01928072223561
 21
0.0
 31
0.0
  0
LINE
  8
SIZE
  6
CONTINUOUS
 62
    30
 10
-146.01928072223561
 20
12.0
 30
0.0
 11
-146.01928072223561
 21
24.0
 31
0.0
  0
LINE
  8
SIZE
  6
CONTINUOUS
 62
    30
 10
-146.01928072223561
 20
-61.5
 30
0.0
 11
-146.01928072223569
 21
-299.04285714285697
 31
0.0
  0
LINE
  8
SIZE
  6
CONTINUOUS
 62
    30
 10
-146.01928072223561
 20
0.0
 30
0.0
 11
-146.01928072223561
 21
-49.5
 31
0.0
  0
CIRCLE
  8
SIZE
  6
CONTINUOUS
 62
    30
 10
-146.01928072223561
 20
0.0
 30
0.0
 40
6.0
  0
LINE
  8
SIZE
  6
CONTINUOUS
 62
    30
 10
-146.01928072223561
 20
0.0
 30
0.0
 11
-146.01928072223561
 21
12.0
 31
0.0
  0
CIRCLE
  8
SIZE
  6
CONTINUOUS
 62
    30
 10
-146.01928072223561
 20
-49.5
 30
0.0
 40
6.0
  0
LINE
  8
SIZE
  6
CONTINUOUS
 62
    30
 10
-146.01928072223561
 20
-49.5
 30
0.0
 11
-146.01928072223561
 21
-61.5
 31
0.0
  0
TEXT
  8
SIZE
  6
CONTINUOUS
 62
    30
 10
-171.01928072223561
 20
-274.0428571428572
 30
0.0
 40
64.0
  1
49.5
 50
90.0
 41
0.9
 72
     1
 11
-171.01928072223561
 21
-186.2714285714286
 31
0.0
  0
LINE
  8
SIZE
  6
CONTINUOUS
 62
    30
 10
-115.9676469600219
 20
0.0
 30
0.0
 11
-283.84631854910282
 21
0.0000000000001137
 31
0.0
  0
LINE
  8
SIZE
  6
CONTINUOUS
 62
    30
 10
-63.499952204999772
 20
61.5
 30
0.0
 11
-283.84631854910282
 21
61.500000000000107
 31
0.0
  0
LINE
  8
SIZE
  6
CONTINUOUS
 62
    30
 10
-263.84631854910282
 20
73.5
 30
0.0
 11
-263.84631854910282
 21
85.5
 31
0.0
  0
LINE
  8
SIZE
  6
CONTINUOUS
 62
    30
 10
-263.84631854910282
 20
-11.99999999999989
 30
0.0
 11
-263.84631854910282
 21
-244.05714285714279
 31
0.0
  0
LINE
  8
SIZE
  6
CONTINUOUS
 62
    30
 10
-263.84631854910282
 20
61.500000000000107
 30
0.0
 11
-263.84631854910282
 21
0.0000000000001137
 31
0.0
  0
CIRCLE
  8
SIZE
  6
CONTINUOUS
 62
    30
 10
-263.84631854910282
 20
61.500000000000107
 30
0.0
 40
6.0
  0
LINE
  8
SIZE
  6
CONTINUOUS
 62
    30
 10
-263.84631854910282
 20
61.500000000000107
 30
0.0
 11
-263.84631854910282
 21
73.5
 31
0.0
  0
CIRCLE
  8
SIZE
  6
CONTINUOUS
 62
    30
 10
-263.84631854910282
 20
0.0000000000001137
 30
0.0
 40
6.0
  0
LINE
  8
SIZE
  6
CONTINUOUS
 62
    30
 10
-263.84631854910282
 20
0.0000000000001137
 30
0.0
 11
-263.84631854910282
 21
-11.99999999999989
 31
0.0
  0
TEXT
  8
SIZE
  6
CONTINUOUS
 62
    30
 10
-288.84631854910282
 20
-219.05714285714291
 30
0.0
 40
64.0
  1
61.5
 50
90.0
 41
0.9
 72
     1
 11
-288.84631854910282
 21
-136.7714285714286
 31
0.0
  0
LINE
  8
SIZE
  6
CONTINUOUS
 62
    30
 10
-115.96764696002199
 20
0.0
 30
0.0
 11
-404.80900189023851
 21
0.0000000000001137
 31
0.0
  0
LINE
  8
SIZE
  6
CONTINUOUS
 62
    30
 10
-43.882181445199883
 20
130.0
 30
0.0
 11
-404.80900189023828
 21
130.00000000000011
 31
0.0
  0
LINE
  8
SIZE
  6
CONTINUOUS
 62
    30
 10
-384.80900189023851
 20
118.0000000000001
 30
0.0
 11
-384.80900189023851
 21
12.00000000000011
 31
0.0
  0
LINE
  8
SIZE
  6
CONTINUOUS
 62
    30
 10
-384.80900189023851
 20
0.0000000000001137
 30
0.0
 11
-384.80900189023862
 21
-218.46736135373669
 31
0.0
  0
CIRCLE
  8
SIZE
  6
CONTINUOUS
 62
    30
 10
-384.80900189023828
 20
130.00000000000011
 30
0.0
 40
6.0
  0
LINE
  8
SIZE
  6
CONTINUOUS
 62
    30
 10
-384.80900189023828
 20
130.00000000000011
 30
0.0
 11
-384.80900189023828
 21
118.0000000000001
 31
0.0
  0
CIRCLE
  8
SIZE
  6
CONTINUOUS
 62
    30
 10
-384.80900189023851
 20
0.0000000000001137
 30
0.0
 40
6.0
  0
LINE
  8
SIZE
  6
CONTINUOUS
 62
    30
 10
-384.80900189023851
 20
0.0000000000001137
 30
0.0
 11
-384.80900189023851
 21
12.00000000000011
 31
0.0
  0
TEXT
  8
SIZE
  6
CONTINUOUS
 62
    30
 10
-409.80900189023851
 20
-193.46736135373669
 30
0.0
 40
64.0
  1
130
 50
90.0
 41
0.9
 72
     1
 11
-409.80900189023851
 21
-124.89593278230809
 31
0.0
  0
TEXT
  8
NOTE
  6
CONTINUOUS
 62
     4
 10
142.25035519483211
 20
57.077251435147453
 30
0.0
 40
64.0
  1
2-φ4×10
 41
0.9
  0
TEXT
  8
NOTE
  6
CONTINUOUS
 62
     4
 10
-547.14293999995743
 20
188.31271435784399
 30
0.0
 40
64.0
  1
2-φ5×7
 41
0.9
  0
TEXT
  8
NOTE
  6
CONTINUOUS
 62
     4
 10
149.43456816008529
 20
220.72169738660611
 30
0.0
 40
64.0
  1
EL
 41
0.9
  0
LINE
  8
NOTE
  6
CONTINUOUS
 62
     4
 10
-72.099484790491871
 20
5.826359673879665
 30
0.0
 11
-69.945829237579844
 21
0.0
 31
0.0
  0
LINE
  8
NOTE
  6
CONTINUOUS
 62
     4
 10
-69.945829237579844
 20
0.0
 30
0.0
 11
-74.724135475318377
 21
3.9689405120748229
 31
0.0
  0
LINE
  8
NOTE
  6
CONTINUOUS
 62
     4
 10
-69.945829237579844
 20
0.0
 30
0.0
 11
-76.877791028230433
 21
9.7953001859544884
 31
0.0
  0
LINE
  8
NOTE
  6
CONTINUOUS
 62
     4
 10
-76.877791028230405
 20
9.7953001859544884
 30
0.0
 11
-184.66517609675799
 21
163.11207511217529
 31
0.0
  0
LINE
  8
NOTE
  6
CONTINUOUS
 62
     4
 10
-184.66517609675799
 20
163.11207511217529
 30
0.0
 11
-547.14293999995743
 21
163.11207511217529
 31
0.0
  0
LINE
  8
NOTE
  6
CONTINUOUS
 62
     4
 10
65.648774163424861
 20
11.097725531963871
 30
0.0
 11
137.43456816008529
 21
188.72169738660611
 31
0.0
  0
LINE
  8
NOTE
  6
CONTINUOUS
 62
     4
 10
137.43456816008529
 20
188.72169738660611
 30
0.0
 11
234.4631395886567
 21
188.72169738660611
 31
0.0
  0
LINE
  8
NOTE
  6
CONTINUOUS
 62
     4
 10
76.103119550871327
 20
0.8193388520101053
 30
0.0
 11
69.945735111388387
 21
0.0
 31
0.0
  0
LINE
  8
NOTE
  6
CONTINUOUS
 62
     4
 10
69.945735111388387
 20
0.0
 30
0.0
 11
74.868511322141558
 21
3.7882678982408611
 31
0.0
  0
LINE
  8
NOTE
  6
CONTINUOUS
 62
     4
 10
69.945735111388387
 20
0.0
 30
0.0
 11
81.025895761624497
 21
4.6076067502510796
 31
0.0
  0
LINE
  8
NOTE
  6
CONTINUOUS
 62
     4
 10
81.025895761624497
 20
4.6076067502510796
 30
0.0
 11
130.25035519483211
 21
25.077251435147449
 31
0.0
  0
LINE
  8
NOTE
  6
CONTINUOUS
 62
     4
 10
130.25035519483211
 20
25.077251435147449
 30
0.0
 11
535.34347267427074
 21
25.077251435147449
 31
0.0
  0
CIRCLE
  8
FIX
  6
CONTINUOUS
 62
    11
 39
50.315494059942047
 10
61.083635828478243
 20
0.0
 30
0.0
 40
7.0441691683918863
  0
LINE
  8
NOTE
  6
CONTINUOUS
 62
     4
 10
61.083635828478243
 20
-26.021817722442051
 30
0.0
 11
61.083635828478243
 21
26.021817722442169
 31
0.0
  0
LINE
  8
NOTE
  6
CONTINUOUS
 62
     4
 10
87.105453550920288
 20
0.0
 30
0.0
 11
35.061818106036178
 21
0.0
 31
0.0
  0
LINE
  8
NOTE
  6
CONTINUOUS
 62
     4
 10
64.853022774096416
 20
4.9372483575574506
 30
0.0
 11
61.083635828478243
 21
0.0
 31
0.0
  0
LINE
  8
NOTE
  6
CONTINUOUS
 62
     4
 10
61.083635828478243
 20
0.0
 30
0.0
 11
61.879387217806709
 21
6.1604771744064237
 31
0.0
  0
LINE
  8
NOTE
  6
CONTINUOUS
 62
     4
 10
61.083635828478243
 20
0.0
 30
0.0
 11
65.648774163424889
 21
11.097725531963871
 31
0.0
  0
ARC
  8
DETAIL
  6
CONTINUOUS
 62
     5
 10
12.499999999999771
 20
-16.0
 30
0.0
 40
1.000000000000014
 50
0.0
 51
90.0
  0
LINE
  8
DETAIL
  6
CONTINUOUS
 62
     5
 10
-12.5
 20
-15.0
 30
0.0
 11
12.499999999999771
 21
-15.0
 31
0.0
  0
ARC
  8
DETAIL
  6
CONTINUOUS
 62
     5
 10
-12.5
 20
-16.0
 30
0.0
 40
1.0
 50
90.0
 51
180.0
  0
LINE
  8
DETAIL
  6
CONTINUOUS
 62
     5
 10
13.499999999999771
 20
-16.0
 30
0.0
 11
13.499999999999771
 21
-17.0
 31
0.0
  0
LINE
  8
DETAIL
  6
CONTINUOUS
 62
     5
 10
-13.5
 20
-16.0
 30
0.0
 11
-13.5
 21
-17.0
 31
0.0
  0
LINE
  8
DETAIL
  6
CONTINUOUS
 62
     5
 39
50.0
 10
13.499999999999771
 20
-17.0
 30
0.0
 11
-13.5
 21
-17.0
 31
0.0
  0
CIRCLE
  8
ARRANGE
  6
CONTINUOUS
 62
     1
 10
0.0
 20
0.0
 30
0.0
 40
40.0
  0
POINT
  8
ARRANGE
  6
CONTINUOUS
 62
     1
 10
0.0
 20
0.0
 30
0.0
 39
50.0
  0
LINE
  8
DETAIL
  6
CONTINUOUS
 62
     5
 10
-42.127120270288742
 20
37.453834890777443
 30
0.0
 11
-42.127120270288742
 21
50.299999999941747
 31
0.0
  0
ARC
  8
DETAIL
  6
CONTINUOUS
 62
     5
 10
-40.224926606891131
 20
55.437113749306043
 30
0.0
 40
7.0000000000000124
 50
116.8760446299444
 51
165.84859300457461
  0
ARC
  8
DETAIL
  6
CONTINUOUS
 62
     5
 10
-13.65979797469981
 20
-22.700000000000049
 30
0.0
 40
2.8000000000000158
 50
311.39981579779959
 51
314.99999999999108
  0
LINE
  8
DETAIL
  6
CONTINUOUS
 62
     5
 10
-15.459165436699999
 20
-35.62062408809993
 30
0.0
 11
-0.2431069120366374
 21
-24.80000001918177
 31
0.0
  0
LINE
  8
DETAIL
  6
CONTINUOUS
 62
     5
 10
-26.512908206600059
 20
-43.5
 30
0.0
 11
-15.459165436699999
 21
-35.62062408809993
 31
0.0
  0
LINE
  8
DETAIL
  6
CONTINUOUS
 62
     5
 10
15.245565492500191
 20
-35.468446581299958
 30
0.0
 11
26.512909919700181
 21
-43.5
 31
0.0
  0
LINE
  8
DETAIL
  6
CONTINUOUS
 62
     5
 10
9.2111995061000016
 20
-31.172898161499919
 30
0.0
 11
15.245565492500191
 21
-35.468446581299958
 31
0.0
  0
LINE
  8
DETAIL
  6
CONTINUOUS
 62
     5
 10
0.2320467744948473
 20
-24.800000019021748
 30
0.0
 11
9.2111995061000016
 21
-31.172898161499919
 31
0.0
  0
LINE
  8
DETAIL
  6
CONTINUOUS
 62
     5
 10
-58.987639171967878
 20
-24.80000003896328
 30
0.0
 11
58.987639170987222
 21
-24.799999999236519
 31
0.0
  0
ARC
  8
DETAIL
  6
CONTINUOUS
 62
     5
 10
-78.598381288099972
 20
-22.99999372699995
 30
0.0
 40
1.000000000000052
 50
181.00035947399999
 51
270.00000627359998
  0
ARC
  8
DETAIL
  6
CONTINUOUS
 62
     5
 10
-49.840202025399783
 20
-22.700000000000049
 30
0.0
 40
2.800000000000054
 50
225.00000000000881
 51
228.6215035164968
  0
ARC
  8
DETAIL
  6
CONTINUOUS
 62
     5
 10
-71.464663351599938
 20
-22.700000000000049
 30
0.0
 40
2.799999999999971
 50
207.68822059930201
 51
270.00000116609618
  0
ARC
  8
DETAIL
  6
CONTINUOUS
 62
     5
 10
-58.154238307799908
 20
-25.0
 30
0.0
 40
0.99999953940002
 50
89.99994720950636
 51
178.99999907869281
  0
ARC
  8
DETAIL
  6
CONTINUOUS
 62
     5
 10
-71.845762613600073
 20
-25.0
 30
0.0
 40
1.000000000000014
 50
1.000000000001749
 51
90.0
  0
LINE
  8
DETAIL
  6
CONTINUOUS
 62
     5
 10
-79.991120151099949
 20
-0.508726203300057
 30
0.0
 11
-79.598228873800053
 21
-23.017452406499839
 31
0.0
  0
LINE
  8
DETAIL
  6
CONTINUOUS
 62
     5
 10
-70.522691584400036
 20
-43.5
 30
0.0
 11
-70.845914918500057
 21
-24.982547593599971
 31
0.0
  0
LINE
  8
DETAIL
  6
CONTINUOUS
 62
     5
 10
-59.477308415599957
 20
-43.5
 30
0.0
 11
-59.154085081499943
 21
-24.982547593599971
 31
0.0
  0
LINE
  8
DETAIL
  6
CONTINUOUS
 62
     5
 10
-70.836882753099871
 20
-25.5
 30
0.0
 11
-71.464623014900098
 21
-25.5
 31
0.0
  0
LINE
  8
DETAIL
  6
CONTINUOUS
 62
     5
 10
-59.154085072899761
 20
-24.982547060599899
 30
0.0
 11
-59.157777650199932
 21
-24.981096483799998
 31
0.0
  0
LINE
  8
DETAIL
  6
CONTINUOUS
 62
     5
 10
-51.820101012699979
 20
-24.67989898739981
 30
0.0
 11
-52.5
 21
-24.0
 31
0.0
  0
ARC
  8
DETAIL
  6
CONTINUOUS
 62
     5
 10
-79.694705203599824
 20
-43.799999999999933
 30
0.0
 40
0.300000000000126
 50
90.002402313505584
 51
180.9999580794881
  0
ARC
  8
DETAIL
  6
CONTINUOUS
 62
     5
 10
-78.912572347299829
 20
-48.5
 30
0.0
 40
1.00000000000001
 50
180.99999999998869
 51
270.00084192510081
  0
LINE
  8
DETAIL
  6
CONTINUOUS
 62
     5
 10
-79.912420042499889
 20
-48.517452406499842
 30
0.0
 11
-79.994672090700078
 21
-43.805235721999907
 31
0.0
  0
LINE
  8
DETAIL
  6
CONTINUOUS
 62
     5
 10
-58.987639171967878
 20
-24.80000003896328
 30
0.0
 11
-59.449252215599699
 21
-43.5
 31
0.0
  0
LINE
  8
DETAIL
  6
CONTINUOUS
 62
     5
 10
-59.053782925299863
 20
-27.593736478899899
 30
0.0
 11
-59.060280146799869
 21
-27.742946511999889
 31
0.0
  0
LINE
  8
DETAIL
  6
CONTINUOUS
 62
     5
 10
79.912420042499889
 20
-48.517452406499842
 30
0.0
 11
79.994672090600034
 21
-43.805235721999907
 31
0.0
  0
LINE
  8
DETAIL
  6
CONTINUOUS
 62
     5
 10
-79.694717782099815
 20
-43.5
 30
0.0
 11
79.69471778210027
 21
-43.5
 31
0.0
  0
LINE
  8
DETAIL
  6
CONTINUOUS
 62
     5
 10
-79.919262437755833
 20
-48.12545184489997
 30
0.0
 11
79.83977981033695
 21
-48.12545184489997
 31
0.0
  0
LINE
  8
DETAIL
  6
CONTINUOUS
 62
     5
 10
78.912572347300284
 20
-49.5
 30
0.0
 11
-78.912572347299829
 21
-49.5
 31
0.0
  0
LINE
  8
DETAIL
  6
CONTINUOUS
 62
     5
 10
-26.379010463712799
 20
50.299999999941747
 30
0.0
 11
-44.251873402944973
 21
50.299999999941747
 31
0.0
  0
ARC
  8
DETAIL
  6
CONTINUOUS
 62
     5
 10
-79.491187319099936
 20
-0.5
 30
0.0
 40
0.5
 50
90.0
 51
180.99998203380849
  0
LINE
  8
DETAIL
  6
CONTINUOUS
 62
     5
 10
-79.491187319099936
 20
0.0
 30
0.0
 11
79.491196303546985
 21
0.0
 31
0.0
  0
LINE
  8
DETAIL
  6
CONTINUOUS
 62
     5
 10
-47.153898789529649
 20
56.808532073723427
 30
0.0
 11
-47.527257542156804
 21
0.0
 31
0.0
  0
LINE
  8
DETAIL
  6
CONTINUOUS
 62
     5
 10
-26.96506604728847
 20
55.499999999927013
 30
0.0
 11
-26.947610982367681
 21
54.499999999929742
 31
0.0
  0
LINE
  8
DETAIL
  6
CONTINUOUS
 62
     5
 10
-39.672309231950287
 20
57.299999999921738
 30
0.0
 11
-46.653971590731089
 21
57.299999999921738
 31
0.0
  0
ARC
  8
DETAIL
  6
CONTINUOUS
 62
     5
 10
-28.607132606181491
 20
54.999999999928377
 30
0.0
 40
0.499999999998626
 50
181.2246682385065
 51
269.99999999989569
  0
LINE
  8
DETAIL
  6
CONTINUOUS
 62
     5
 10
-39.672309231950287
 20
57.299999999921738
 30
0.0
 11
-39.648795221497039
 21
59.5
 31
0.0
  0
LINE
  8
DETAIL
  6
CONTINUOUS
 62
     5
 10
-14.069333660222579
 20
55.499999999927013
 30
0.0
 11
14.25
 21
55.499999999926793
 31
0.0
  0
LINE
  8
DETAIL
  6
CONTINUOUS
 62
     5
 10
-29.117936834380089
 20
55.499999999927013
 30
0.0
 11
-26.056744395688838
 21
55.499999999927013
 31
0.0
  0
LINE
  8
DETAIL
  6
CONTINUOUS
 62
     5
 10
-14.007053724422351
 20
54.499999999929742
 30
0.0
 11
14.25
 21
54.499999999929742
 31
0.0
  0
LINE
  8
DETAIL
  6
CONTINUOUS
 62
     5
 10
-28.607132606181491
 20
54.499999999929742
 30
0.0
 11
-26.11836502486085
 21
54.499999999929742
 31
0.0
  0
LINE
  8
DETAIL
  6
CONTINUOUS
 62
     5
 10
-29.11793683348014
 20
55.499999964026983
 30
0.0
 11
-29.107018549379969
 21
54.989274757228259
 31
0.0
  0
ARC
  8
DETAIL
  6
CONTINUOUS
 62
     5
 10
-46.653971591030768
 20
56.799999999923102
 30
0.0
 40
0.499999999998636
 50
90.0
 51
179.02224891588929
  0
ARC
  8
DETAIL
  6
CONTINUOUS
 62
     5
 10
-45.235966375934588
 20
56.803383970823802
 30
0.0
 40
0.507474319198325
 50
359.12527345086431
 51
78.126226921546589
  0
ARC
  8
DETAIL
  6
CONTINUOUS
 62
     5
 10
4825.5665073613991
 20
-17.44933103826142
 30
0.0
 40
4870.8609349288436
 50
179.12662502570109
 51
179.35416215995221
  0
LINE
  8
DETAIL
  6
CONTINUOUS
 62
     5
 10
-25.820484523315368
 20
59.299999999916281
 30
0.0
 11
-27.17622340239177
 21
37.453834890777443
 31
0.0
  0
LINE
  8
DETAIL
  6
CONTINUOUS
 62
     5
 10
-29.462316400479271
 20
50.299999999941292
 30
0.0
 11
-29.68814482256721
 21
37.453834890777443
 31
0.0
  0
LINE
  8
DETAIL
  6
CONTINUOUS
 62
     5
 10
-14.03510846002246
 20
54.950100376528333
 30
0.0
 11
-14.30568969522756
 21
59.297555430784712
 31
0.0
  0
LINE
  8
DETAIL
  6
CONTINUOUS
 62
     5
 10
-12.94134258873328
 20
37.453834890777443
 30
0.0
 11
-14.03510846002246
 21
54.950100376528333
 31
0.0
  0
LINE
  8
DETAIL
  6
CONTINUOUS
 62
     5
 10
-15.92620989691704
 20
59.293344835916059
 30
0.0
 11
-16.08015061841661
 21
59.299989638016307
 31
0.0
  0
LINE
  8
DETAIL
  6
CONTINUOUS
 62
     5
 10
-14.30568969522756
 20
59.297555430784712
 30
0.0
 11
-25.820484523315368
 21
59.299999999916281
 31
0.0
  0
LINE
  8
DETAIL
  6
CONTINUOUS
 62
     5
 10
-47.281102315723963
 20
37.453834890777443
 30
0.0
 11
47.281102315723963
 21
37.453834890777443
 31
0.0
  0
LINE
  8
DETAIL
  6
CONTINUOUS
 62
     5
 10
-29.160692835899681
 20
55.500000035700168
 30
0.0
 11
-29.075180831682701
 21
59.5
 31
0.0
  0
LINE
  8
DETAIL
  6
CONTINUOUS
 62
     5
 10
-26.96506604728847
 20
55.499999999927013
 30
0.0
 11
-26.895245787575281
 21
59.5
 31
0.0
  0
ARC
  8
DETAIL
  6
CONTINUOUS
 62
     5
 10
-23.882266532599711
 20
126.0
 30
0.0
 40
4.0
 50
89.999998803497519
 51
178.99999997189349
  0
LINE
  8
DETAIL
  6
CONTINUOUS
 62
     5
 10
-28.860359480752781
 20
70.0
 30
0.0
 11
-27.881657312999781
 21
126.06980962759989
 31
0.0
  0
ARC
  8
DETAIL
  6
CONTINUOUS
 62
     5
 10
-31.877517634199648
 20
69.000003404200015
 30
0.0
 40
0.999996595800034
 50
90.000100147494976
 51
178.3946874588035
  0
LINE
  8
DETAIL
  6
CONTINUOUS
 62
     5
 10
23.88329807460013
 20
130.0
 30
0.0
 11
-23.88218144519988
 21
130.0
 31
0.0
  0
LINE
  8
DETAIL
  6
CONTINUOUS
 62
     5
 10
-31.87751956019974
 20
70.0
 30
0.0
 11
31.87751956019974
 21
70.0
 31
0.0
  0
LINE
  8
DETAIL
  6
CONTINUOUS
 62
     5
 10
35.473741238599807
 20
64.0
 30
0.0
 11
-35.473741238599807
 21
64.0
 31
0.0
  0
LINE
  8
DETAIL
  6
CONTINUOUS
 62
     5
 10
-32.947939734199743
 20
64.982530633800025
 30
0.0
 11
-32.87732460999996
 21
69.028068387600115
 31
0.0
  0
ARC
  8
DETAIL
  6
CONTINUOUS
 62
     5
 10
-35.491196303599743
 20
62.5
 30
0.0
 40
0.499999999986594
 50
178.9999999956855
 51
269.9999871960008
  0
ARC
  8
DETAIL
  6
CONTINUOUS
 62
     5
 10
-35.473741238599807
 20
63.5
 30
0.0
 40
0.5
 50
90.0
 51
179.0000002379046
  0
ARC
  8
DETAIL
  6
CONTINUOUS
 62
     5
 10
-33.947787133399743
 20
65.0
 30
0.0
 40
1.00000000000001
 50
270.00069121539678
 51
358.99902813810633
  0
LINE
  8
DETAIL
  6
CONTINUOUS
 62
     5
 10
-35.991120151199993
 20
62.508726201200027
 30
0.0
 11
-35.973665086199617
 21
63.508726200999938
 31
0.0
  0
LINE
  8
DETAIL
  6
CONTINUOUS
 62
     5
 10
35.529166818800149
 20
62.0
 30
0.0
 11
-35.491196303599743
 21
62.0
 31
0.0
  0
LINE
  8
DETAIL
  6
CONTINUOUS
 62
     5
 10
-28.704814704653469
 20
78.911154252865003
 30
0.0
 11
-43.543635319408168
 21
61.5
 31
0.0
  0
LINE
  8
DETAIL
  6
CONTINUOUS
 62
     5
 10
43.965017504000123
 20
59.5
 30
0.0
 11
-43.965020176999587
 21
59.5
 31
0.0
  0
LINE
  8
DETAIL
  6
CONTINUOUS
 62
     5
 10
-43.499996992199613
 20
61.5
 30
0.0
 11
-43.991273743799873
 21
61.00007311100012
 31
0.0
  0
LINE
  8
DETAIL
  6
CONTINUOUS
 62
     5
 10
-43.96508987019979
 20
59.5
 30
0.0
 11
-43.991273743799873
 21
61.00007311100012
 31
0.0
  0
LINE
  8
DETAIL
  6
CONTINUOUS
 62
     5
 10
-43.573632885999807
 20
61.42512463980006
 30
0.0
 11
-43.573452825590721
 21
61.425765964072532
 31
0.0
  0
LINE
  8
DETAIL
  6
CONTINUOUS
 62
     5
 10
-43.573452825590721
 20
61.425765964072532
 30
0.0
 11
-43.573270815320939
 21
61.426413015938351
 31
0.0
  0
LINE
  8
DETAIL
  6
CONTINUOUS
 62
     5
 10
-43.573270815320939
 20
61.426413015938351
 30
0.0
 11
-43.573086699399482
 21
61.427065549093868
 31
0.0
  0
LINE
  8
DETAIL
  6
CONTINUOUS
 62
     5
 10
-43.573086699399482
 20
61.427065549093868
 30
0.0
 11
-43.57290749831418
 21
61.42769942164341
 31
0.0
  0
LINE
  8
DETAIL
  6
CONTINUOUS
 62
     5
 10
-43.57290749831418
 20
61.42769942164341
 30
0.0
 11
-43.572735007332078
 21
61.428308655056071
 31
0.0
  0
LINE
  8
DETAIL
  6
CONTINUOUS
 62
     5
 10
-43.572735007332078
 20
61.428308655056071
 30
0.0
 11
-43.572542944564248
 21
61.428983819848327
 31
0.0
  0
LINE
  8
DETAIL
  6
CONTINUOUS
 62
     5
 10
-43.572542944564248
 20
61.428983819848327
 30
0.0
 11
-43.572542944564248
 21
61.428983819848327
 31
0.0
  0
LINE
  8
DETAIL
  6
CONTINUOUS
 62
     5
 10
-43.572542944564248
 20
61.428983819848327
 30
0.0
 11
-43.572324291918903
 21
61.429749048648318
 31
0.0
  0
LINE
  8
DETAIL
  6
CONTINUOUS
 62
     5
 10
-43.572324291918903
 20
61.429749048648318
 30
0.0
 11
-43.572177163656313
 21
61.430266173487333
 31
0.0
  0
LINE
  8
DETAIL
  6
CONTINUOUS
 62
     5
 10
-43.572177163656313
 20
61.430266173487333
 30
0.0
 11
-43.572127844063743
 21
61.430444614582711
 31
0.0
  0
LINE
  8
DETAIL
  6
CONTINUOUS
 62
     5
 10
-43.572127844063743
 20
61.430444614582711
 30
0.0
 11
-43.571810165175521
 21
61.431546445494398
 31
0.0
  0
LINE
  8
DETAIL
  6
CONTINUOUS
 62
     5
 10
-43.571810165175521
 20
61.431546445494398
 30
0.0
 11
-43.570911950600021
 21
61.434637025226273
 31
0.0
  0
LINE
  8
DETAIL
  6
CONTINUOUS
 62
     5
 10
-43.570911950600021
 20
61.434637025226273
 30
0.0
 11
-43.569729442490832
 21
61.438642201215089
 31
0.0
  0
LINE
  8
DETAIL
  6
CONTINUOUS
 62
     5
 10
-43.569729442490832
 20
61.438642201215089
 30
0.0
 11
-43.569729442490832
 21
61.438642201215089
 31
0.0
  0
LINE
  8
DETAIL
  6
CONTINUOUS
 62
     5
 10
-43.569729442490832
 20
61.438642201215089
 30
0.0
 11
-43.568613818120873
 21
61.44229323068248
 31
0.0
  0
LINE
  8
DETAIL
  6
CONTINUOUS
 62
     5
 10
-43.568613818120873
 20
61.44229323068248
 30
0.0
 11
-43.56752757669301
 21
61.445682521560002
 31
0.0
  0
LINE
  8
DETAIL
  6
CONTINUOUS
 62
     5
 10
-43.56752757669301
 20
61.445682521560002
 30
0.0
 11
-43.56752757669301
 21
61.445682521560002
 31
0.0
  0
LINE
  8
DETAIL
  6
CONTINUOUS
 62
     5
 10
-43.56752757669301
 20
61.445682521560002
 30
0.0
 11
-43.566363092707427
 21
61.449151652497683
 31
0.0
  0
LINE
  8
DETAIL
  6
CONTINUOUS
 62
     5
 10
-43.566363092707427
 20
61.449151652497683
 30
0.0
 11
-43.565120919919991
 21
61.452677734315102
 31
0.0
  0
LINE
  8
DETAIL
  6
CONTINUOUS
 62
     5
 10
-43.565120919919991
 20
61.452677734315102
 30
0.0
 11
-43.563817647161159
 21
61.456170941028397
 31
0.0
  0
LINE
  8
DETAIL
  6
CONTINUOUS
 62
     5
 10
-43.563817647161159
 20
61.456170941028397
 30
0.0
 11
-43.56242582430923
 21
61.459638167266583
 31
0.0
  0
LINE
  8
DETAIL
  6
CONTINUOUS
 62
     5
 10
-43.56242582430923
 20
61.459638167266583
 30
0.0
 11
-43.56242582430923
 21
61.459638167266583
 31
0.0
  0
LINE
  8
DETAIL
  6
CONTINUOUS
 62
     5
 10
-43.56242582430923
 20
61.459638167266583
 30
0.0
 11
-43.560923985643058
 21
61.463104884156337
 31
0.0
  0
LINE
  8
DETAIL
  6
CONTINUOUS
 62
     5
 10
-43.560923985643058
 20
61.463104884156337
 30
0.0
 11
-43.559358641999552
 21
61.466574148200152
 31
0.0
  0
LINE
  8
DETAIL
  6
CONTINUOUS
 62
     5
 10
-43.499952204999772
 20
61.5
 30
0.0
 11
43.499965203000102
 21
61.5
 31
0.0
  0
ARC
  8
DETAIL
  6
CONTINUOUS
 62
     5
 10
78.598381288099972
 20
-22.99999372699995
 30
0.0
 40
1.000000000000052
 50
269.99999372640002
 51
358.99964052600012
  0
ARC
  8
DETAIL
  6
CONTINUOUS
 62
     5
 10
71.464663351599938
 20
-22.700000000000049
 30
0.0
 40
2.799999999999971
 50
269.99999883390382
 51
332.31177940070319
  0
ARC
  8
DETAIL
  6
CONTINUOUS
 62
     5
 10
58.154238307799908
 20
-25.0
 30
0.0
 40
0.99999953940002
 50
1.0000009213072449
 51
90.00005279049364
  0
ARC
  8
DETAIL
  6
CONTINUOUS
 62
     5
 10
71.845762613600073
 20
-25.0
 30
0.0
 40
1.000000000000014
 50
90.0
 51
178.99999999999829
  0
LINE
  8
DETAIL
  6
CONTINUOUS
 62
     5
 10
79.991120151099949
 20
-0.508726203300057
 30
0.0
 11
79.598228873800053
 21
-23.017452406499839
 31
0.0
  0
LINE
  8
DETAIL
  6
CONTINUOUS
 62
     5
 10
70.522691584400036
 20
-43.5
 30
0.0
 11
70.845914918500057
 21
-24.982547593599971
 31
0.0
  0
LINE
  8
DETAIL
  6
CONTINUOUS
 62
     5
 10
59.477308415599957
 20
-43.5
 30
0.0
 11
59.154085081499943
 21
-24.982547593599971
 31
0.0
  0
LINE
  8
DETAIL
  6
CONTINUOUS
 62
     5
 10
70.836882753099871
 20
-25.5
 30
0.0
 11
71.464623014900098
 21
-25.5
 31
0.0
  0
ARC
  8
DETAIL
  6
CONTINUOUS
 62
     5
 10
79.694705203599824
 20
-43.799999999999933
 30
0.0
 40
0.300000000000126
 50
359.00004192051188
 51
89.99759768649443
  0
ARC
  8
DETAIL
  6
CONTINUOUS
 62
     5
 10
78.912572347299829
 20
-48.5
 30
0.0
 40
1.00000000000001
 50
269.99915807489919
 51
359.00000000001131
  0
LINE
  8
DETAIL
  6
CONTINUOUS
 62
     5
 10
58.987639170987222
 20
-24.799999999236519
 30
0.0
 11
59.449252215599699
 21
-43.5
 31
0.0
  0
ARC
  8
DETAIL
  6
CONTINUOUS
 62
     5
 10
79.491187319099936
 20
-0.5
 30
0.0
 40
0.5
 50
359.00001796619148
 51
90.0
  0
ARC
  8
DETAIL
  6
CONTINUOUS
 62
     5
 10
23.882266532599711
 20
126.0
 30
0.0
 40
4.0
 50
1.0000000281065069
 51
90.000001196502481
  0
LINE
  8
DETAIL
  6
CONTINUOUS
 62
     5
 10
28.860359480752781
 20
70.0
 30
0.0
 11
27.881657312999781
 21
126.06980962759989
 31
0.0
  0
LINE
  8
DETAIL
  6
CONTINUOUS
 62
     5
 10
32.877466844799983
 20
69.019914758999903
 30
0.0
 11
32.877362597199863
 21
69.017452406400025
 31
0.0
  0
LINE
  8
DETAIL
  6
CONTINUOUS
 62
     5
 10
32.875711139599836
 20
69.066242506800108
 30
0.0
 11
32.876189559799968
 21
69.057029170799979
 31
0.0
  0
LINE
  8
DETAIL
  6
CONTINUOUS
 62
     5
 10
32.876189559799968
 20
69.057029170799979
 30
0.0
 11
32.87667171619978
 21
69.046312108999928
 31
0.0
  0
LINE
  8
DETAIL
  6
CONTINUOUS
 62
     5
 10
32.87667171619978
 20
69.046312108999928
 30
0.0
 11
32.877127727999778
 21
69.033475909400067
 31
0.0
  0
LINE
  8
DETAIL
  6
CONTINUOUS
 62
     5
 10
32.877127727999778
 20
69.033475909400067
 30
0.0
 11
32.87725674819967
 21
69.028066769000134
 31
0.0
  0
LINE
  8
DETAIL
  6
CONTINUOUS
 62
     5
 10
32.874700004199887
 20
69.083358927400013
 30
0.0
 11
32.875711139599836
 21
69.066242506800108
 31
0.0
  0
LINE
  8
DETAIL
  6
CONTINUOUS
 62
     5
 10
32.872988330600037
 20
69.109347328399963
 30
0.0
 11
32.874700004199887
 21
69.083358927400013
 31
0.0
  0
LINE
  8
DETAIL
  6
CONTINUOUS
 62
     5
 10
32.861458593199593
 20
69.271572805000005
 30
0.0
 11
32.872988330600037
 21
69.109347328399963
 31
0.0
  0
ARC
  8
DETAIL
  6
CONTINUOUS
 62
     5
 10
31.877517634199648
 20
69.000003404200015
 30
0.0
 40
0.999996595800034
 50
1.6053125411965321
 51
89.999899852505024
  0
ARC
  8
DETAIL
  6
CONTINUOUS
 62
     5
 10
31.887360513199841
 20
69.000169756600144
 30
0.0
 40
0.990152925599992
 50
1.000121443700698
 51
1.611646180897085
  0
LINE
  8
DETAIL
  6
CONTINUOUS
 62
     5
 39
50.0
 10
-78.598381178604996
 20
-23.999993727
 30
0.0
 11
78.598381178604996
 21
-23.999993727
 31
0.0
  0
ARC
  8
OUTLINE
  6
CONTINUOUS
 62
     3
 10
-40.224926606891131
 20
55.437113749306043
 30
0.0
 40
7.0000000000000124
 50
116.8760446299444
 51
165.84859300457461
  0
LINE
  8
OUTLINE
  6
CONTINUOUS
 62
     3
 10
-47.153898789529649
 20
56.808532073723427
 30
0.0
 11
-47.527257542156804
 21
0.0
 31
0.0
  0
ARC
  8
OUTLINE
  6
CONTINUOUS
 62
     3
 10
-78.598381288099972
 20
-22.99999372699995
 30
0.0
 40
1.000000000000052
 50
181.00035947399999
 51
270.00000627359998
  0
ARC
  8
OUTLINE
  6
CONTINUOUS
 62
     3
 10
-71.464663351599938
 20
-22.700000000000049
 30
0.0
 40
2.799999999999971
 50
207.68822059930389
 51
270.00000116609618
  0
ARC
  8
OUTLINE
  6
CONTINUOUS
 62
     3
 10
-71.845762613600073
 20
-25.0
 30
0.0
 40
1.000000000000014
 50
1.000000000001749
 51
90.0
  0
LINE
  8
OUTLINE
  6
CONTINUOUS
 62
     3
 10
-79.991120151099949
 20
-0.508726203300057
 30
0.0
 11
-79.598228873800053
 21
-23.017452406499839
 31
0.0
  0
LINE
  8
OUTLINE
  6
CONTINUOUS
 62
     3
 10
-70.522691584400036
 20
-43.5
 30
0.0
 11
-70.845914918500057
 21
-24.982547593599971
 31
0.0
  0
LINE
  8
OUTLINE
  6
CONTINUOUS
 62
     3
 10
-70.836882753099871
 20
-25.5
 30
0.0
 11
-71.464623014900098
 21
-25.5
 31
0.0
  0
ARC
  8
OUTLINE
  6
CONTINUOUS
 62
     3
 10
-79.694705203599824
 20
-43.799999999999933
 30
0.0
 40
0.300000000000126
 50
90.002402313505584
 51
180.9999580794881
  0
ARC
  8
OUTLINE
  6
CONTINUOUS
 62
     3
 10
-78.912572347299829
 20
-48.5
 30
0.0
 40
1.00000000000001
 50
180.99999999998869
 51
270.00084192510081
  0
LINE
  8
OUTLINE
  6
CONTINUOUS
 62
     3
 10
-79.912420042499889
 20
-48.517452406499842
 30
0.0
 11
-79.994672090700078
 21
-43.805235721999907
 31
0.0
  0
ARC
  8
OUTLINE
  6
CONTINUOUS
 62
     3
 10
78.912572347300284
 20
-48.5
 30
0.0
 40
0.999999999999836
 50
269.99915766709779
 51
359.00000000001131
  0
LINE
  8
OUTLINE
  6
CONTINUOUS
 62
     3
 10
-79.694717782099815
 20
-43.5
 30
0.0
 11
79.69471778210027
 21
-43.5
 31
0.0
  0
LINE
  8
OUTLINE
  6
CONTINUOUS
 62
     3
 10
78.912572347300284
 20
-49.5
 30
0.0
 11
-78.912572347299829
 21
-49.5
 31
0.0
  0
ARC
  8
OUTLINE
  6
CONTINUOUS
 62
     3
 10
-79.491187319099936
 20
-0.5
 30
0.0
 40
0.5
 50
90.0
 51
180.99998203380849
  0
LINE
  8
OUTLINE
  6
CONTINUOUS
 62
     3
 10
-79.491187319099936
 20
0.0
 30
0.0
 11
79.491196303546985
 21
0.0
 31
0.0
  0
ARC
  8
OUTLINE
  6
CONTINUOUS
 62
     3
 10
-46.653971591030768
 20
56.799999999923102
 30
0.0
 40
0.499999999998636
 50
135.81167964648731
 51
179.02224891588929
  0
ARC
  8
OUTLINE
  6
CONTINUOUS
 62
     3
 10
-23.882266532599711
 20
126.0
 30
0.0
 40
4.0
 50
89.999998803497519
 51
178.99999997189349
  0
LINE
  8
OUTLINE
  6
CONTINUOUS
 62
     3
 10
-28.704814704653359
 20
78.911154252865117
 30
0.0
 11
-27.881657312999781
 21
126.06980962759989
 31
0.0
  0
LINE
  8
OUTLINE
  6
CONTINUOUS
 62
     3
 10
23.88329807460013
 20
130.0
 30
0.0
 11
-23.88218144519988
 21
130.0
 31
0.0
  0
LINE
  8
OUTLINE
  6
CONTINUOUS
 62
     3
 10
-28.704814704653469
 20
78.911154252865003
 30
0.0
 11
-43.389359271002718
 21
61.681020051798413
 31
0.0
  0
ARC
  8
OUTLINE
  6
CONTINUOUS
 62
     3
 10
78.598381288099972
 20
-22.99999372699995
 30
0.0
 40
1.000000000000052
 50
269.99999372640002
 51
358.99964052600012
  0
ARC
  8
OUTLINE
  6
CONTINUOUS
 62
     3
 10
71.464663351599938
 20
-22.700000000000049
 30
0.0
 40
2.799999999999971
 50
269.99999883390382
 51
332.31177940070518
  0
ARC
  8
OUTLINE
  6
CONTINUOUS
 62
     3
 10
71.845762613600073
 20
-25.0
 30
0.0
 40
1.000000000000014
 50
90.0
 51
178.99999999999829
  0
LINE
  8
OUTLINE
  6
CONTINUOUS
 62
     3
 10
79.991120151099949
 20
-0.508726203300057
 30
0.0
 11
79.598228873800053
 21
-23.017452406499839
 31
0.0
  0
LINE
  8
OUTLINE
  6
CONTINUOUS
 62
     3
 10
70.522691584400036
 20
-43.5
 30
0.0
 11
70.845914918500057
 21
-24.982547593599971
 31
0.0
  0
LINE
  8
OUTLINE
  6
CONTINUOUS
 62
     3
 10
70.836882753099871
 20
-25.5
 30
0.0
 11
71.464623014900098
 21
-25.5
 31
0.0
  0
ARC
  8
OUTLINE
  6
CONTINUOUS
 62
     3
 10
79.694705203599824
 20
-43.799999999999933
 30
0.0
 40
0.300000000000126
 50
359.00004192051188
 51
89.99759768649443
  0
LINE
  8
OUTLINE
  6
CONTINUOUS
 62
     3
 10
79.912420042499889
 20
-48.517452406499842
 30
0.0
 11
79.994672090700078
 21
-43.805235721999907
 31
0.0
  0
ARC
  8
OUTLINE
  6
CONTINUOUS
 62
     3
 10
79.491187319099936
 20
-0.5
 30
0.0
 40
0.5
 50
359.00001796619148
 51
90.0
  0
ARC
  8
OUTLINE
  6
CONTINUOUS
 62
     3
 10
40.224926606891131
 20
55.437113749306043
 30
0.0
 40
7.0000000000000124
 50
14.1514069954254
 51
63.123955370055569
  0
ARC
  8
OUTLINE
  6
CONTINUOUS
 62
     3
 10
46.653971591030768
 20
56.799999999923102
 30
0.0
 40
0.499999999998636
 50
0.9777510841107679
 51
44.188320353512651
  0
ARC
  8
OUTLINE
  6
CONTINUOUS
 62
     3
 10
23.882266532599711
 20
126.0
 30
0.0
 40
4.0
 50
1.0000000281065069
 51
90.000001196502481
  0
LINE
  8
OUTLINE
  6
CONTINUOUS
 62
     3
 10
28.704814704653359
 20
78.911154252865117
 30
0.0
 11
27.881657312999781
 21
126.06980962759989
 31
0.0
  0
LINE
  8
OUTLINE
  6
CONTINUOUS
 62
     3
 10
28.704814704653469
 20
78.911154252865003
 30
0.0
 11
43.389359271002718
 21
61.681020051798413
 31
0.0
  0
LINE
  8
OUTLINE
  6
CONTINUOUS
 62
     3
 39
50.0
 10
-78.598381178604996
 20
-23.99999372699995
 30
0.0
 11
78.598381178604996
 21
-23.99999372699995
 31
0.0
  0
LINE
  8
DETAIL
  6
CONTINUOUS
 62
     5
 39
50.0
 10
-44.251873402944973
 20
50.299999999941747
 30
0.0
 11
-44.322487434974391
 21
37.453834890777443
 31
0.0
  0
LINE
  8
DETAIL
  6
CONTINUOUS
 62
     5
 10
42.127120270288742
 20
37.453834890777443
 30
0.0
 11
42.127120270288742
 21
50.299999999941747
 31
0.0
  0
ARC
  8
DETAIL
  6
CONTINUOUS
 62
     5
 10
40.224926606891131
 20
55.437113749306043
 30
0.0
 40
7.0000000000000124
 50
14.15140699542237
 51
63.123955370055569
  0
LINE
  8
DETAIL
  6
CONTINUOUS
 62
     5
 10
26.379010463712799
 20
50.299999999941747
 30
0.0
 11
44.251873402944973
 21
50.299999999941747
 31
0.0
  0
LINE
  8
DETAIL
  6
CONTINUOUS
 62
     5
 10
26.96506604728847
 20
55.499999999927013
 30
0.0
 11
26.947610982367681
 21
54.499999999929742
 31
0.0
  0
ARC
  8
DETAIL
  6
CONTINUOUS
 62
     5
 10
28.607132606181491
 20
54.999999999928377
 30
0.0
 40
0.499999999998626
 50
270.00000000010431
 51
358.77533176149342
  0
LINE
  8
DETAIL
  6
CONTINUOUS
 62
     5
 10
39.672309231950287
 20
57.299999999921738
 30
0.0
 11
39.648795221497039
 21
59.5
 31
0.0
  0
LINE
  8
DETAIL
  6
CONTINUOUS
 62
     5
 10
29.117936834380089
 20
55.499999999927013
 30
0.0
 11
26.056744395688838
 21
55.499999999927013
 31
0.0
  0
LINE
  8
DETAIL
  6
CONTINUOUS
 62
     5
 10
28.607132606181491
 20
54.499999999929742
 30
0.0
 11
26.11836502486085
 21
54.499999999929742
 31
0.0
  0
LINE
  8
DETAIL
  6
CONTINUOUS
 62
     5
 10
29.11793683348014
 20
55.499999964026983
 30
0.0
 11
29.107018549379969
 21
54.989274757228259
 31
0.0
  0
ARC
  8
DETAIL
  6
CONTINUOUS
 62
     5
 10
46.653971591030768
 20
56.799999999923102
 30
0.0
 40
0.499999999998636
 50
0.9777510841107679
 51
90.0
  0
ARC
  8
DETAIL
  6
CONTINUOUS
 62
     5
 10
45.235966375934368
 20
56.803383970823802
 30
0.0
 40
0.507474319198325
 50
101.8737730784534
 51
180.87472654913569
  0
ARC
  8
DETAIL
  6
CONTINUOUS
 62
     5
 10
-4825.5665073614
 20
-17.44933103826142
 30
0.0
 40
4870.8609349288436
 50
0.645837840047817
 51
0.8733749742989128
  0
LINE
  8
DETAIL
  6
CONTINUOUS
 62
     5
 10
39.672309231950287
 20
57.299999999921738
 30
0.0
 11
46.653971590731089
 21
57.299999999921738
 31
0.0
  0
LINE
  8
DETAIL
  6
CONTINUOUS
 62
     5
 10
25.820484523315368
 20
59.299999999916281
 30
0.0
 11
27.17622340239177
 21
37.453834890777443
 31
0.0
  0
LINE
  8
DETAIL
  6
CONTINUOUS
 62
     5
 10
29.462316400479271
 20
50.299999999941292
 30
0.0
 11
29.68814482256721
 21
37.453834890777443
 31
0.0
  0
LINE
  8
DETAIL
  6
CONTINUOUS
 62
     5
 10
14.03510846002246
 20
54.950100376528333
 30
0.0
 11
14.30568969522756
 21
59.297555430784712
 31
0.0
  0
LINE
  8
DETAIL
  6
CONTINUOUS
 62
     5
 10
12.94134258873328
 20
37.453834890777443
 30
0.0
 11
14.03510846002246
 21
54.950100376528333
 31
0.0
  0
LINE
  8
DETAIL
  6
CONTINUOUS
 62
     5
 10
15.92620989691704
 20
59.293344835916059
 30
0.0
 11
16.08015061841661
 21
59.299989638016307
 31
0.0
  0
LINE
  8
DETAIL
  6
CONTINUOUS
 62
     5
 10
14.30568969522756
 20
59.297555430784712
 30
0.0
 11
25.820484523315368
 21
59.299999999916281
 31
0.0
  0
LINE
  8
DETAIL
  6
CONTINUOUS
 62
     5
 10
29.160692835899681
 20
55.500000035700168
 30
0.0
 11
29.075180831682701
 21
59.5
 31
0.0
  0
LINE
  8
DETAIL
  6
CONTINUOUS
 62
     5
 10
26.96506604728847
 20
55.499999999927013
 30
0.0
 11
26.895245787575281
 21
59.5
 31
0.0
  0
LINE
  8
DETAIL
  6
CONTINUOUS
 62
     5
 10
32.947939734199743
 20
64.982530633800025
 30
0.0
 11
32.87732460999996
 21
69.028068387600115
 31
0.0
  0
ARC
  8
DETAIL
  6
CONTINUOUS
 62
     5
 10
35.491196303599743
 20
62.5
 30
0.0
 40
0.499999999986594
 50
270.0000128039992
 51
1.0000000043145449
  0
ARC
  8
DETAIL
  6
CONTINUOUS
 62
     5
 10
35.473741238599807
 20
63.5
 30
0.0
 40
0.5
 50
0.9999997620954473
 51
90.0
  0
ARC
  8
DETAIL
  6
CONTINUOUS
 62
     5
 10
33.947787133399743
 20
65.0
 30
0.0
 40
1.00000000000001
 50
181.0009718618937
 51
269.99930878460322
  0
LINE
  8
DETAIL
  6
CONTINUOUS
 62
     5
 10
35.991120151199993
 20
62.508726201200027
 30
0.0
 11
35.973665086199617
 21
63.508726200999938
 31
0.0
  0
LINE
  8
DETAIL
  6
CONTINUOUS
 62
     5
 10
28.704814704653469
 20
78.911154252865003
 30
0.0
 11
43.543635319408168
 21
61.5
 31
0.0
  0
LINE
  8
DETAIL
  6
CONTINUOUS
 62
     5
 10
43.499996992199613
 20
61.5
 30
0.0
 11
43.991273743799873
 21
61.00007311100012
 31
0.0
  0
LINE
  8
DETAIL
  6
CONTINUOUS
 62
     5
 10
43.96508987019979
 20
59.5
 30
0.0
 11
43.991273743799873
 21
61.00007311100012
 31
0.0
  0
LINE
  8
DETAIL
  6
CONTINUOUS
 62
     5
 10
43.573632885999807
 20
61.42512463980006
 30
0.0
 11
43.573452825590721
 21
61.425765964072532
 31
0.0
  0
LINE
  8
DETAIL
  6
CONTINUOUS
 62
     5
 10
43.573452825590721
 20
61.425765964072532
 30
0.0
 11
43.573270815320939
 21
61.426413015938351
 31
0.0
  0
LINE
  8
DETAIL
  6
CONTINUOUS
 62
     5
 10
43.573270815320939
 20
61.426413015938351
 30
0.0
 11
43.573086699399482
 21
61.427065549093868
 31
0.0
  0
LINE
  8
DETAIL
  6
CONTINUOUS
 62
     5
 10
43.573086699399482
 20
61.427065549093868
 30
0.0
 11
43.57290749831418
 21
61.42769942164341
 31
0.0
  0
LINE
  8
DETAIL
  6
CONTINUOUS
 62
     5
 10
43.57290749831418
 20
61.42769942164341
 30
0.0
 11
43.572735007332078
 21
61.428308655056071
 31
0.0
  0
LINE
  8
DETAIL
  6
CONTINUOUS
 62
     5
 10
43.572735007332078
 20
61.428308655056071
 30
0.0
 11
43.572542944564248
 21
61.428983819848327
 31
0.0
  0
LINE
  8
DETAIL
  6
CONTINUOUS
 62
     5
 10
43.572542944564248
 20
61.428983819848327
 30
0.0
 11
43.572324291918903
 21
61.429749048648318
 31
0.0
  0
LINE
  8
DETAIL
  6
CONTINUOUS
 62
     5
 10
43.572324291918903
 20
61.429749048648318
 30
0.0
 11
43.572177163656313
 21
61.430266173487333
 31
0.0
  0
LINE
  8
DETAIL
  6
CONTINUOUS
 62
     5
 10
43.572177163656313
 20
61.430266173487333
 30
0.0
 11
43.572127844063743
 21
61.430444614582711
 31
0.0
  0
LINE
  8
DETAIL
  6
CONTINUOUS
 62
     5
 10
43.572127844063743
 20
61.430444614582711
 30
0.0
 11
43.571810165175521
 21
61.431546445494398
 31
0.0
  0
LINE
  8
DETAIL
  6
CONTINUOUS
 62
     5
 10
43.571810165175521
 20
61.431546445494398
 30
0.0
 11
43.571810165175521
 21
61.431546445494398
 31
0.0
  0
LINE
  8
DETAIL
  6
CONTINUOUS
 62
     5
 10
43.571810165175521
 20
61.431546445494398
 30
0.0
 11
43.570911950600021
 21
61.434637025226273
 31
0.0
  0
LINE
  8
DETAIL
  6
CONTINUOUS
 62
     5
 10
43.570911950600021
 20
61.434637025226273
 30
0.0
 11
43.569729442490832
 21
61.438642201215089
 31
0.0
  0
LINE
  8
DETAIL
  6
CONTINUOUS
 62
     5
 10
43.569729442490832
 20
61.438642201215089
 30
0.0
 11
43.569729442490832
 21
61.438642201215089
 31
0.0
  0
LINE
  8
DETAIL
  6
CONTINUOUS
 62
     5
 10
43.569729442490832
 20
61.438642201215089
 30
0.0
 11
43.568613818120873
 21
61.44229323068248
 31
0.0
  0
LINE
  8
DETAIL
  6
CONTINUOUS
 62
     5
 10
43.568613818120873
 20
61.44229323068248
 30
0.0
 11
43.56752757669301
 21
61.445682521560002
 31
0.0
  0
LINE
  8
DETAIL
  6
CONTINUOUS
 62
     5
 10
43.56752757669301
 20
61.445682521560002
 30
0.0
 11
43.566363092707427
 21
61.449151652497683
 31
0.0
  0
LINE
  8
DETAIL
  6
CONTINUOUS
 62
     5
 10
43.566363092707427
 20
61.449151652497683
 30
0.0
 11
43.565120919919991
 21
61.452677734315102
 31
0.0
  0
LINE
  8
DETAIL
  6
CONTINUOUS
 62
     5
 10
43.565120919919991
 20
61.452677734315102
 30
0.0
 11
43.565120919919991
 21
61.452677734315102
 31
0.0
  0
LINE
  8
DETAIL
  6
CONTINUOUS
 62
     5
 10
43.565120919919991
 20
61.452677734315102
 30
0.0
 11
43.563817647161159
 21
61.456170941028397
 31
0.0
  0
LINE
  8
DETAIL
  6
CONTINUOUS
 62
     5
 10
43.563817647161159
 20
61.456170941028397
 30
0.0
 11
43.56242582430923
 21
61.459638167266583
 31
0.0
  0
LINE
  8
DETAIL
  6
CONTINUOUS
 62
     5
 10
43.56242582430923
 20
61.459638167266583
 30
0.0
 11
43.56242582430923
 21
61.459638167266583
 31
0.0
  0
LINE
  8
DETAIL
  6
CONTINUOUS
 62
     5
 10
43.56242582430923
 20
61.459638167266583
 30
0.0
 11
43.560923985643058
 21
61.463104884156337
 31
0.0
  0
LINE
  8
DETAIL
  6
CONTINUOUS
 62
     5
 10
43.560923985643058
 20
61.463104884156337
 30
0.0
 11
43.559358641999552
 21
61.466574148200152
 31
0.0
  0
LINE
  8
DETAIL
  6
CONTINUOUS
 62
     5
 39
50.0
 10
44.251873402944973
 20
50.299999999941747
 30
0.0
 11
44.322487434974391
 21
37.453834890777443
 31
0.0
  0
LINE
  8
DETAIL
  6
CONTINUOUS
 62
     5
 10
47.153898789529649
 20
56.808532073723427
 30
0.0
 11
47.527257542156804
 21
0.0
 31
0.0
  0
LINE
  8
OUTLINE
  6
CONTINUOUS
 62
     3
 10
47.153898789529649
 20
56.808532073723427
 30
0.0
 11
47.527257542156804
 21
0.0
 31
0.0
  0
TEXT
  8
ETC
  6
CONTINUOUS
 62
    61
 10
204.55729675962129
 20
632.34645368484576
 30
0.0
 40
64.0
  1
V-08PXND8_6
 41
0.9
  0
TEXT
  8
ETC
  6
CONTINUOUS
 62
    61
 10
278.47242158390827
 20
517.51446141708084
 30
0.0
 40
64.0
  1
換気扇
 41
0.9
  0
TEXT
  8
ETC
  6
CONTINUOUS
 62
    61
 10
251.07270100817681
 20
406.24237078378928
 30
0.0
 40
40.0
  1
V-08PXND8
 41
0.9
  0
ENDSEC
  0
EOF
