  0
SECTION
  2
HEADER
  9
$ACADVER
  1
AC1009
  9
$DWGCODEPAGE
  3
dos932
  9
$INSBASE
 10
0.0
 20
0.0
 30
0.0
  9
$EXTMIN
 10
-644.43052545472892
 20
-441.55882618105898
 30
-0.0015258207003583
  9
$EXTMAX
 10
771.77582914216327
 20
670.34912920830357
 30
0.0000000349246037
  9
$LIMMIN
 10
-2970.0
 20
-2100.0
  9
$LIMMAX
 10
2970.0
 20
2100.0
  9
$ORTHOMODE
 70
     1
  9
$REGENMODE
 70
     1
  9
$FILLMODE
 70
     1
  9
$QTEXTMODE
 70
     0
  9
$MIRRTEXT
 70
     0
  9
$LTSCALE
 40
20.0
  9
$ATTMODE
 70
     1
  9
$TEXTSIZE
 40
64.0
  9
$TRACEWID
 40
0.05
  9
$TEXTSTYLE
  7
STANDARD
  9
$CLAYER
  8
SIZE
  9
$CELTYPE
  6
CONTINUOUS
  9
$CECOLOR
 62
     7
  9
$DIMSCALE
 40
1.0
  9
$DIMASZ
 40
12.0
  9
$DIMEXO
 40
20.0
  9
$DIMDLI
 40
200.0
  9
$DIMRND
 40
0.0
  9
$DIMDLE
 40
0.0
  9
$DIMEXE
 40
20.0
  9
$DIMTP
 40
0.0
  9
$DIMTM
 40
0.0
  9
$DIMTXT
 40
64.0
  9
$DIMCEN
 40
0.09
  9
$DIMTSZ
 40
0.0
  9
$DIMTOL
 70
     0
  9
$DIMLIM
 70
     0
  9
$DIMTIH
 70
     0
  9
$DIMTOH
 70
     0
  9
$DIMSE1
 70
     0
  9
$DIMSE2
 70
     0
  9
$DIMTAD
 70
     1
  9
$DIMZIN
 70
     8
  9
$DIMBLK
  1

  9
$DIMASO
 70
     1
  9
$DIMSHO
 70
     0
  9
$DIMPOST
  1

  9
$DIMAPOST
  1

  9
$DIMALT
 70
     0
  9
$DIMALTD
 70
     2
  9
$DIMALTF
 40
25.399999999999999
  9
$DIMLFAC
 40
1.0
  9
$DIMTOFL
 70
     1
  9
$DIMTVP
 40
0.0
  9
$DIMTIX
 70
     1
  9
$DIMSOXD
 70
     0
  9
$DIMSAH
 70
     0
  9
$DIMBLK1
  1

  9
$DIMBLK2
  1

  9
$DIMSTYLE
  2
STANDARD
  9
$DIMCLRD
 70
     7
  9
$DIMCLRE
 70
     7
  9
$DIMCLRT
 70
     7
  9
$DIMTFAC
 40
1.0
  9
$DIMGAP
 40
25.0
  9
$LUNITS
 70
     2
  9
$LUPREC
 70
     4
  9
$SKETCHINC
 40
0.1
  9
$FILLETRAD
 40
3.0
  9
$AUNITS
 70
     1
  9
$AUPREC
 70
     3
  9
$MENU
  1
ACAD
  9
$ELEVATION
 40
0.0
  9
$PELEVATION
 40
0.0
  9
$THICKNESS
 40
0.0
  9
$LIMCHECK
 70
     0
  9
$CHAMFERA
 40
0.0
  9
$CHAMFERB
 40
0.0
  9
$SKPOLY
 70
     0
  9
$TDCREATE
 40
2453019.623009259
  9
$TDUPDATE
 40
2459356.661864572
  9
$TDINDWG
 40
1.7343678356
  9
$TDUSRTIMER
 40
1.7343678356
  9
$USRTIMER
 70
     1
  9
$ANGBASE
 50
0.0
  9
$ANGDIR
 70
     0
  9
$PDMODE
 70
     3
  9
$PDSIZE
 40
-2.0
  9
$PLINEWID
 40
0.0
  9
$SPLFRAME
 70
     0
  9
$SPLINETYPE
 70
     6
  9
$SPLINESEGS
 70
     8
  9
$SURFTAB1
 70
     6
  9
$SURFTAB2
 70
     6
  9
$SURFTYPE
 70
     6
  9
$SURFU
 70
     6
  9
$SURFV
 70
     6
  9
$UCSNAME
  2

  9
$UCSORG
 10
0.0
 20
0.0
 30
0.0
  9
$UCSXDIR
 10
1.0
 20
0.0
 30
0.0
  9
$UCSYDIR
 10
0.0
 20
1.0
 30
0.0
  9
$PUCSNAME
  2

  9
$PUCSORG
 10
0.0
 20
0.0
 30
0.0
  9
$PUCSXDIR
 10
1.0
 20
0.0
 30
0.0
  9
$PUCSYDIR
 10
0.0
 20
1.0
 30
0.0
  9
$USERI1
 70
     0
  9
$USERI2
 70
     0
  9
$USERI3
 70
     0
  9
$USERI4
 70
     0
  9
$USERI5
 70
     0
  9
$USERR1
 40
20.0
  9
$USERR2
 40
0.0
  9
$USERR3
 40
0.0
  9
$USERR4
 40
0.0
  9
$USERR5
 40
0.0
  9
$WORLDVIEW
 70
     1
  9
$SHADEDGE
 70
     3
  9
$SHADEDIF
 70
    70
  9
$TILEMODE
 70
     1
  9
$MAXACTVP
 70
    48
  9
$PINSBASE
 10
0.0
 20
0.0
 30
0.0
  9
$PLIMCHECK
 70
     0
  9
$PEXTMIN
 10
-100000000000000000000.0
 20
-100000000000000000000.0
 30
-100000000000000000000.0
  9
$PEXTMAX
 10
100000000000000000000.0
 20
100000000000000000000.0
 30
100000000000000000000.0
  9
$PLIMMIN
 10
0.0
 20
0.0
  9
$PLIMMAX
 10
12.0
 20
9.0
  9
$UNITMODE
 70
     0
  9
$VISRETAIN
 70
     0
  9
$PLINEGEN
 70
     0
  9
$PSLTSCALE
 70
     0
  9
$TREEDEPTH
 70
  3020
  9
$ATTDIA
 70
     0
  9
$ATTREQ
 70
     1
  9
$BLIPMODE
 70
     1
  9
$COORDS
 70
     1
  9
$DRAGMODE
 70
     2
  9
$OSMODE
 70
     0
  9
$HANDLING
 70
     0
  9
$HANDSEED
  5
57C
  0
ENDSEC
  0
SECTION
  2
TABLES
  0
TABLE
  2
LTYPE
 70
     2
  0
LTYPE
  2
CONTINUOUS
 70
     0
  3
実線
 72
    65
 73
     0
 40
0.0
  0
LTYPE
  2
DASHDOT
 70
     0
  3
____ _ ____ _ ____ _ ____ _ ____ _ ____ _ ____
 72
    65
 73
     4
 40
5.5
 49
4.0
 49
-0.6
 49
0.3
 49
-0.6
  0
ENDTAB
  0
TABLE
  2
LAYER
 70
    12
  0
LAYER
  2
SIZE
 70
     0
 62
    30
  6
CONTINUOUS
  0
LAYER
  2
BASIS
 70
     0
 62
     6
  6
DASHDOT
  0
LAYER
  2
OUTLINE
 70
     0
 62
     3
  6
CONTINUOUS
  0
LAYER
  2
DETAIL
 70
     0
 62
     5
  6
CONTINUOUS
  0
LAYER
  2
ARRANGE
 70
     0
 62
     1
  6
CONTINUOUS
  0
LAYER
  2
ETC
 70
     0
 62
    61
  6
CONTINUOUS
  0
LAYER
  2
FIX
 70
     0
 62
    11
  6
CONTINUOUS
  0
LAYER
  2
NOTE
 70
     0
 62
     4
  6
CONTINUOUS
  0
LAYER
  2
0
 70
    64
 62
     7
  6
CONTINUOUS
  0
LAYER
  2
DEFPOINTS
 70
    64
 62
     7
  6
CONTINUOUS
  0
LAYER
  2
SERVICESPACE
 70
    64
 62
     2
  6
DASHDOT
  0
LAYER
  2
SYMBOLLINE
 70
    64
 62
    15
  6
CONTINUOUS
  0
ENDTAB
  0
TABLE
  2
STYLE
 70
     1
  0
STYLE
  2
STANDARD
 70
     0
 40
64.0
 41
0.9
 50
0.0
 71
     0
 42
64.0
  3
SIMPLEX.shx
  4
BIGFONT.shx
  0
ENDTAB
  0
TABLE
  2
APPID
 70
    20
  0
APPID
  2
ACAD
 70
     0
  0
APPID
  2
ACADANNOTATIVE
 70
     0
  0
APPID
  2
AUTOCAD_POSTSCRIPT_FIGURE
 70
     0
  0
APPID
  2
ACAD_EXEMPT_FROM_CAD_STANDARDS
 70
     0
  0
APPID
  2
ACAD_PSEXT
 70
     0
  0
APPID
  2
ACAUTHENVIRON
 70
     0
  0
APPID
  2
GENIUS_GENOENT_13
 70
     0
  0
APPID
  2
GENIUS_GENCFG_13
 70
     0
  0
APPID
  2
GENIUS_GENCFG0_13
 70
     0
  0
APPID
  2
GENIUS_GENCFG1_13
 70
     0
  0
APPID
  2
GENIUS_GENCFG2_13
 70
     0
  0
APPID
  2
GENIUS_GENCFG3_13
 70
     0
  0
APPID
  2
GENIUS_GENCFG4_13
 70
     0
  0
APPID
  2
GENIUS_GEVCFG0_13
 70
     0
  0
APPID
  2
CONTENTBLOCKICON
 70
     0
  0
APPID
  2
CONTENTBLOCKDESCRIPTION
 70
     0
  0
APPID
  2
ACAD_NAV_VCDISPLAY
 70
     0
  0
APPID
  2
ACAD_MLEADERVER
 70
     0
  0
APPID
  2
ACDBDYNAMICBLOCKTRUENAME
 70
     0
  0
APPID
  2
ACDBDYNAMICBLOCKGUID
 70
     0
  0
ENDTAB
  0
TABLE
  2
DIMSTYLE
 70
     1
  0
DIMSTYLE
  2
STANDARD
 70
     0
  3

  4

  5

  6

  7

 40
1.0
 41
12.0
 42
20.0
 43
200.0
 44
20.0
 45
0.0
 46
0.0
 47
0.0
 48
0.0
140
64.0
141
0.09
142
0.0
143
25.399999999999999
144
1.0
145
0.0
146
1.0
147
25.0
 71
     0
 72
     0
 73
     0
 74
     0
 75
     0
 76
     0
 77
     1
 78
     8
170
     0
171
     2
172
     1
173
     0
174
     1
175
     0
176
     7
177
     7
178
     7
  0
ENDTAB
  0
TABLE
  2
VIEW
 70
     1
  0
VIEW
  2
ALL
 70
     0
 40
4282.6198079999986
 10
0.0
 20
41.309904000000003
 41
5940.0
 11
0.0
 21
0.0
 31
1.0
 12
0.0
 22
0.0
 32
0.0
 42
50.0
 43
0.0
 44
0.0
 50
0.0
 71
     0
  0
ENDTAB
  0
TABLE
  2
UCS
 70
     0
  0
ENDTAB
  0
TABLE
  2
VPORT
 70
     1
  0
VPORT
  2
*ACTIVE
 70
     0
 10
0.0
 20
0.0
 11
1.0
 21
1.0
 12
63.672651843717233
 22
114.3951515136223
 13
0.0
 23
0.0
 14
1.0
 24
1.0
 15
0.0
 25
0.0
 16
0.0
 26
0.0
 36
1.0
 17
0.0
 27
0.0
 37
0.0
 40
775.42401552960985
 41
2.1453957996768982
 42
50.0
 43
0.0
 44
0.0
 50
0.0
 51
0.0
 71
     0
 72
  1000
 73
     1
 74
     3
 75
     0
 76
     0
 77
     0
 78
     0
  0
ENDTAB
  0
ENDSEC
  0
SECTION
  2
BLOCKS
  0
ENDSEC
  0
SECTION
  2
ENTITIES
  0
TEXT
  8
ETC
  6
CONTINUOUS
 62
    61
 10
217.34801421737939
 20
606.11632889337272
 30
0.0
 40
64.0
  1
V-08XLD4_5
 41
0.9
  0
TEXT
  8
ETC
  6
CONTINUOUS
 62
    61
 10
213.16202021737899
 20
488.16101887854171
 30
0.0
 40
64.0
  1
換気扇
 41
0.9
  0
LINE
  8
BASIS
  6
DASHDOT
 62
     6
 10
0.0
 20
-109.2854010143142
 30
0.0
 11
0.0
 21
109.2854010143142
 31
0.0
  0
LINE
  8
BASIS
  6
DASHDOT
 62
     6
 10
95.967552833830496
 20
0.0
 30
0.0
 11
-95.967646960021952
 21
0.0
 31
0.0
  0
TEXT
  8
ETC
  6
CONTINUOUS
 62
    61
 10
263.86341846593501
 20
380.01224599231642
 30
0.0
 40
40.0
  1
V-08XLD4
 41
0.9
  0
TEXT
  8
ETC
  6
CONTINUOUS
 62
    61
 10
263.86341846593501
 20
314.01224599231642
 30
0.0
 40
40.0
  1
V-08XPLD4
 41
0.9
  0
TEXT
  8
ETC
  6
CONTINUOUS
 62
    61
 10
263.86341846593501
 20
248.01224599231639
 30
0.0
 40
40.0
  1
V-08XPLD4-BE
 41
0.9
  0
CIRCLE
  8
FIX
  6
CONTINUOUS
 62
    11
 10
0.0
 20
69.965255095611042
 30
0.0
 40
7.0441691683918863
  0
LINE
  8
NOTE
  6
CONTINUOUS
 62
     4
 10
0.0
 20
43.94343737316899
 30
0.0
 11
0.0
 21
95.98707281805315
 31
0.0
  0
LINE
  8
NOTE
  6
CONTINUOUS
 62
     4
 10
-26.021817722442051
 20
69.965255095611042
 30
0.0
 11
26.021817722442051
 21
69.965255095611042
 31
0.0
  0
CIRCLE
  8
FIX
  6
CONTINUOUS
 62
    11
 10
0.0
 20
5.9999999952671601
 30
0.0
 40
7.0441691683918863
  0
LINE
  8
NOTE
  6
CONTINUOUS
 62
     4
 10
0.0
 20
-20.021817727174891
 30
0.0
 11
0.0
 21
32.021817717709268
 31
0.0
  0
LINE
  8
NOTE
  6
CONTINUOUS
 62
     4
 10
-26.021817722442051
 20
5.9999999952671601
 30
0.0
 11
26.021817722442051
 21
5.9999999952672169
 31
0.0
  0
CIRCLE
  8
FIX
  6
CONTINUOUS
 62
    11
 10
0.0
 20
-69.999999944784179
 30
0.0
 40
7.0441691683918863
  0
LINE
  8
NOTE
  6
CONTINUOUS
 62
     4
 10
0.0
 20
-96.021817667226273
 30
0.0
 11
0.0
 21
-43.978182222342127
 31
0.0
  0
LINE
  8
NOTE
  6
CONTINUOUS
 62
     4
 10
-26.021817722442051
 20
-69.999999944784179
 30
0.0
 11
26.021817722442051
 21
-69.999999944784179
 31
0.0
  0
CIRCLE
  8
FIX
  6
CONTINUOUS
 62
    11
 10
0.0
 20
53.532760575954683
 30
0.0
 40
7.0441691683918863
  0
LINE
  8
NOTE
  6
CONTINUOUS
 62
     4
 10
0.0
 20
27.510942853512571
 30
0.0
 11
0.0
 21
79.554578298396777
 31
0.0
  0
LINE
  8
NOTE
  6
CONTINUOUS
 62
     4
 10
26.021817722442051
 20
53.532760575954683
 30
0.0
 11
-26.021817722442169
 21
53.53276057595474
 31
0.0
  0
LINE
  8
SIZE
  6
CONTINUOUS
 62
    30
 10
44.500000000000107
 20
98.912572347299943
 30
0.0
 11
44.500000000000107
 21
328.42618669078172
 31
0.0
  0
LINE
  8
SIZE
  6
CONTINUOUS
 62
    30
 10
0.0
 20
129.2854010143142
 30
0.0
 11
0.0
 21
328.42618669078172
 31
0.0
  0
LINE
  8
SIZE
  6
CONTINUOUS
 62
    30
 10
56.500000000000107
 20
308.42618669078172
 30
0.0
 11
68.500000000000099
 21
308.42618669078172
 31
0.0
  0
LINE
  8
SIZE
  6
CONTINUOUS
 62
    30
 10
-12.0
 20
308.42618669078172
 30
0.0
 11
-24.0
 21
308.42618669078172
 31
0.0
  0
LINE
  8
SIZE
  6
CONTINUOUS
 62
    30
 10
44.500000000000107
 20
308.42618669078172
 30
0.0
 11
0.0
 21
308.42618669078172
 31
0.0
  0
CIRCLE
  8
SIZE
  6
CONTINUOUS
 62
    30
 10
44.500000000000107
 20
308.42618669078172
 30
0.0
 40
6.0
  0
LINE
  8
SIZE
  6
CONTINUOUS
 62
    30
 10
44.500000000000107
 20
308.42618669078172
 30
0.0
 11
56.500000000000107
 21
308.42618669078172
 31
0.0
  0
CIRCLE
  8
SIZE
  6
CONTINUOUS
 62
    30
 10
0.0
 20
308.42618669078172
 30
0.0
 40
6.0
  0
LINE
  8
SIZE
  6
CONTINUOUS
 62
    30
 10
0.0
 20
308.42618669078172
 30
0.0
 11
-12.0
 21
308.42618669078172
 31
0.0
  0
TEXT
  8
SIZE
  6
CONTINUOUS
 62
    30
 10
-65.521428571428459
 20
333.42618669078172
 30
0.0
 40
64.0
  1
44.5
 41
0.9
 72
     1
 11
22.25000000000011
 21
333.42618669078172
 31
0.0
  0
LINE
  8
SIZE
  6
CONTINUOUS
 62
    30
 10
20.508782677475441
 20
80.000047119583428
 30
0.0
 11
226.76166792960521
 21
80.000047119583314
 31
0.0
  0
LINE
  8
SIZE
  6
CONTINUOUS
 62
    30
 10
20.508782677494992
 20
-79.999952993389229
 30
0.0
 11
226.76166792960521
 21
-79.999952993389343
 31
0.0
  0
LINE
  8
SIZE
  6
CONTINUOUS
 62
    30
 10
206.76166792960521
 20
-67.999952993389286
 30
0.0
 11
206.76166792960521
 21
68.000047119583314
 31
0.0
  0
LINE
  8
SIZE
  6
CONTINUOUS
 62
    30
 10
206.76166792960521
 20
80.000047119583314
 30
0.0
 11
206.7616679296053
 21
344.42290426244051
 31
0.0
  0
CIRCLE
  8
SIZE
  6
CONTINUOUS
 62
    30
 10
206.76166792960521
 20
-79.999952993389286
 30
0.0
 40
6.0
  0
LINE
  8
SIZE
  6
CONTINUOUS
 62
    30
 10
206.76166792960521
 20
-79.999952993389286
 30
0.0
 11
206.76166792960521
 21
-67.999952993389286
 31
0.0
  0
CIRCLE
  8
SIZE
  6
CONTINUOUS
 62
    30
 10
206.76166792960521
 20
80.000047119583314
 30
0.0
 40
6.0
  0
LINE
  8
SIZE
  6
CONTINUOUS
 62
    30
 10
206.76166792960521
 20
80.000047119583314
 30
0.0
 11
206.76166792960521
 21
68.000047119583314
 31
0.0
  0
TEXT
  8
SIZE
  6
CONTINUOUS
 62
    30
 10
181.76166792960521
 20
113.1600471195834
 30
0.0
 40
64.0
  1
□160
 50
90.0
 41
0.9
 72
     1
 11
181.76166792960521
 21
218.211475691012
 31
0.0
  0
LINE
  8
SIZE
  6
CONTINUOUS
 62
    30
 10
-46.021817722442037
 20
69.965255095611042
 30
0.0
 11
-575.1592456340104
 21
69.965255095611212
 31
0.0
  0
LINE
  8
SIZE
  6
CONTINUOUS
 62
    30
 10
-115.9675528338305
 20
0.0
 30
0.0
 11
-575.1592456340104
 21
0.0000000000001137
 31
0.0
  0
LINE
  8
SIZE
  6
CONTINUOUS
 62
    30
 10
-555.1592456340104
 20
-11.99999999999989
 30
0.0
 11
-555.1592456340104
 21
-23.99999999999989
 31
0.0
  0
LINE
  8
SIZE
  6
CONTINUOUS
 62
    30
 10
-555.1592456340104
 20
81.965255095611226
 30
0.0
 11
-555.1592456340104
 21
242.0863185434647
 31
0.0
  0
LINE
  8
SIZE
  6
CONTINUOUS
 62
    30
 10
-555.1592456340104
 20
0.0000000000001137
 30
0.0
 11
-555.1592456340104
 21
69.965255095611212
 31
0.0
  0
CIRCLE
  8
SIZE
  6
CONTINUOUS
 62
    30
 10
-555.1592456340104
 20
0.0000000000001137
 30
0.0
 40
6.0
  0
LINE
  8
SIZE
  6
CONTINUOUS
 62
    30
 10
-555.1592456340104
 20
0.0000000000001137
 30
0.0
 11
-555.1592456340104
 21
-11.99999999999989
 31
0.0
  0
CIRCLE
  8
SIZE
  6
CONTINUOUS
 62
    30
 10
-555.1592456340104
 20
69.965255095611212
 30
0.0
 40
6.0
  0
LINE
  8
SIZE
  6
CONTINUOUS
 62
    30
 10
-555.1592456340104
 20
69.965255095611212
 30
0.0
 11
-555.1592456340104
 21
81.965255095611226
 31
0.0
  0
TEXT
  8
SIZE
  6
CONTINUOUS
 62
    30
 10
-580.1592456340104
 20
123.8291756863217
 30
0.0
 40
64.0
  1
70
 50
90.0
 41
0.9
 72
     1
 11
-580.1592456340104
 21
170.45774711489321
 31
0.0
  0
LINE
  8
SIZE
  6
CONTINUOUS
 62
    30
 10
-115.9675528338305
 20
0.0
 30
0.0
 11
-161.1133780375981
 21
0.0
 31
0.0
  0
LINE
  8
SIZE
  6
CONTINUOUS
 62
    30
 10
-46.021817722442037
 20
5.9999999952671601
 30
0.0
 11
-161.1133780375981
 21
5.9999999952672169
 31
0.0
  0
LINE
  8
SIZE
  6
CONTINUOUS
 62
    30
 10
-141.1133780375981
 20
-12.0
 30
0.0
 11
-141.1133780375981
 21
-24.0
 31
0.0
  0
LINE
  8
SIZE
  6
CONTINUOUS
 62
    30
 10
-141.1133780375981
 20
17.99999999526722
 30
0.0
 11
-141.11337803759801
 21
168.9354907171203
 31
0.0
  0
LINE
  8
SIZE
  6
CONTINUOUS
 62
    30
 10
-141.1133780375981
 20
0.0
 30
0.0
 11
-141.1133780375981
 21
5.9999999952672169
 31
0.0
  0
CIRCLE
  8
SIZE
  6
CONTINUOUS
 62
    30
 10
-141.1133780375981
 20
0.0
 30
0.0
 40
6.0
  0
LINE
  8
SIZE
  6
CONTINUOUS
 62
    30
 10
-141.1133780375981
 20
0.0
 30
0.0
 11
-141.1133780375981
 21
-12.0
 31
0.0
  0
CIRCLE
  8
SIZE
  6
CONTINUOUS
 62
    30
 10
-141.1133780375981
 20
5.9999999952672169
 30
0.0
 40
6.0
  0
LINE
  8
SIZE
  6
CONTINUOUS
 62
    30
 10
-141.1133780375981
 20
5.9999999952672169
 30
0.0
 11
-141.1133780375981
 21
17.99999999526722
 31
0.0
  0
TEXT
  8
SIZE
  6
CONTINUOUS
 62
    30
 10
-166.1133780375981
 20
108.2783478599774
 30
0.0
 40
64.0
  1
6
 50
90.0
 41
0.9
 72
     1
 11
-166.1133780375981
 21
126.10691928854889
 31
0.0
  0
LINE
  8
SIZE
  6
CONTINUOUS
 62
    30
 10
-115.9675528338305
 20
0.0
 30
0.0
 11
-575.1592456340104
 21
0.0000000000001137
 31
0.0
  0
LINE
  8
SIZE
  6
CONTINUOUS
 62
    30
 10
-46.021817722442037
 20
-69.999999944784179
 30
0.0
 11
-575.1592456340104
 21
-69.999999944784008
 31
0.0
  0
LINE
  8
SIZE
  6
CONTINUOUS
 62
    30
 10
-555.1592456340104
 20
12.00000000000011
 30
0.0
 11
-555.1592456340104
 21
24.00000000000011
 31
0.0
  0
LINE
  8
SIZE
  6
CONTINUOUS
 62
    30
 10
-555.1592456340104
 20
-81.999999944784008
 30
0.0
 11
-555.15924563401052
 21
-260.66450131800451
 31
0.0
  0
LINE
  8
SIZE
  6
CONTINUOUS
 62
    30
 10
-555.1592456340104
 20
0.0000000000001137
 30
0.0
 11
-555.1592456340104
 21
-69.999999944784008
 31
0.0
  0
CIRCLE
  8
SIZE
  6
CONTINUOUS
 62
    30
 10
-555.1592456340104
 20
0.0000000000001137
 30
0.0
 40
6.0
  0
LINE
  8
SIZE
  6
CONTINUOUS
 62
    30
 10
-555.1592456340104
 20
0.0000000000001137
 30
0.0
 11
-555.1592456340104
 21
12.00000000000011
 31
0.0
  0
CIRCLE
  8
SIZE
  6
CONTINUOUS
 62
    30
 10
-555.1592456340104
 20
-69.999999944784008
 30
0.0
 40
6.0
  0
LINE
  8
SIZE
  6
CONTINUOUS
 62
    30
 10
-555.1592456340104
 20
-69.999999944784008
 30
0.0
 11
-555.1592456340104
 21
-81.999999944784008
 31
0.0
  0
TEXT
  8
SIZE
  6
CONTINUOUS
 62
    30
 10
-580.1592456340104
 20
-235.6645013180046
 30
0.0
 40
64.0
  1
70
 50
90.0
 41
0.9
 72
     1
 11
-580.1592456340104
 21
-189.03592988943311
 31
0.0
  0
LINE
  8
SIZE
  6
CONTINUOUS
 62
    30
 10
-19.491217322504891
 20
-79.999952993389229
 30
0.0
 11
-240.42806508033209
 21
-79.999952993389172
 31
0.0
  0
LINE
  8
SIZE
  6
CONTINUOUS
 62
    30
 10
-3.4981683162071699
 20
-85.035574387582287
 30
0.0
 11
-240.42806508033209
 21
-85.03557438758223
 31
0.0
  0
LINE
  8
SIZE
  6
CONTINUOUS
 62
    30
 10
-220.42806508033209
 20
-67.999952993389172
 30
0.0
 11
-220.42806508033209
 21
-55.999952993389172
 31
0.0
  0
LINE
  8
SIZE
  6
CONTINUOUS
 62
    30
 10
-220.42806508033209
 20
-97.03557438758223
 30
0.0
 11
-220.42806508033209
 21
-209.7054340177352
 31
0.0
  0
LINE
  8
SIZE
  6
CONTINUOUS
 62
    30
 10
-220.42806508033209
 20
-79.999952993389172
 30
0.0
 11
-220.42806508033209
 21
-85.03557438758223
 31
0.0
  0
CIRCLE
  8
SIZE
  6
CONTINUOUS
 62
    30
 10
-220.42806508033209
 20
-79.999952993389172
 30
0.0
 40
6.0
  0
LINE
  8
SIZE
  6
CONTINUOUS
 62
    30
 10
-220.42806508033209
 20
-79.999952993389172
 30
0.0
 11
-220.42806508033209
 21
-67.999952993389172
 31
0.0
  0
CIRCLE
  8
SIZE
  6
CONTINUOUS
 62
    30
 10
-220.42806508033209
 20
-85.03557438758223
 30
0.0
 40
6.0
  0
LINE
  8
SIZE
  6
CONTINUOUS
 62
    30
 10
-220.42806508033209
 20
-85.03557438758223
 30
0.0
 11
-220.42806508033209
 21
-97.03557438758223
 31
0.0
  0
TEXT
  8
SIZE
  6
CONTINUOUS
 62
    30
 10
-245.42806508033209
 20
-184.70543401773531
 30
0.0
 40
64.0
  1
5
 50
90.0
 41
0.9
 72
     1
 11
-245.42806508033209
 21
-165.5054340177353
 31
0.0
  0
LINE
  8
SIZE
  6
CONTINUOUS
 62
    30
 10
-75.810558172638594
 20
-47.65683397454778
 30
0.0
 11
-430.41315518852173
 21
-47.656833974547681
 31
0.0
  0
LINE
  8
SIZE
  6
CONTINUOUS
 62
    30
 10
-71.982644977101941
 20
46.852470546058598
 30
0.0
 11
-430.41315518852173
 21
46.852470546058733
 31
0.0
  0
LINE
  8
SIZE
  6
CONTINUOUS
 62
    30
 10
-410.41315518852173
 20
-35.656833974547681
 30
0.0
 11
-410.41315518852173
 21
34.852470546058733
 31
0.0
  0
LINE
  8
SIZE
  6
CONTINUOUS
 62
    30
 10
-410.41315518852173
 20
46.852470546058733
 30
0.0
 11
-410.41315518852173
 21
272.01956136951901
 31
0.0
  0
CIRCLE
  8
SIZE
  6
CONTINUOUS
 62
    30
 10
-410.41315518852173
 20
-47.656833974547681
 30
0.0
 40
6.0
  0
LINE
  8
SIZE
  6
CONTINUOUS
 62
    30
 10
-410.41315518852173
 20
-47.656833974547681
 30
0.0
 11
-410.41315518852173
 21
-35.656833974547681
 31
0.0
  0
CIRCLE
  8
SIZE
  6
CONTINUOUS
 62
    30
 10
-410.41315518852173
 20
46.852470546058733
 30
0.0
 40
6.0
  0
LINE
  8
SIZE
  6
CONTINUOUS
 62
    30
 10
-410.41315518852173
 20
46.852470546058733
 30
0.0
 11
-410.41315518852173
 21
34.852470546058733
 31
0.0
  0
TEXT
  8
SIZE
  6
CONTINUOUS
 62
    30
 10
-446.07982185518819
 20
83.270989940947473
 30
0.0
 40
64.0
  1
φ95
 50
90.0
 41
0.9
 72
     1
 11
-446.07982185518819
 21
170.21956136951891
 31
0.0
  0
LINE
  8
SIZE
  6
CONTINUOUS
 62
    30
 10
-101.9090918123003
 20
-23.190038550797571
 30
0.0
 11
-288.91666085666162
 21
-23.19003855079751
 31
0.0
  0
LINE
  8
SIZE
  6
CONTINUOUS
 62
    30
 10
-99.725469620019908
 20
25.583892224123531
 30
0.0
 11
-288.91666085666162
 21
25.583892224123591
 31
0.0
  0
LINE
  8
SIZE
  6
CONTINUOUS
 62
    30
 10
-268.91666085666162
 20
-35.19003855079751
 30
0.0
 11
-268.91666085666162
 21
-47.19003855079751
 31
0.0
  0
LINE
  8
SIZE
  6
CONTINUOUS
 62
    30
 10
-268.91666085666162
 20
37.583892224123588
 30
0.0
 11
-268.91666085666151
 21
263.80306773503742
 31
0.0
  0
LINE
  8
SIZE
  6
CONTINUOUS
 62
    30
 10
-268.91666085666162
 20
-23.19003855079751
 30
0.0
 11
-268.91666085666162
 21
25.583892224123591
 31
0.0
  0
CIRCLE
  8
SIZE
  6
CONTINUOUS
 62
    30
 10
-268.91666085666162
 20
-23.19003855079751
 30
0.0
 40
6.0
  0
LINE
  8
SIZE
  6
CONTINUOUS
 62
    30
 10
-268.91666085666162
 20
-23.19003855079751
 30
0.0
 11
-268.91666085666162
 21
-35.19003855079751
 31
0.0
  0
CIRCLE
  8
SIZE
  6
CONTINUOUS
 62
    30
 10
-268.91666085666162
 20
25.583892224123591
 30
0.0
 40
6.0
  0
LINE
  8
SIZE
  6
CONTINUOUS
 62
    30
 10
-268.91666085666162
 20
25.583892224123591
 30
0.0
 11
-268.91666085666162
 21
37.583892224123588
 31
0.0
  0
TEXT
  8
SIZE
  6
CONTINUOUS
 62
    30
 10
-304.58332752332819
 20
77.79735344932314
 30
0.0
 40
64.0
  1
φ46
 50
90.0
 41
0.9
 72
     1
 11
-304.58332752332819
 21
163.374496306466
 31
0.0
  0
LINE
  8
SIZE
  6
CONTINUOUS
 62
    30
 10
0.0
 20
-129.2854010143142
 30
0.0
 11
0.0
 21
-275.67477456083429
 31
0.0
  0
LINE
  8
SIZE
  6
CONTINUOUS
 62
    30
 10
-56.306249927136953
 20
-67.156781999269924
 30
0.0
 11
-56.306249927136953
 21
-275.67477456083429
 31
0.0
  0
LINE
  8
SIZE
  6
CONTINUOUS
 62
    30
 10
-68.30624992713696
 20
-255.67477456083429
 30
0.0
 11
-80.306249927136932
 21
-255.67477456083429
 31
0.0
  0
LINE
  8
SIZE
  6
CONTINUOUS
 62
    30
 10
12.0
 20
-255.67477456083429
 30
0.0
 11
249.5428571428572
 21
-255.67477456083429
 31
0.0
  0
LINE
  8
SIZE
  6
CONTINUOUS
 62
    30
 10
-56.306249927136953
 20
-255.67477456083429
 30
0.0
 11
0.0
 21
-255.67477456083429
 31
0.0
  0
CIRCLE
  8
SIZE
  6
CONTINUOUS
 62
    30
 10
-56.306249927136953
 20
-255.67477456083429
 30
0.0
 40
6.0
  0
LINE
  8
SIZE
  6
CONTINUOUS
 62
    30
 10
-56.306249927136953
 20
-255.67477456083429
 30
0.0
 11
-68.30624992713696
 21
-255.67477456083429
 31
0.0
  0
CIRCLE
  8
SIZE
  6
CONTINUOUS
 62
    30
 10
0.0
 20
-255.67477456083429
 30
0.0
 40
6.0
  0
LINE
  8
SIZE
  6
CONTINUOUS
 62
    30
 10
0.0
 20
-255.67477456083429
 30
0.0
 11
12.0
 21
-255.67477456083429
 31
0.0
  0
TEXT
  8
SIZE
  6
CONTINUOUS
 62
    30
 10
49.0
 20
-230.67477456083429
 30
0.0
 40
64.0
  1
56.5
 41
0.9
 72
     1
 11
136.7714285714286
 21
-230.67477456083429
 31
0.0
  0
LINE
  8
SIZE
  6
CONTINUOUS
 62
    30
 10
0.0
 20
-129.2854010143142
 30
0.0
 11
0.0
 21
-384.11544475201208
 31
0.0
  0
LINE
  8
SIZE
  6
CONTINUOUS
 62
    30
 10
-84.509380441262238
 20
-40.589615455809849
 30
0.0
 11
-84.509380441262238
 21
-384.11544475201208
 31
0.0
  0
LINE
  8
SIZE
  6
CONTINUOUS
 62
    30
 10
-72.509380441262238
 20
-364.11544475201208
 30
0.0
 11
-12.0
 21
-364.11544475201208
 31
0.0
  0
LINE
  8
SIZE
  6
CONTINUOUS
 62
    30
 10
0.0
 20
-364.11544475201208
 30
0.0
 11
237.5428571428572
 21
-364.11544475201208
 31
0.0
  0
CIRCLE
  8
SIZE
  6
CONTINUOUS
 62
    30
 10
-84.509380441262238
 20
-364.11544475201208
 30
0.0
 40
6.0
  0
LINE
  8
SIZE
  6
CONTINUOUS
 62
    30
 10
-84.509380441262238
 20
-364.11544475201208
 30
0.0
 11
-72.509380441262238
 21
-364.11544475201208
 31
0.0
  0
CIRCLE
  8
SIZE
  6
CONTINUOUS
 62
    30
 10
0.0
 20
-364.11544475201208
 30
0.0
 40
6.0
  0
LINE
  8
SIZE
  6
CONTINUOUS
 62
    30
 10
0.0
 20
-364.11544475201208
 30
0.0
 11
-12.0
 21
-364.11544475201208
 31
0.0
  0
TEXT
  8
SIZE
  6
CONTINUOUS
 62
    30
 10
37.0
 20
-339.11544475201208
 30
0.0
 40
64.0
  1
84.5
 41
0.9
 72
     1
 11
124.7714285714286
 21
-339.11544475201208
 31
0.0
  0
TEXT
  8
NOTE
  6
CONTINUOUS
 62
     4
 10
-192.46429775451631
 20
441.41075589791092
 30
0.0
 40
64.0
  1
EL
 41
0.9
 72
     2
 11
-107.4357263259449
 21
441.41075589791092
 31
0.0
  0
TEXT
  8
NOTE
  6
CONTINUOUS
 62
     4
 10
-547.08943631225577
 20
323.02024387141552
 30
0.0
 40
64.0
  1
2-φ4×10
 41
0.9
 72
     2
 11
-145.53515059797019
 21
323.02024387141552
 31
0.0
  0
TEXT
  8
NOTE
  6
CONTINUOUS
 62
     4
 10
-569.74502809996068
 20
-409.30185246285578
 30
0.0
 40
64.0
  1
2-φ5×7
 41
0.9
 72
     2
 11
-212.0764566713892
 21
-409.30185246285578
 31
0.0
  0
LINE
  8
NOTE
  6
CONTINUOUS
 62
     4
 10
-3.106940281873563
 20
58.91157284028138
 30
0.0
 11
0.0
 21
53.532760575954683
 31
0.0
  0
LINE
  8
NOTE
  6
CONTINUOUS
 62
     4
 10
0.0
 20
53.532760575954683
 30
0.0
 11
-0.0012737193609382
 21
59.744418781912202
 31
0.0
  0
LINE
  8
NOTE
  6
CONTINUOUS
 62
     4
 10
0.0
 20
53.532760575954683
 30
0.0
 11
-3.1082140012345012
 21
65.123231046238857
 31
0.0
  0
LINE
  8
NOTE
  6
CONTINUOUS
 62
     4
 10
-3.1082140012345012
 20
65.123231046238857
 30
0.0
 11
-95.435726325944884
 21
409.41075589791092
 31
0.0
  0
LINE
  8
NOTE
  6
CONTINUOUS
 62
     4
 10
-95.435726325944884
 20
409.41075589791092
 30
0.0
 11
-192.46429775451631
 21
409.41075589791092
 31
0.0
  0
LINE
  8
NOTE
  6
CONTINUOUS
 62
     4
 10
-4.0013790337068258
 20
10.75117512554931
 30
0.0
 11
0.0
 21
5.9999999952671601
 31
0.0
  0
LINE
  8
NOTE
  6
CONTINUOUS
 62
     4
 10
0.0
 20
5.9999999952671601
 30
0.0
 11
-1.0896991127631279
 21
12.11532951489596
 31
0.0
  0
LINE
  8
NOTE
  6
CONTINUOUS
 62
     4
 10
0.0
 20
5.9999999952671601
 30
0.0
 11
-5.0910781464699539
 21
16.866504645178111
 31
0.0
  0
LINE
  8
NOTE
  6
CONTINUOUS
 62
     4
 10
-5.0910781464699539
 20
16.866504645178111
 30
0.0
 11
-133.53515059797019
 21
291.02024387141552
 31
0.0
  0
LINE
  8
NOTE
  6
CONTINUOUS
 62
     4
 10
-133.53515059797019
 20
291.02024387141552
 30
0.0
 11
-546.55166717606926
 21
291.02024387141552
 31
0.0
  0
LINE
  8
NOTE
  6
CONTINUOUS
 62
     4
 10
-1.699081565743882
 20
-75.97476530611425
 30
0.0
 11
0.0
 21
-69.999999944784179
 31
0.0
  0
LINE
  8
NOTE
  6
CONTINUOUS
 62
     4
 10
0.0
 20
-69.999999944784179
 30
0.0
 11
-4.4588369968627148
 21
-74.324751027263815
 31
0.0
  0
LINE
  8
NOTE
  6
CONTINUOUS
 62
     4
 10
0.0
 20
-69.999999944784179
 30
0.0
 11
-6.1579185626065964
 21
-80.299516388593815
 31
0.0
  0
LINE
  8
NOTE
  6
CONTINUOUS
 62
     4
 10
-6.1579185626065964
 20
-80.299516388593815
 30
0.0
 11
-200.0764566713892
 21
-441.30185246285578
 31
0.0
  0
LINE
  8
NOTE
  6
CONTINUOUS
 62
     4
 10
-200.0764566713892
 20
-441.30185246285578
 30
0.0
 11
-568.46238577551367
 21
-441.30185246285578
 31
0.0
  0
CIRCLE
  8
ARRANGE
  6
CONTINUOUS
 62
     1
 10
0.0
 20
0.0
 30
0.0
 40
40.0
  0
POINT
  8
ARRANGE
  6
CONTINUOUS
 62
     1
 10
0.0
 20
0.0
 30
0.0
 50
180.0
  0
LINE
  8
DETAIL
  6
CONTINUOUS
 62
     5
 10
16.50000000000011
 20
-84.800000000098592
 30
0.0
 11
15.50000000000011
 21
-84.800000000098592
 31
0.0
  0
LINE
  8
DETAIL
  6
CONTINUOUS
 62
     5
 10
15.00000000000011
 20
-80.246977722529451
 30
0.0
 11
15.00000000000011
 21
-84.300000000098592
 31
0.0
  0
LINE
  8
DETAIL
  6
CONTINUOUS
 62
     5
 10
17.00000000000011
 20
-80.1946125277357
 30
0.0
 11
17.00000000000011
 21
-84.300000000098592
 31
0.0
  0
ARC
  8
DETAIL
  6
CONTINUOUS
 62
     5
 10
15.50000000000011
 20
-84.300000000098592
 30
0.0
 40
0.5
 50
179.99999999999841
 51
270.0
  0
ARC
  8
DETAIL
  6
CONTINUOUS
 62
     5
 10
16.50000000000011
 20
-84.300000000098592
 30
0.0
 40
0.5
 50
270.0
 51
0.0000000000016284
  0
ARC
  8
DETAIL
  6
CONTINUOUS
 62
     5
 10
14.50000000000011
 20
-80.246977722529451
 30
0.0
 40
0.49999999999999
 50
0.0000000000016284
 51
91.000000000171156
  0
ARC
  8
DETAIL
  6
CONTINUOUS
 62
     5
 10
17.50000000000011
 20
-80.1946125277357
 30
0.0
 40
0.5
 50
91.000000000171156
 51
180.0
  0
LINE
  8
DETAIL
  6
CONTINUOUS
 62
     5
 10
15.00000000000011
 20
-84.300000000098592
 30
0.0
 11
14.80000000000018
 21
-84.300000000098592
 31
0.0
  0
LINE
  8
DETAIL
  6
CONTINUOUS
 62
     5
 10
15.00000000000011
 20
-83.300000000098592
 30
0.0
 11
14.80000000000018
 21
-83.300000000098592
 31
0.0
  0
LINE
  8
DETAIL
  6
CONTINUOUS
 62
     5
 10
14.400000000000199
 20
-83.700000000098612
 30
0.0
 11
14.400000000000199
 21
-83.900000000098643
 31
0.0
  0
ARC
  8
DETAIL
  6
CONTINUOUS
 62
     5
 10
14.80000000000018
 20
-83.900000000098643
 30
0.0
 40
0.399999999999998
 50
180.0
 51
270.0
  0
ARC
  8
DETAIL
  6
CONTINUOUS
 62
     5
 10
14.80000000000018
 20
-83.700000000098612
 30
0.0
 40
0.399999999999992
 50
90.0
 51
180.0
  0
LINE
  8
DETAIL
  6
CONTINUOUS
 62
     5
 10
44.500000000000107
 20
-78.912572347299999
 30
0.0
 11
44.500000000000107
 21
78.912572347299971
 31
0.0
  0
LINE
  8
DETAIL
  6
CONTINUOUS
 62
     5
 10
43.125451844900113
 20
79.919262437755947
 30
0.0
 11
43.125451844900113
 21
-79.919262437747619
 31
0.0
  0
LINE
  8
DETAIL
  6
CONTINUOUS
 62
     5
 10
38.500000000000107
 20
79.694717782100014
 30
0.0
 11
38.500000000000107
 21
-79.694717782100014
 31
0.0
  0
LINE
  8
DETAIL
  6
CONTINUOUS
 62
     5
 10
43.51745240650007
 20
79.912420042499974
 30
0.0
 11
38.805235722000127
 21
79.994672090699964
 31
0.0
  0
ARC
  8
DETAIL
  6
CONTINUOUS
 62
     5
 10
38.800000000000182
 20
-79.694717782100014
 30
0.0
 40
0.299999999999996
 50
180.0
 51
270.99999999997573
  0
ARC
  8
DETAIL
  6
CONTINUOUS
 62
     5
 10
43.500000000000107
 20
78.912572347299971
 30
0.0
 40
1.000000000000012
 50
359.99915807489919
 51
89.000000000004746
  0
ARC
  8
DETAIL
  6
CONTINUOUS
 62
     5
 10
38.800000000000182
 20
79.694705203599995
 30
0.0
 40
0.300000000000126
 50
89.000041920518385
 51
179.9975976864977
  0
LINE
  8
DETAIL
  6
CONTINUOUS
 62
     5
 10
38.500000000000107
 20
-70.522691584399993
 30
0.0
 11
23.482547593600088
 21
-70.872097515799979
 31
0.0
  0
LINE
  8
DETAIL
  6
CONTINUOUS
 62
     5
 10
38.500000000000107
 20
-59.477308415599992
 30
0.0
 11
23.482547593600088
 21
-59.127902484099991
 31
0.0
  0
LINE
  8
DETAIL
  6
CONTINUOUS
 62
     5
 10
24.982547060600151
 20
59.154085072899989
 30
0.0
 11
24.981096483800119
 21
59.157777650199989
 31
0.0
  0
LINE
  8
DETAIL
  6
CONTINUOUS
 62
     5
 10
23.481109800900189
 20
-59.13152046419998
 30
0.0
 11
23.48254707070009
 21
-59.127902475699983
 31
0.0
  0
LINE
  8
DETAIL
  6
CONTINUOUS
 62
     5
 10
22.50000000000011
 20
-78.62456377599996
 30
0.0
 11
22.50000000000011
 21
12.018970296599999
 31
0.0
  0
LINE
  8
DETAIL
  6
CONTINUOUS
 62
     5
 10
38.500000000000107
 20
59.477308415599957
 30
0.0
 11
24.982547593600088
 21
59.1540850815
 31
0.0
  0
LINE
  8
DETAIL
  6
CONTINUOUS
 62
     5
 10
38.500000000000107
 20
70.522691584400036
 30
0.0
 11
24.982547593600088
 21
70.8459149185
 31
0.0
  0
LINE
  8
DETAIL
  6
CONTINUOUS
 62
     5
 10
0.5087262033001707
 20
79.991120151099949
 30
0.0
 11
23.01745240650018
 21
79.598228873800053
 31
0.0
  0
ARC
  8
DETAIL
  6
CONTINUOUS
 62
     5
 10
28.50000000000011
 20
12.01906838320002
 30
0.0
 40
5.9999999999999716
 50
146.05178175240169
 51
180.00093665849991
  0
ARC
  8
DETAIL
  6
CONTINUOUS
 62
     5
 10
25.00000000000011
 20
71.845762613599959
 30
0.0
 40
1.000000000000012
 50
180.0
 51
269.00000000000477
  0
ARC
  8
DETAIL
  6
CONTINUOUS
 62
     5
 10
25.00000000000011
 20
58.154238307799972
 30
0.0
 40
0.9999995394000201
 50
91.000000921300753
 51
180.0000527904985
  0
ARC
  8
DETAIL
  6
CONTINUOUS
 62
     5
 10
21.50000000000011
 20
-78.62456377599996
 30
0.0
 40
1.0
 50
271.00000000020373
 51
0.0
  0
ARC
  8
DETAIL
  6
CONTINUOUS
 62
     5
 10
23.50000000000011
 20
-71.87194428959998
 30
0.0
 40
0.9999995394000201
 50
91.000000921300753
 51
180.00005279050021
  0
ARC
  8
DETAIL
  6
CONTINUOUS
 62
     5
 10
23.50000000000011
 20
-58.128055710300004
 30
0.0
 40
0.999999539399994
 50
180.0
 51
268.9999990786992
  0
ARC
  8
DETAIL
  6
CONTINUOUS
 62
     5
 10
22.99999372700017
 20
78.598381288099944
 30
0.0
 40
0.999999999999996
 50
359.99999372640002
 51
88.999640526000022
  0
LINE
  8
DETAIL
  6
CONTINUOUS
 62
     5
 10
43.51745240650007
 20
-79.912420042499974
 30
0.0
 11
38.805235722000127
 21
-79.994672090600005
 31
0.0
  0
ARC
  8
DETAIL
  6
CONTINUOUS
 62
     5
 10
43.500000000000107
 20
-78.912572347299999
 30
0.0
 40
0.9999999999999499
 50
270.99999999999523
 51
0.000842332900619
  0
ARC
  8
DETAIL
  6
CONTINUOUS
 62
     5
 10
21.200000000000159
 20
16.93333333330003
 30
0.0
 40
2.8000000000000118
 50
326.05207347300171
 51
0.0
  0
LINE
  8
DETAIL
  6
CONTINUOUS
 62
     5
 10
23.99999372700017
 20
78.598381288099944
 30
0.0
 11
23.99999372700017
 21
16.927406381230981
 31
0.0
  0
LINE
  8
DETAIL
  6
CONTINUOUS
 62
     5
 10
21.517452406439471
 20
-79.62441147110107
 30
0.0
 11
0.5087262033001707
 21
-79.991120151099963
 31
0.0
  0
LINE
  8
DETAIL
  6
CONTINUOUS
 62
     5
 10
0.0000000000001137
 20
79.491187319099964
 30
0.0
 11
0.0000000000001137
 21
-79.491196303546616
 31
0.0
  0
LINE
  8
DETAIL
  6
CONTINUOUS
 62
     5
 10
-56.299999999999841
 20
17.41985397450145
 30
0.0
 11
-56.349999999999909
 21
17.41985397450145
 31
0.0
  0
LINE
  8
DETAIL
  6
CONTINUOUS
 62
     5
 10
-56.299999999999841
 20
-31.02621923969858
 30
0.0
 11
-56.349999999999909
 21
-31.02621923969858
 31
0.0
  0
LINE
  8
DETAIL
  6
CONTINUOUS
 62
     5
 10
-57.049999999999841
 20
-31.726227883998579
 30
0.0
 11
-57.049999999999841
 21
-31.82621059539855
 31
0.0
  0
ARC
  8
DETAIL
  6
CONTINUOUS
 62
     5
 10
-56.349999999999909
 20
-31.726219239698569
 30
0.0
 40
0.70000000000004
 50
90.0
 51
180.00007265870079
  0
LINE
  8
DETAIL
  6
CONTINUOUS
 62
     5
 10
-56.299999999999841
 20
-32.52621923969857
 30
0.0
 11
-56.349999999999909
 21
-32.52621923969857
 31
0.0
  0
LINE
  8
DETAIL
  6
CONTINUOUS
 62
     5
 10
-56.299999999999841
 20
-46.81380897789856
 30
0.0
 11
-56.299999999999841
 21
-32.357656458098553
 31
0.0
  0
ARC
  8
DETAIL
  6
CONTINUOUS
 62
     5
 10
-56.349999999999909
 20
-31.826219239698592
 30
0.0
 40
0.699999999999988
 50
179.99992734129921
 51
270.0
  0
LINE
  8
DETAIL
  6
CONTINUOUS
 62
     5
 10
-57.049999999999841
 20
13.900767467801421
 30
0.0
 11
-57.049999999999841
 21
13.800784756401409
 31
0.0
  0
LINE
  8
DETAIL
  6
CONTINUOUS
 62
     5
 10
-57.049999999999841
 20
16.719845330201451
 30
0.0
 11
-57.049999999999841
 21
16.619862618801449
 31
0.0
  0
ARC
  8
DETAIL
  6
CONTINUOUS
 62
     5
 10
-56.349999999999909
 20
16.719853974501429
 30
0.0
 40
0.70000000000004
 50
90.0
 51
180.00007265870079
  0
ARC
  8
DETAIL
  6
CONTINUOUS
 62
     5
 10
-56.349999999999909
 20
13.80077611210146
 30
0.0
 40
0.699999999999988
 50
179.99992734129921
 51
270.0
  0
ARC
  8
DETAIL
  6
CONTINUOUS
 62
     5
 10
-56.349999999999909
 20
13.900776112101431
 30
0.0
 40
0.70000000000004
 50
90.0
 51
180.00007265870079
  0
ARC
  8
DETAIL
  6
CONTINUOUS
 62
     5
 10
-56.349999999999909
 20
16.619853974501439
 30
0.0
 40
0.699999999999988
 50
179.99992734129921
 51
270.0
  0
LINE
  8
DETAIL
  6
CONTINUOUS
 62
     5
 10
-43.875738946099887
 20
40.038650619901432
 30
0.0
 11
-47.299999999999841
 21
40.160062237001448
 31
0.0
  0
LINE
  8
DETAIL
  6
CONTINUOUS
 62
     5
 10
-53.808532073699887
 20
47.154172979901432
 30
0.0
 11
0.0
 21
47.27542709850141
 31
0.0
  0
LINE
  8
DETAIL
  6
CONTINUOUS
 62
     5
 10
-46.489761730499943
 20
49.69368018360143
 30
0.0
 11
0.0000000000001137
 21
49.81113973502849
 31
0.0
  0
LINE
  8
DETAIL
  6
CONTINUOUS
 62
     5
 10
-51.976874964999872
 20
47.185008651601457
 30
0.0
 11
-46.696156664199982
 21
49.646904718901453
 31
0.0
  0
ARC
  8
DETAIL
  6
CONTINUOUS
 62
     5
 10
-46.48494952919998
 20
49.193704396701463
 30
0.0
 40
0.4999989370999461
 50
90.557192122192404
 51
114.9775528577954
  0
LINE
  8
DETAIL
  6
CONTINUOUS
 62
     5
 10
-34.499999999999893
 20
44.380959101101439
 30
0.0
 11
-34.499999999999893
 21
42.155115313201406
 31
0.0
  0
LINE
  8
DETAIL
  6
CONTINUOUS
 62
     5
 10
-47.299999999999841
 20
44.272564170101418
 30
0.0
 11
-34.499999999999893
 21
44.380959101101439
 31
0.0
  0
LINE
  8
DETAIL
  6
CONTINUOUS
 62
     5
 10
-34.499999999999893
 20
42.155115313201406
 30
0.0
 11
-47.299999999999841
 21
42.046720382201407
 31
0.0
  0
ARC
  8
DETAIL
  6
CONTINUOUS
 62
     5
 10
-53.799999999999841
 20
46.654245781501459
 30
0.0
 40
0.5
 50
90.977751084214987
 51
180.0
  0
LINE
  8
DETAIL
  6
CONTINUOUS
 62
     5
 10
-54.299999999999841
 20
46.654245781101451
 30
0.0
 11
-54.299999999999841
 21
25.944875589043729
 31
0.0
  0
LINE
  8
DETAIL
  6
CONTINUOUS
 62
     5
 10
-54.299999999999841
 20
44.5008560912581
 30
0.0
 11
-47.299999999999841
 21
44.545406562337583
 31
0.0
  0
LINE
  8
DETAIL
  6
CONTINUOUS
 62
     5
 10
-34.453834890699909
 20
39.695785213832352
 30
0.0
 11
-43.875738946099887
 21
40.038650619901432
 31
0.0
  0
LINE
  8
DETAIL
  6
CONTINUOUS
 62
     5
 10
-47.299999999999841
 20
27.556826768101391
 30
0.0
 11
-34.0
 21
27.580952155701421
 31
0.0
  0
LINE
  8
DETAIL
  6
CONTINUOUS
 62
     5
 10
-47.300009055099849
 20
26.84914336780145
 30
0.0
 11
-47.296918049199917
 21
26.721488769301459
 31
0.0
  0
LINE
  8
DETAIL
  6
CONTINUOUS
 62
     5
 10
-47.296918049199917
 20
26.721488769301459
 30
0.0
 11
-47.275733257899901
 21
26.491636336801431
 31
0.0
  0
LINE
  8
DETAIL
  6
CONTINUOUS
 62
     5
 10
-47.275733257899901
 20
26.491636336801431
 30
0.0
 11
-47.256191351499979
 21
26.38301443450143
 31
0.0
  0
LINE
  8
DETAIL
  6
CONTINUOUS
 62
     5
 10
-47.299999999999841
 20
26.849293680401441
 30
0.0
 11
-47.299999999999841
 21
44.545406562337583
 31
0.0
  0
LINE
  8
DETAIL
  6
CONTINUOUS
 62
     5
 10
-34.453834890699909
 20
27.58012892693117
 30
0.0
 11
-34.453834890699909
 21
47.197787564006397
 31
0.0
  0
LINE
  8
DETAIL
  6
CONTINUOUS
 62
     5
 10
-56.299999999999841
 20
-44.449453362802188
 30
0.0
 11
-46.74284525889982
 21
-44.443580010098543
 31
0.0
  0
ARC
  8
DETAIL
  6
CONTINUOUS
 62
     5
 10
-55.799999999999841
 20
-46.813824486498561
 30
0.0
 40
0.499999999999998
 50
180.0000135731996
 51
269.50000012079153
  0
LINE
  8
DETAIL
  6
CONTINUOUS
 62
     5
 10
-55.804363266699852
 20
-47.313805447998561
 30
0.0
 11
0.0000000000001137
 21
-47.50056817727372
 31
0.0
  0
LINE
  8
DETAIL
  6
CONTINUOUS
 62
     5
 10
-46.74284525889982
 20
-44.443580010098543
 30
0.0
 11
-34.453834890699909
 21
-44.42685121320514
 31
0.0
  0
LINE
  8
DETAIL
  6
CONTINUOUS
 62
     5
 10
-39.352357219599867
 20
-24.703903604498549
 30
0.0
 11
-38.577833154099949
 21
-24.690384236598589
 31
0.0
  0
LINE
  8
DETAIL
  6
CONTINUOUS
 62
     5
 10
-42.299999999999841
 20
-28.892173176898581
 30
0.0
 11
-42.299999999999841
 21
-27.681899533098569
 31
0.0
  0
ARC
  8
DETAIL
  6
CONTINUOUS
 62
     5
 10
-38.699999999999932
 20
-17.691450370498561
 30
0.0
 40
7.0000000000000426
 50
271.0000000069009
 51
307.34534456550188
  0
ARC
  8
DETAIL
  6
CONTINUOUS
 62
     5
 10
-39.299999999999841
 20
-27.703446689898581
 30
0.0
 40
3.000000000000083
 50
91.000000004698919
 51
179.58873503739969
  0
ARC
  8
DETAIL
  6
CONTINUOUS
 62
     5
 10
-45.299999999999841
 20
-28.892173241098561
 30
0.0
 40
3.0
 50
275.21590856959909
 51
0.0000012254008508
  0
ARC
  8
DETAIL
  6
CONTINUOUS
 62
     5
 10
-44.800065575099893
 20
-34.369341473798563
 30
0.0
 40
2.4999302735000719
 50
95.215908571404341
 51
180.0006617194997
  0
LINE
  8
DETAIL
  6
CONTINUOUS
 62
     5
 10
-47.299999999999841
 20
-44.444040103498573
 30
0.0
 11
-47.299999999999841
 21
-34.369370441998569
 31
0.0
  0
LINE
  8
DETAIL
  6
CONTINUOUS
 62
     5
 10
-47.299999999999841
 20
-44.444040103498573
 30
0.0
 11
-47.299999999999841
 21
-34.36937034599859
 31
0.0
  0
LINE
  8
DETAIL
  6
CONTINUOUS
 62
     5
 10
-34.453834890699909
 20
-47.385260128556638
 30
0.0
 11
-34.453834890699909
 21
12.91324468984277
 31
0.0
  0
LINE
  8
DETAIL
  6
CONTINUOUS
 62
     5
 10
-55.291440192399818
 20
25.703515019901431
 30
0.0
 11
-55.108857199399949
 21
25.786371061301448
 31
0.0
  0
LINE
  8
DETAIL
  6
CONTINUOUS
 62
     5
 10
-55.108857199399949
 20
25.786371061301448
 30
0.0
 11
-54.917594519099907
 21
25.852163857901392
 31
0.0
  0
LINE
  8
DETAIL
  6
CONTINUOUS
 62
     5
 10
-54.917594519099907
 20
25.852163857901392
 30
0.0
 11
-54.719536875699873
 21
25.900178074801431
 31
0.0
  0
LINE
  8
DETAIL
  6
CONTINUOUS
 62
     5
 10
-54.516670848899928
 20
25.929860787601459
 30
0.0
 11
-54.434035841899913
 21
25.936545602301411
 31
0.0
  0
LINE
  8
DETAIL
  6
CONTINUOUS
 62
     5
 10
-54.434036271799982
 20
25.93655750740146
 30
0.0
 11
-34.0
 21
27.204661877271519
 31
0.0
  0
LINE
  8
DETAIL
  6
CONTINUOUS
 62
     5
 10
-54.719536875699873
 20
25.900178074801431
 30
0.0
 11
-54.516670848899928
 21
25.929860787601459
 31
0.0
  0
LINE
  8
DETAIL
  6
CONTINUOUS
 62
     5
 10
-56.244909181599837
 20
24.557739448301479
 30
0.0
 11
-56.187226732299912
 21
24.734902999301429
 31
0.0
  0
LINE
  8
DETAIL
  6
CONTINUOUS
 62
     5
 10
-56.187226732299912
 20
24.734902999301429
 30
0.0
 11
-56.109893400399983
 21
24.905595911601441
 31
0.0
  0
LINE
  8
DETAIL
  6
CONTINUOUS
 62
     5
 10
-56.013756288599893
 20
25.068040823501381
 30
0.0
 11
-55.899813840799879
 21
25.220590052701429
 31
0.0
  0
LINE
  8
DETAIL
  6
CONTINUOUS
 62
     5
 10
-56.109893400399983
 20
24.905595911601441
 30
0.0
 11
-56.013756288599893
 21
25.068040823501381
 31
0.0
  0
LINE
  8
DETAIL
  6
CONTINUOUS
 62
     5
 10
-55.769242839699928
 20
25.36172783160146
 30
0.0
 11
-55.623293889499912
 21
25.490122985901479
 31
0.0
  0
LINE
  8
DETAIL
  6
CONTINUOUS
 62
     5
 10
-55.899813840799879
 20
25.220590052701429
 30
0.0
 11
-55.769242839699928
 21
25.36172783160146
 31
0.0
  0
LINE
  8
DETAIL
  6
CONTINUOUS
 62
     5
 10
-55.623293889499912
 20
25.490122985901479
 30
0.0
 11
-55.463484633399837
 21
25.604431025701441
 31
0.0
  0
LINE
  8
DETAIL
  6
CONTINUOUS
 62
     5
 10
-55.463484633399837
 20
25.604431025701441
 30
0.0
 11
-55.291440192399818
 21
25.703515019901431
 31
0.0
  0
LINE
  8
DETAIL
  6
CONTINUOUS
 62
     5
 10
-56.299990797699927
 20
24.1356635488014
 30
0.0
 11
-56.299025442799923
 21
24.191788726701422
 31
0.0
  0
LINE
  8
DETAIL
  6
CONTINUOUS
 62
     5
 10
-56.299025442799923
 20
24.191788726701422
 30
0.0
 11
-56.28231023349997
 21
24.376018324101441
 31
0.0
  0
LINE
  8
DETAIL
  6
CONTINUOUS
 62
     5
 10
-56.28231023349997
 20
24.376018324101441
 30
0.0
 11
-56.244909181599837
 21
24.557739448301479
 31
0.0
  0
LINE
  8
DETAIL
  6
CONTINUOUS
 62
     5
 10
-51.939459055999919
 20
14.034719871401419
 30
0.0
 11
-56.299999999999841
 21
14.306116387142509
 31
0.0
  0
LINE
  8
DETAIL
  6
CONTINUOUS
 62
     5
 10
-54.299999999999841
 20
14.181638016601431
 30
0.0
 11
-54.299999999999841
 21
-44.448224262120483
 31
0.0
  0
LINE
  8
DETAIL
  6
CONTINUOUS
 62
     5
 10
-33.999999999999893
 20
12.91324468984277
 30
0.0
 11
-51.939459055999919
 21
14.034719871401419
 31
0.0
  0
LINE
  8
DETAIL
  6
CONTINUOUS
 62
     5
 10
-54.298550658199822
 20
-23.882951086998592
 30
0.0
 11
-56.299999999999947
 21
-23.922122681832889
 31
0.0
  0
LINE
  8
DETAIL
  6
CONTINUOUS
 62
     5
 10
-55.801546973099903
 20
27.53052628180146
 30
0.0
 11
-54.299999999999841
 21
27.53517148520146
 31
0.0
  0
LINE
  8
DETAIL
  6
CONTINUOUS
 62
     5
 10
-54.299999999999841
 20
26.324943711601382
 30
0.0
 11
-56.299999999999841
 21
26.289342214334368
 31
0.0
  0
ARC
  8
DETAIL
  6
CONTINUOUS
 62
     5
 10
-55.799999999999841
 20
27.030528674901401
 30
0.0
 40
0.5
 50
90.177270337308357
 51
180.0
  0
LINE
  8
DETAIL
  6
CONTINUOUS
 62
     5
 10
-56.299999999999727
 20
16.08082739817829
 30
0.0
 11
-56.299999999999841
 21
27.030528674901401
 31
0.0
  0
ARC
  8
DETAIL
  6
CONTINUOUS
 62
     5
 10
0.5000000000001137
 20
79.491187319099964
 30
0.0
 40
0.500000000000002
 50
89.000017966191436
 51
179.99897045679859
  0
ARC
  8
DETAIL
  6
CONTINUOUS
 62
     5
 10
0.5000000000001137
 20
-79.491196303546616
 30
0.0
 40
0.500000000000002
 50
180.0
 51
271.00000000011249
  0
ARC
  8
DETAIL
  6
CONTINUOUS
 62
     5
 10
-44.799999999999947
 20
43.449231853232789
 30
0.0
 40
8.0
 50
90.50000000000459
 51
113.6989531831896
  0
LINE
  8
DETAIL
  6
CONTINUOUS
 62
     5
 10
-44.869812283987237
 20
51.448927237746027
 30
0.0
 11
0.0000000000001137
 21
51.537508574890502
 31
0.0
  0
ARC
  8
DETAIL
  6
CONTINUOUS
 62
     5
 10
-62.689090590102182
 20
27.393798587506179
 30
0.0
 40
1.8890905901022279
 50
269.26402476224177
 51
0.0
  0
LINE
  8
DETAIL
  6
CONTINUOUS
 62
     5
 10
-62.689090590102182
 20
25.504707997404012
 30
0.0
 11
-65.899999999999977
 21
25.504707997404012
 31
0.0
  0
LINE
  8
DETAIL
  6
CONTINUOUS
 62
     5
 10
-48.015448376536597
 20
50.774591348699687
 30
0.0
 11
-56.015448376536597
 21
47.263011196461207
 31
0.0
  0
LINE
  8
DETAIL
  6
CONTINUOUS
 62
     5
 10
-60.799999999999947
 20
27.393798587506179
 30
0.0
 11
-60.799999999999947
 21
39.93765170099428
 31
0.0
  0
ARC
  8
DETAIL
  6
CONTINUOUS
 62
     5
 10
-52.799999999999947
 20
39.93765170099428
 30
0.0
 40
8.0
 50
113.6989531831896
 51
180.0
  0
ARC
  8
DETAIL
  6
CONTINUOUS
 62
     5
 10
-53.799999999999947
 20
38.406607609099922
 30
0.0
 40
1.0
 50
119.9999999999925
 51
180.0
  0
LINE
  8
DETAIL
  6
CONTINUOUS
 62
     5
 10
-54.799999999999947
 20
27.533624679312819
 30
0.0
 11
-54.799999999999947
 21
38.406607609099922
 31
0.0
  0
LINE
  8
DETAIL
  6
CONTINUOUS
 62
     5
 10
-58.499999999999893
 20
17.400274190401429
 30
0.0
 11
-56.514402949470423
 21
17.400274190401429
 31
0.0
  0
LINE
  8
DETAIL
  6
CONTINUOUS
 62
     5
 10
-58.499999999999893
 20
-31.299725809598559
 30
0.0
 11
-56.90507058477408
 21
-31.299725809598559
 31
0.0
  0
ARC
  8
DETAIL
  6
CONTINUOUS
 62
     5
 10
-55.799999999999841
 20
-22.799725809598559
 30
0.0
 40
0.50000000000006
 50
90.0
 51
179.99993853920151
  0
LINE
  8
DETAIL
  6
CONTINUOUS
 62
     5
 10
-54.299999999999841
 20
-22.299725809598559
 30
0.0
 11
-55.799999999999841
 21
-22.299725809598559
 31
0.0
  0
ARC
  8
DETAIL
  6
CONTINUOUS
 62
     5
 10
-58.999999999999893
 20
-23.349725809598599
 30
0.0
 40
0.5
 50
9.0000000000005098
 51
90.0
  0
LINE
  8
DETAIL
  6
CONTINUOUS
 62
     5
 10
-56.299999999999841
 20
-7.4536802060985679
 30
0.0
 11
-57.099999999999909
 21
-7.4536802060985679
 31
0.0
  0
LINE
  8
DETAIL
  6
CONTINUOUS
 62
     5
 10
-56.299999999999841
 20
-16.029492343298561
 30
0.0
 11
-57.099999999999909
 21
-16.029492343298561
 31
0.0
  0
ARC
  8
DETAIL
  6
CONTINUOUS
 62
     5
 10
-81.899999999999977
 20
-20.249725809598569
 30
0.0
 40
2.599999999999993
 50
180.0
 51
270.0
  0
LINE
  8
DETAIL
  6
CONTINUOUS
 62
     5
 10
-81.899999999999977
 20
-22.849725809598599
 30
0.0
 11
-58.999999999999893
 21
-22.849725809598599
 31
0.0
  0
LINE
  8
DETAIL
  6
CONTINUOUS
 62
     5
 10
-84.499999999999886
 20
-20.249591358498581
 30
0.0
 11
-84.499999999999886
 21
23.318790716201448
 31
0.0
  0
LINE
  8
DETAIL
  6
CONTINUOUS
 62
     5
 10
-56.299999999999841
 20
16.080437493701421
 30
0.0
 11
-56.299999999999841
 21
13.102564109913031
 31
0.0
  0
LINE
  8
DETAIL
  6
CONTINUOUS
 62
     5
 10
-56.299999999999947
 20
-32.357656458098553
 30
0.0
 11
-56.299999999999841
 21
13.100776112101411
 31
0.0
  0
LINE
  8
DETAIL
  6
CONTINUOUS
 62
     5
 10
-65.899999999999977
 20
22.071679321101438
 30
0.0
 11
-58.499999999999893
 21
22.071679321101438
 31
0.0
  0
LINE
  8
DETAIL
  6
CONTINUOUS
 62
     5
 10
-58.499999999999893
 20
23.015598793201431
 30
0.0
 11
-57.899999999999977
 21
23.015598793201431
 31
0.0
  0
LINE
  8
DETAIL
  6
CONTINUOUS
 62
     5
 10
-57.099999999999909
 20
23.41045566740144
 30
0.0
 11
-57.899999999999977
 21
23.41045566740144
 31
0.0
  0
LINE
  8
DETAIL
  6
CONTINUOUS
 62
     5
 10
-56.299999999999841
 20
24.000274190401459
 30
0.0
 11
-57.099999999999909
 21
24.000274190401459
 31
0.0
  0
LINE
  8
DETAIL
  6
CONTINUOUS
 62
     5
 10
-81.899999999999807
 20
25.918790716201439
 30
0.0
 11
-67.599999999999909
 21
25.918790716201439
 31
0.0
  0
LINE
  8
DETAIL
  6
CONTINUOUS
 62
     5
 10
-67.599999999999909
 20
26.518790716201408
 30
0.0
 11
-66.499999999999886
 21
26.518790716201408
 31
0.0
  0
LINE
  8
DETAIL
  6
CONTINUOUS
 62
     5
 10
-65.899999999999977
 20
22.071679321101438
 30
0.0
 11
-65.899999999999977
 21
25.91417536780142
 31
0.0
  0
LINE
  8
DETAIL
  6
CONTINUOUS
 62
     5
 10
-67.599999999999909
 20
22.818175690801379
 30
0.0
 11
-67.599999999999909
 21
26.51860883290141
 31
0.0
  0
ARC
  8
DETAIL
  6
CONTINUOUS
 62
     5
 10
-66.499999999999886
 20
25.918790716201439
 30
0.0
 40
0.5999999999999661
 50
0.0
 51
90.0
  0
LINE
  8
DETAIL
  6
CONTINUOUS
 62
     5
 10
-57.899999999999977
 20
-31.299725809598559
 30
0.0
 11
-57.900000000000091
 21
23.41045566740144
 31
0.0
  0
LINE
  8
DETAIL
  6
CONTINUOUS
 62
     5
 10
-57.099999999999909
 20
-31.299725809598559
 30
0.0
 11
-57.099999999999909
 21
24.000274190401459
 31
0.0
  0
LINE
  8
DETAIL
  6
CONTINUOUS
 62
     5
 10
-58.499999999999893
 20
-31.799999999999951
 30
0.0
 11
-58.499999999999893
 21
23.015598793201431
 31
0.0
  0
LINE
  8
DETAIL
  6
CONTINUOUS
 62
     5
 10
-58.499999999999893
 20
9.9000000000000341
 30
0.0
 11
-59.430127018899952
 21
9.9000000000000341
 31
0.0
  0
LINE
  8
DETAIL
  6
CONTINUOUS
 62
     5
 10
-61.179454343299881
 20
16.19998884670008
 30
0.0
 11
-61.14137412499997
 21
16.178003222400012
 31
0.0
  0
ARC
  8
DETAIL
  6
CONTINUOUS
 62
     5
 10
-55.100000000000023
 20
13.899999999999981
 30
0.0
 40
6.4565857850998531
 50
186.6705633469999
 51
200.65980733110001
  0
ARC
  8
DETAIL
  6
CONTINUOUS
 62
     5
 10
-55.100000000000023
 20
13.899999999999981
 30
0.0
 40
6.4565857850999899
 50
159.34019266889621
 51
173.3294366530001
  0
ARC
  8
DETAIL
  6
CONTINUOUS
 62
     5
 10
-59.430127018899952
 20
16.399999999999981
 30
0.0
 40
1.4999999999999261
 50
90.0
 51
149.9999999999979
  0
ARC
  8
DETAIL
  6
CONTINUOUS
 62
     5
 10
-59.430127018899952
 20
11.399999999999981
 30
0.0
 40
1.499999999999972
 50
210.0000000000019
 51
270.0
  0
LINE
  8
DETAIL
  6
CONTINUOUS
 62
     5
 10
-60.729165124599938
 20
10.649999999999981
 30
0.0
 11
-61.17522320799992
 21
11.588796206900071
 31
0.0
  0
LINE
  8
DETAIL
  6
CONTINUOUS
 62
     5
 10
-61.14137412499997
 20
13.149999999999981
 30
0.0
 11
-61.170033141499971
 21
13.52618160650005
 31
0.0
  0
LINE
  8
DETAIL
  6
CONTINUOUS
 62
     5
 10
-61.169926120500008
 20
14.275929477000121
 30
0.0
 11
-61.14137412499997
 21
14.649999999999981
 31
0.0
  0
LINE
  8
DETAIL
  6
CONTINUOUS
 62
     5
 10
-61.179473661400039
 20
13.899999999999981
 30
0.0
 11
-61.169926120500008
 21
14.275929477000121
 31
0.0
  0
LINE
  8
DETAIL
  6
CONTINUOUS
 62
     5
 10
-61.170033141499971
 20
13.52618160650005
 30
0.0
 11
-61.179473661400039
 21
13.899999999999981
 31
0.0
  0
LINE
  8
DETAIL
  6
CONTINUOUS
 62
     5
 10
-60.729165124599938
 20
17.149999999999981
 30
0.0
 11
-61.17522320799992
 21
16.211203793000038
 31
0.0
  0
LINE
  8
DETAIL
  6
CONTINUOUS
 62
     5
 10
-61.14137412499997
 20
11.6219967776
 30
0.0
 11
-61.179454343299881
 21
11.60001115330002
 31
0.0
  0
LINE
  8
DETAIL
  6
CONTINUOUS
 62
     5
 10
-61.512877669199952
 20
13.149999999999981
 30
0.0
 11
-61.14137412499997
 21
13.149999999999981
 31
0.0
  0
LINE
  8
DETAIL
  6
CONTINUOUS
 62
     5
 10
-61.512877669199952
 20
14.649999999999981
 30
0.0
 11
-61.14137412499997
 21
14.649999999999981
 31
0.0
  0
LINE
  8
DETAIL
  6
CONTINUOUS
 62
     5
 10
-58.499999999999893
 20
17.900000000000031
 30
0.0
 11
-59.430127018899952
 21
17.900000000000031
 31
0.0
  0
LINE
  8
DETAIL
  6
CONTINUOUS
 62
     5
 10
-61.179454343299881
 20
-25.500011153299941
 30
0.0
 11
-61.14137412499997
 21
-25.521996777599949
 31
0.0
  0
ARC
  8
DETAIL
  6
CONTINUOUS
 62
     5
 10
-55.100000000000023
 20
-27.799999999999951
 30
0.0
 40
6.4565857850999038
 50
186.6705633469999
 51
200.65980733110379
  0
ARC
  8
DETAIL
  6
CONTINUOUS
 62
     5
 10
-55.100000000000023
 20
-27.799999999999951
 30
0.0
 40
6.4565857850999757
 50
159.34019266889999
 51
173.3294366530001
  0
ARC
  8
DETAIL
  6
CONTINUOUS
 62
     5
 10
-59.430127018899952
 20
-25.299999999999951
 30
0.0
 40
1.49999999999994
 50
90.0
 51
149.9999999999979
  0
ARC
  8
DETAIL
  6
CONTINUOUS
 62
     5
 10
-59.430127018899952
 20
-30.299999999999951
 30
0.0
 40
1.5
 50
210.0000000000019
 51
270.0
  0
LINE
  8
DETAIL
  6
CONTINUOUS
 62
     5
 10
-60.729165124599938
 20
-31.049999999999951
 30
0.0
 11
-61.17522320799992
 21
-30.111203793099971
 31
0.0
  0
LINE
  8
DETAIL
  6
CONTINUOUS
 62
     5
 10
-61.169926120500008
 20
-27.42407052300004
 30
0.0
 11
-61.14137412499997
 21
-27.049999999999901
 31
0.0
  0
LINE
  8
DETAIL
  6
CONTINUOUS
 62
     5
 10
-61.179473661400039
 20
-27.799999999999951
 30
0.0
 11
-61.169926120500008
 21
-27.42407052300004
 31
0.0
  0
LINE
  8
DETAIL
  6
CONTINUOUS
 62
     5
 10
-61.170033141499971
 20
-28.1738183935
 30
0.0
 11
-61.179473661400039
 21
-27.799999999999951
 31
0.0
  0
LINE
  8
DETAIL
  6
CONTINUOUS
 62
     5
 10
-61.14137412499997
 20
-28.549999999999951
 30
0.0
 11
-61.170033141499971
 21
-28.1738183935
 31
0.0
  0
LINE
  8
DETAIL
  6
CONTINUOUS
 62
     5
 10
-60.729165124599938
 20
-24.549999999999901
 30
0.0
 11
-61.17522320799992
 21
-25.48879620699995
 31
0.0
  0
LINE
  8
DETAIL
  6
CONTINUOUS
 62
     5
 10
-61.14137412499997
 20
-30.078003222399929
 30
0.0
 11
-61.179454343299881
 21
-30.099988846700061
 31
0.0
  0
LINE
  8
DETAIL
  6
CONTINUOUS
 62
     5
 10
-58.499999999999893
 20
-31.799999999999951
 30
0.0
 11
-59.430127018899952
 21
-31.799999999999951
 31
0.0
  0
LINE
  8
DETAIL
  6
CONTINUOUS
 62
     5
 10
-61.512877669199952
 20
-28.549999999999951
 30
0.0
 11
-61.14137412499997
 21
-28.549999999999951
 31
0.0
  0
LINE
  8
DETAIL
  6
CONTINUOUS
 62
     5
 10
-61.512877669199952
 20
-27.049999999999901
 30
0.0
 11
-61.14137412499997
 21
-27.049999999999901
 31
0.0
  0
LINE
  8
DETAIL
  6
CONTINUOUS
 62
     5
 10
-58.499999999999893
 20
-23.799999999999951
 30
0.0
 11
-59.430127018899952
 21
-23.799999999999951
 31
0.0
  0
LINE
  8
DETAIL
  6
CONTINUOUS
 62
     5
 10
27.50000000000011
 20
-43.492782930686673
 30
0.0
 11
27.50000000000011
 21
43.492782930686673
 31
0.0
  0
LINE
  8
DETAIL
  6
CONTINUOUS
 62
     5
 10
26.054146021765629
 20
-45.628300332512786
 30
0.0
 11
22.50000000000011
 21
-47.04985732037386
 31
0.0
  0
ARC
  8
DETAIL
  6
CONTINUOUS
 62
     5
 10
25.200000000000159
 20
-43.492782930686673
 30
0.0
 40
2.3000000000000118
 50
291.80000000000069
 51
0.0
  0
ARC
  8
DETAIL
  6
CONTINUOUS
 62
     5
 10
25.200000000000159
 20
43.492782930686673
 30
0.0
 40
2.2999999999999838
 50
0.0
 51
68.199999999999349
  0
LINE
  8
DETAIL
  6
CONTINUOUS
 62
     5
 10
26.054146021765629
 20
45.628300332512772
 30
0.0
 11
23.99999372700017
 21
46.449902633282697
 31
0.0
  0
LINE
  8
OUTLINE
  6
CONTINUOUS
 62
     3
 10
44.5
 20
-78.912572347299971
 30
0.0
 11
44.5
 21
78.912572347299971
 31
0.0
  0
LINE
  8
OUTLINE
  6
CONTINUOUS
 62
     3
 10
38.5
 20
79.694717782100014
 30
0.0
 11
38.5
 21
-79.694717782100014
 31
0.0
  0
LINE
  8
OUTLINE
  6
CONTINUOUS
 62
     3
 10
43.51745240650007
 20
79.912420042499974
 30
0.0
 11
38.805235721999907
 21
79.994672090699964
 31
0.0
  0
ARC
  8
OUTLINE
  6
CONTINUOUS
 62
     3
 10
38.800000000000182
 20
-79.694717782100014
 30
0.0
 40
0.299999999999996
 50
180.0
 51
270.99999999997573
  0
ARC
  8
OUTLINE
  6
CONTINUOUS
 62
     3
 10
43.5
 20
78.912572347299971
 30
0.0
 40
1.000000000000012
 50
359.99915807489919
 51
89.000000000011255
  0
ARC
  8
OUTLINE
  6
CONTINUOUS
 62
     3
 10
38.800000000000182
 20
79.694705203599995
 30
0.0
 40
0.300000000000126
 50
89.000041920511862
 51
179.9975976864977
  0
LINE
  8
OUTLINE
  6
CONTINUOUS
 62
     3
 10
38.5
 20
-70.522691584399993
 30
0.0
 11
23.482547593599971
 21
-70.872097515799979
 31
0.0
  0
LINE
  8
OUTLINE
  6
CONTINUOUS
 62
     3
 10
22.5
 20
-78.62456377599996
 30
0.0
 11
22.5
 21
12.018970296599999
 31
0.0
  0
LINE
  8
OUTLINE
  6
CONTINUOUS
 62
     3
 10
38.5
 20
70.522691584400036
 30
0.0
 11
24.982547593599971
 21
70.8459149185
 31
0.0
  0
LINE
  8
OUTLINE
  6
CONTINUOUS
 62
     3
 10
0.508726203300057
 20
79.991120151099949
 30
0.0
 11
23.01745240650007
 21
79.598228873800053
 31
0.0
  0
ARC
  8
OUTLINE
  6
CONTINUOUS
 62
     3
 10
28.5
 20
12.01906838320002
 30
0.0
 40
5.9999999999999716
 50
146.05178175240169
 51
180.0009366585015
  0
ARC
  8
OUTLINE
  6
CONTINUOUS
 62
     3
 10
25.0
 20
71.845762613599959
 30
0.0
 40
1.000000000000012
 50
180.0
 51
268.99999999999818
  0
ARC
  8
OUTLINE
  6
CONTINUOUS
 62
     3
 10
21.5
 20
-78.62456377599996
 30
0.0
 40
1.0
 50
271.00000000019719
 51
0.0
  0
ARC
  8
OUTLINE
  6
CONTINUOUS
 62
     3
 10
23.5
 20
-71.87194428959998
 30
0.0
 40
0.9999995394000201
 50
91.00000092129423
 51
180.00005279050021
  0
ARC
  8
OUTLINE
  6
CONTINUOUS
 62
     3
 10
22.99999372699995
 20
78.598381288099944
 30
0.0
 40
0.999999999999996
 50
359.99999372640002
 51
88.999640526000022
  0
LINE
  8
OUTLINE
  6
CONTINUOUS
 62
     3
 10
43.51745240650007
 20
-79.912420042499974
 30
0.0
 11
38.805235721999907
 21
-79.994672090600005
 31
0.0
  0
ARC
  8
OUTLINE
  6
CONTINUOUS
 62
     3
 10
43.5
 20
-78.912572347299971
 30
0.0
 40
0.9999999999999499
 50
271.00000000000182
 51
0.0008423328989906
  0
ARC
  8
OUTLINE
  6
CONTINUOUS
 62
     3
 10
21.200000000000049
 20
16.93333333330003
 30
0.0
 40
2.8000000000000118
 50
326.05207347300171
 51
0.0
  0
LINE
  8
OUTLINE
  6
CONTINUOUS
 62
     3
 10
23.99999372699995
 20
78.598381288099944
 30
0.0
 11
23.99999372699995
 21
16.927406381230981
 31
0.0
  0
LINE
  8
OUTLINE
  6
CONTINUOUS
 62
     3
 10
21.517452406439361
 20
-79.62441147110107
 30
0.0
 11
0.508726203300057
 21
-79.991120151099963
 31
0.0
  0
LINE
  8
OUTLINE
  6
CONTINUOUS
 62
     3
 10
0.0
 20
79.491187319099964
 30
0.0
 11
0.0
 21
-79.491196303546616
 31
0.0
  0
LINE
  8
OUTLINE
  6
CONTINUOUS
 62
     3
 10
-56.299999999999947
 20
-31.02621923969858
 30
0.0
 11
-56.350000000000144
 21
-31.02621923969858
 31
0.0
  0
LINE
  8
OUTLINE
  6
CONTINUOUS
 62
     3
 10
-57.049999999999947
 20
-31.726227883998579
 30
0.0
 11
-57.049999999999947
 21
-31.82621059539855
 31
0.0
  0
ARC
  8
OUTLINE
  6
CONTINUOUS
 62
     3
 10
-56.350000000000144
 20
-31.726219239698569
 30
0.0
 40
0.70000000000004
 50
90.0
 51
180.00007265870241
  0
LINE
  8
OUTLINE
  6
CONTINUOUS
 62
     3
 10
-56.299999999999947
 20
-32.52621923969857
 30
0.0
 11
-56.350000000000144
 21
-32.52621923969857
 31
0.0
  0
LINE
  8
OUTLINE
  6
CONTINUOUS
 62
     3
 10
-56.299999999999947
 20
-46.81380897789856
 30
0.0
 11
-56.299999999999947
 21
-32.357656458098553
 31
0.0
  0
ARC
  8
OUTLINE
  6
CONTINUOUS
 62
     3
 10
-56.350000000000144
 20
-31.826219239698592
 30
0.0
 40
0.699999999999988
 50
179.9999273413008
 51
270.0
  0
ARC
  8
OUTLINE
  6
CONTINUOUS
 62
     3
 10
-55.799999999999947
 20
-46.813824486498561
 30
0.0
 40
0.499999999999998
 50
180.00001357320119
 51
269.50000012079153
  0
LINE
  8
OUTLINE
  6
CONTINUOUS
 62
     3
 10
-55.804363266699973
 20
-47.313805447998561
 30
0.0
 11
0.0000000000001137
 21
-47.50056817727372
 31
0.0
  0
ARC
  8
OUTLINE
  6
CONTINUOUS
 62
     3
 10
0.5
 20
79.491187319099964
 30
0.0
 40
0.500000000000002
 50
89.000017966191436
 51
179.99897045679859
  0
ARC
  8
OUTLINE
  6
CONTINUOUS
 62
     3
 10
0.5
 20
-79.491196303546616
 30
0.0
 40
0.500000000000002
 50
180.0
 51
271.00000000010601
  0
ARC
  8
OUTLINE
  6
CONTINUOUS
 62
     3
 10
-44.799999999999947
 20
43.449231853232789
 30
0.0
 40
8.0
 50
90.50000000000459
 51
113.69895318319671
  0
LINE
  8
OUTLINE
  6
CONTINUOUS
 62
     3
 10
-44.869812283987358
 20
51.448927237746027
 30
0.0
 11
0.0000000000001137
 21
51.537508574890502
 31
0.0
  0
ARC
  8
OUTLINE
  6
CONTINUOUS
 62
     3
 10
-62.689090590102303
 20
27.393798587506179
 30
0.0
 40
1.8890905901022279
 50
269.26402476224831
 51
0.0
  0
LINE
  8
OUTLINE
  6
CONTINUOUS
 62
     3
 10
-62.689090590102303
 20
25.504707997404012
 30
0.0
 11
-65.899999999999977
 21
25.504707997404012
 31
0.0
  0
LINE
  8
OUTLINE
  6
CONTINUOUS
 62
     3
 10
-48.015448376536597
 20
50.774591348699687
 30
0.0
 11
-56.015448376536597
 21
47.263011196461207
 31
0.0
  0
LINE
  8
OUTLINE
  6
CONTINUOUS
 62
     3
 10
-60.799999999999947
 20
27.393798587506179
 30
0.0
 11
-60.799999999999947
 21
39.93765170099428
 31
0.0
  0
ARC
  8
OUTLINE
  6
CONTINUOUS
 62
     3
 10
-52.799999999999947
 20
39.93765170099428
 30
0.0
 40
8.0
 50
113.69895318319671
 51
180.0
  0
LINE
  8
OUTLINE
  6
CONTINUOUS
 62
     3
 10
-58.5
 20
-31.299725809598559
 30
0.0
 11
-56.905070584774187
 21
-31.299725809598559
 31
0.0
  0
ARC
  8
OUTLINE
  6
CONTINUOUS
 62
     3
 10
-59.0
 20
-23.349725809598599
 30
0.0
 40
0.5
 50
8.9999999999974953
 51
90.0
  0
ARC
  8
OUTLINE
  6
CONTINUOUS
 62
     3
 10
-81.900000000000091
 20
-20.249725809598569
 30
0.0
 40
2.599999999999993
 50
180.0
 51
270.0
  0
LINE
  8
OUTLINE
  6
CONTINUOUS
 62
     3
 10
-81.900000000000091
 20
-22.849725809598599
 30
0.0
 11
-59.0
 21
-22.849725809598599
 31
0.0
  0
LINE
  8
OUTLINE
  6
CONTINUOUS
 62
     3
 10
-84.5
 20
-20.249591358498581
 30
0.0
 11
-84.5
 21
23.318790716201448
 31
0.0
  0
LINE
  8
OUTLINE
  6
CONTINUOUS
 62
     3
 10
-81.899999999999807
 20
25.918790716201439
 30
0.0
 11
-67.600000000000136
 21
25.918790716201439
 31
0.0
  0
LINE
  8
OUTLINE
  6
CONTINUOUS
 62
     3
 10
-61.179454343299987
 20
-25.500011153299941
 30
0.0
 11
-61.141374125000077
 21
-25.521996777599949
 31
0.0
  0
ARC
  8
OUTLINE
  6
CONTINUOUS
 62
     3
 10
-55.100000000000144
 20
-27.799999999999951
 30
0.0
 40
6.4565857850999038
 50
186.67056334700149
 51
200.65980733110001
  0
ARC
  8
OUTLINE
  6
CONTINUOUS
 62
     3
 10
-55.100000000000144
 20
-27.799999999999951
 30
0.0
 40
6.4565857850999757
 50
159.34019266889999
 51
173.32943665300149
  0
ARC
  8
OUTLINE
  6
CONTINUOUS
 62
     3
 10
-59.430127018900073
 20
-25.299999999999951
 30
0.0
 40
1.49999999999994
 50
90.0
 51
149.99999999999719
  0
ARC
  8
OUTLINE
  6
CONTINUOUS
 62
     3
 10
-59.430127018900073
 20
-30.299999999999951
 30
0.0
 40
1.5
 50
210.00000000000159
 51
270.0
  0
LINE
  8
OUTLINE
  6
CONTINUOUS
 62
     3
 10
-60.729165124600058
 20
-31.049999999999951
 30
0.0
 11
-61.175223208000027
 21
-30.111203793099971
 31
0.0
  0
LINE
  8
OUTLINE
  6
CONTINUOUS
 62
     3
 10
-61.169926120500122
 20
-27.42407052300004
 30
0.0
 11
-61.141374125000077
 21
-27.049999999999901
 31
0.0
  0
LINE
  8
OUTLINE
  6
CONTINUOUS
 62
     3
 10
-61.179473661400152
 20
-27.799999999999951
 30
0.0
 11
-61.169926120500122
 21
-27.42407052300004
 31
0.0
  0
LINE
  8
OUTLINE
  6
CONTINUOUS
 62
     3
 10
-61.170033141500198
 20
-28.1738183935
 30
0.0
 11
-61.179473661400152
 21
-27.799999999999951
 31
0.0
  0
LINE
  8
OUTLINE
  6
CONTINUOUS
 62
     3
 10
-61.141374125000077
 20
-28.549999999999951
 30
0.0
 11
-61.170033141500198
 21
-28.1738183935
 31
0.0
  0
LINE
  8
OUTLINE
  6
CONTINUOUS
 62
     3
 10
-60.729165124600058
 20
-24.549999999999901
 30
0.0
 11
-61.175223208000027
 21
-25.48879620699995
 31
0.0
  0
LINE
  8
OUTLINE
  6
CONTINUOUS
 62
     3
 10
-61.141374125000077
 20
-30.078003222399929
 30
0.0
 11
-61.179454343299987
 21
-30.099988846700061
 31
0.0
  0
LINE
  8
OUTLINE
  6
CONTINUOUS
 62
     3
 10
-58.5
 20
-31.799999999999951
 30
0.0
 11
-59.430127018900073
 21
-31.799999999999951
 31
0.0
  0
LINE
  8
OUTLINE
  6
CONTINUOUS
 62
     3
 10
-61.512877669200179
 20
-28.549999999999951
 30
0.0
 11
-61.141374125000077
 21
-28.549999999999951
 31
0.0
  0
LINE
  8
OUTLINE
  6
CONTINUOUS
 62
     3
 10
-61.512877669200179
 20
-27.049999999999901
 30
0.0
 11
-61.141374125000077
 21
-27.049999999999901
 31
0.0
  0
LINE
  8
OUTLINE
  6
CONTINUOUS
 62
     3
 10
-58.5
 20
-23.799999999999951
 30
0.0
 11
-59.430127018900073
 21
-23.799999999999951
 31
0.0
  0
LINE
  8
DETAIL
  6
CONTINUOUS
 62
     5
 10
-67.599999999999909
 20
22.818175690801379
 30
0.0
 11
-65.899999999999977
 21
22.071679321101438
 31
0.0
  0
LINE
  8
OUTLINE
  6
CONTINUOUS
 62
     3
 10
16.50000000000011
 20
-84.800000000098592
 30
0.0
 11
15.50000000000011
 21
-84.800000000098592
 31
0.0
  0
LINE
  8
OUTLINE
  6
CONTINUOUS
 62
     3
 10
15.00000000000011
 20
-80.246977722529451
 30
0.0
 11
15.00000000000011
 21
-83.300000000098592
 31
0.0
  0
LINE
  8
OUTLINE
  6
CONTINUOUS
 62
     3
 10
17.00000000000011
 20
-80.1946125277357
 30
0.0
 11
17.00000000000011
 21
-84.300000000098592
 31
0.0
  0
ARC
  8
OUTLINE
  6
CONTINUOUS
 62
     3
 10
15.50000000000011
 20
-84.300000000098592
 30
0.0
 40
0.5
 50
179.99999999999841
 51
270.0
  0
ARC
  8
OUTLINE
  6
CONTINUOUS
 62
     3
 10
16.50000000000011
 20
-84.300000000098592
 30
0.0
 40
0.5
 50
270.0
 51
0.0000000000016284
  0
ARC
  8
OUTLINE
  6
CONTINUOUS
 62
     3
 10
14.50000000000011
 20
-80.246977722529451
 30
0.0
 40
0.49999999999999
 50
0.0000000000016284
 51
91.000000000171156
  0
ARC
  8
OUTLINE
  6
CONTINUOUS
 62
     3
 10
17.50000000000011
 20
-80.1946125277357
 30
0.0
 40
0.5
 50
91.000000000171156
 51
180.0
  0
LINE
  8
OUTLINE
  6
CONTINUOUS
 62
     3
 10
15.00000000000011
 20
-84.300000000098592
 30
0.0
 11
14.80000000000018
 21
-84.300000000098592
 31
0.0
  0
LINE
  8
OUTLINE
  6
CONTINUOUS
 62
     3
 10
15.00000000000011
 20
-83.300000000098592
 30
0.0
 11
14.80000000000018
 21
-83.300000000098592
 31
0.0
  0
LINE
  8
OUTLINE
  6
CONTINUOUS
 62
     3
 10
14.400000000000199
 20
-83.700000000098612
 30
0.0
 11
14.400000000000199
 21
-83.900000000098643
 31
0.0
  0
ARC
  8
OUTLINE
  6
CONTINUOUS
 62
     3
 10
14.80000000000018
 20
-83.900000000098643
 30
0.0
 40
0.399999999999998
 50
180.0
 51
270.0
  0
ARC
  8
OUTLINE
  6
CONTINUOUS
 62
     3
 10
14.80000000000018
 20
-83.700000000098612
 30
0.0
 40
0.399999999999992
 50
90.0
 51
180.0
  0
ARC
  8
DETAIL
  6
CONTINUOUS
 62
     5
 10
-81.899999999999807
 20
23.318790716201448
 30
0.0
 40
2.599999999999993
 50
90.0
 51
180.0
  0
ARC
  8
OUTLINE
  6
CONTINUOUS
 62
     3
 10
-81.89999999999992
 20
23.318790716201448
 30
0.0
 40
2.599999999999993
 50
90.0
 51
180.0
  0
LINE
  8
OUTLINE
  6
CONTINUOUS
 62
     3
 10
-67.599999999999909
 20
26.518790716201408
 30
0.0
 11
-66.499999999999886
 21
26.518790716201408
 31
0.0
  0
LINE
  8
OUTLINE
  6
CONTINUOUS
 62
     3
 10
-65.899999999999977
 20
25.504707997404012
 30
0.0
 11
-65.899999999999977
 21
25.91417536780142
 31
0.0
  0
LINE
  8
OUTLINE
  6
CONTINUOUS
 62
     3
 10
-67.599999999999909
 20
25.918790716201439
 30
0.0
 11
-67.599999999999909
 21
26.51860883290141
 31
0.0
  0
ARC
  8
OUTLINE
  6
CONTINUOUS
 62
     3
 10
-66.499999999999886
 20
25.918790716201439
 30
0.0
 40
0.5999999999999661
 50
0.0
 51
90.0
  0
ENDSEC
  0
EOF
