  0
SECTION
  2
HEADER
  9
$ACADVER
  1
AC1009
  9
$DWGCODEPAGE
  3
ansi_932
  9
$INSBASE
 10
0.0
 20
0.0
 30
0.0
  9
$EXTMIN
 10
-733.1660078632912
 20
-528.539203
 30
0.0
  9
$EXTMAX
 10
1189.378885637738
 20
694.7453839087118
 30
50.0
  9
$LIMMIN
 10
-2970.0
 20
-2100.0
  9
$LIMMAX
 10
2970.0
 20
2100.0
  9
$ORTHOMODE
 70
     1
  9
$REGENMODE
 70
     0
  9
$FILLMODE
 70
     1
  9
$QTEXTMODE
 70
     0
  9
$MIRRTEXT
 70
     0
  9
$DRAGMODE
 70
     2
  9
$LTSCALE
 40
20.0
  9
$OSMODE
 70
    37
  9
$ATTMODE
 70
     1
  9
$TEXTSIZE
 40
64.0
  9
$TRACEWID
 40
0.05
  9
$TEXTSTYLE
  7
STANDARD
  9
$CLAYER
  8
BASIS
  9
$CELTYPE
  6
CONTINUOUS
  9
$CECOLOR
 62
     6
  9
$DIMSCALE
 40
1.0
  9
$DIMASZ
 40
12.0
  9
$DIMEXO
 40
20.0
  9
$DIMDLI
 40
200.0
  9
$DIMRND
 40
0.0
  9
$DIMDLE
 40
0.0
  9
$DIMEXE
 40
20.0
  9
$DIMTP
 40
0.0
  9
$DIMTM
 40
0.0
  9
$DIMTXT
 40
64.0
  9
$DIMCEN
 40
0.09
  9
$DIMTSZ
 40
0.0
  9
$DIMTOL
 70
     0
  9
$DIMLIM
 70
     0
  9
$DIMTIH
 70
     0
  9
$DIMTOH
 70
     0
  9
$DIMSE1
 70
     0
  9
$DIMSE2
 70
     0
  9
$DIMTAD
 70
     1
  9
$DIMZIN
 70
     8
  9
$DIMBLK
  1
DOT1
  9
$DIMASO
 70
     1
  9
$DIMSHO
 70
     0
  9
$DIMPOST
  1

  9
$DIMAPOST
  1

  9
$DIMALT
 70
     0
  9
$DIMALTD
 70
     2
  9
$DIMALTF
 40
25.4
  9
$DIMLFAC
 40
1.0
  9
$DIMTOFL
 70
     1
  9
$DIMTVP
 40
0.0
  9
$DIMTIX
 70
     1
  9
$DIMSOXD
 70
     0
  9
$DIMSAH
 70
     1
  9
$DIMBLK1
  1
ORIGIN
  9
$DIMBLK2
  1
ORIGIN
  9
$DIMSTYLE
  2
STANDARD
  9
$DIMCLRD
 70
     7
  9
$DIMCLRE
 70
     7
  9
$DIMCLRT
 70
     7
  9
$DIMTFAC
 40
1.0
  9
$DIMGAP
 40
25.0
  9
$LUNITS
 70
     2
  9
$LUPREC
 70
     4
  9
$SKETCHINC
 40
0.1
  9
$FILLETRAD
 40
3.0
  9
$AUNITS
 70
     1
  9
$AUPREC
 70
     3
  9
$MENU
  1
ACAD
  9
$ELEVATION
 40
0.0
  9
$PELEVATION
 40
0.0
  9
$THICKNESS
 40
50.0
  9
$LIMCHECK
 70
     0
  9
$CHAMFERA
 40
0.0
  9
$CHAMFERB
 40
0.0
  9
$SKPOLY
 70
     0
  9
$TDCREATE
 40
2453067.755712917
  9
$TDUPDATE
 40
2457485.584558032
  9
$TDINDWG
 40
0.2094018056
  9
$TDUSRTIMER
 40
0.2094016204
  9
$USRTIMER
 70
     1
  9
$ANGBASE
 50
0.0
  9
$ANGDIR
 70
     0
  9
$PDMODE
 70
     3
  9
$PDSIZE
 40
-2.0
  9
$PLINEWID
 40
0.0
  9
$COORDS
 70
     1
  9
$SPLFRAME
 70
     0
  9
$SPLINETYPE
 70
     6
  9
$SPLINESEGS
 70
     8
  9
$ATTDIA
 70
     0
  9
$ATTREQ
 70
     1
  9
$HANDLING
 70
     1
  9
$HANDSEED
  5
1658
  9
$SURFTAB1
 70
     6
  9
$SURFTAB2
 70
     6
  9
$SURFTYPE
 70
     6
  9
$SURFU
 70
     6
  9
$SURFV
 70
     6
  9
$UCSNAME
  2

  9
$UCSORG
 10
0.0
 20
0.0
 30
0.0
  9
$UCSXDIR
 10
1.0
 20
0.0
 30
0.0
  9
$UCSYDIR
 10
0.0
 20
1.0
 30
0.0
  9
$PUCSNAME
  2

  9
$PUCSORG
 10
0.0
 20
0.0
 30
0.0
  9
$PUCSXDIR
 10
1.0
 20
0.0
 30
0.0
  9
$PUCSYDIR
 10
0.0
 20
1.0
 30
0.0
  9
$USERI1
 70
     0
  9
$USERI2
 70
     0
  9
$USERI3
 70
     0
  9
$USERI4
 70
     0
  9
$USERI5
 70
     0
  9
$USERR1
 40
20.0
  9
$USERR2
 40
0.0
  9
$USERR3
 40
0.0
  9
$USERR4
 40
0.0
  9
$USERR5
 40
0.0
  9
$WORLDVIEW
 70
     1
  9
$SHADEDGE
 70
     3
  9
$SHADEDIF
 70
    70
  9
$TILEMODE
 70
     1
  9
$MAXACTVP
 70
    48
  9
$PLIMCHECK
 70
     0
  9
$PEXTMIN
 10
-1.000000000000000E+20
 20
-1.000000000000000E+20
 30
-1.000000000000000E+20
  9
$PEXTMAX
 10
1.000000000000000E+20
 20
1.000000000000000E+20
 30
1.000000000000000E+20
  9
$PLIMMIN
 10
0.0
 20
0.0
  9
$PLIMMAX
 10
12.0
 20
9.0
  9
$UNITMODE
 70
     0
  9
$VISRETAIN
 70
     0
  9
$PLINEGEN
 70
     0
  9
$PSLTSCALE
 70
     0
  0
ENDSEC
  0
SECTION
  2
TABLES
  0
TABLE
  2
VPORT
 70
     1
  0
VPORT
  2
*ACTIVE
 70
     0
 10
0.0
 20
0.0
 11
1.0
 21
1.0
 12
119.1319777203584
 22
136.6343699911283
 13
0.0
 23
0.0
 14
1.0
 24
1.0
 15
0.0
 25
0.0
 16
0.0
 26
0.0
 36
1.0
 17
0.0
 27
0.0
 37
0.0
 40
1644.640553301162
 41
1.710526315789473
 42
50.0
 43
0.0
 44
0.0
 50
0.0
 51
0.0
 71
     0
 72
  1000
 73
     1
 74
     0
 75
     0
 76
     0
 77
     0
 78
     0
  0
ENDTAB
  0
TABLE
  2
LTYPE
 70
     3
  0
LTYPE
  2
CONTINUOUS
 70
     0
  3
実線
 72
    65
 73
     0
 40
0.0
  0
LTYPE
  2
DASHDOT
 70
     0
  3
____ _ ____ _ ____ _ ____ _ ____ _ ____ _ ____
 72
    65
 73
     4
 40
5.5
 49
4.0
 49
-0.6
 49
0.3
 49
-0.6
  0
LTYPE
  2
DASHED
 70
     0
  3
-- -- -- -- -- -- -- -- -- -- -- -- -- -- --
 72
    65
 73
     2
 40
0.75
 49
0.5
 49
-0.25
  0
ENDTAB
  0
TABLE
  2
LAYER
 70
    12
  0
LAYER
  2
0
 70
     0
 62
     7
  6
CONTINUOUS
  0
LAYER
  2
BASIS
 70
     0
 62
     6
  6
DASHDOT
  0
LAYER
  2
OUTLINE
 70
     0
 62
     3
  6
CONTINUOUS
  0
LAYER
  2
SIZE
 70
     0
 62
    30
  6
CONTINUOUS
  0
LAYER
  2
DETAIL
 70
     0
 62
     5
  6
CONTINUOUS
  0
LAYER
  2
ARRANGE
 70
     0
 62
     1
  6
CONTINUOUS
  0
LAYER
  2
DEFPOINTS
 70
     0
 62
     7
  6
CONTINUOUS
  0
LAYER
  2
ETC
 70
     0
 62
    61
  6
CONTINUOUS
  0
LAYER
  2
FIX
 70
     0
 62
    11
  6
CONTINUOUS
  0
LAYER
  2
NOTE
 70
     0
 62
     4
  6
CONTINUOUS
  0
LAYER
  2
SERVICESPACE
 70
     0
 62
     2
  6
DASHDOT
  0
LAYER
  2
SYMBOLLINE
 70
     0
 62
    15
  6
CONTINUOUS
  0
ENDTAB
  0
TABLE
  2
STYLE
 70
     1
  0
STYLE
  2
STANDARD
 70
     0
 40
64.0
 41
0.9
 50
0.0
 71
     0
 42
64.0
  3
SIMPLEX.shx
  4
BIGFONT.shx
  0
ENDTAB
  0
TABLE
  2
VIEW
 70
     1
  0
VIEW
  2
ALL
 70
     0
 40
4282.619807999997
 10
0.0
 20
41.30990399999999
 41
5940.0
 11
0.0
 21
0.0
 31
1.0
 12
0.0
 22
0.0
 32
0.0
 42
50.0
 43
0.0
 44
0.0
 50
0.0
 71
     0
  0
ENDTAB
  0
TABLE
  2
UCS
 70
     0
  0
ENDTAB
  0
TABLE
  2
APPID
 70
     2
  0
APPID
  2
ACAD
 70
     0
  0
APPID
  2
AUTOCAD_POSTSCRIPT_FIGURE
 70
     0
  0
ENDTAB
  0
TABLE
  2
DIMSTYLE
 70
     1
  0
DIMSTYLE
  2
STANDARD
 70
     0
  3

  4

  5

  6

  7

 40
1.0
 41
0.18
 42
0.0625
 43
0.38
 44
0.18
 45
0.0
 46
0.0
 47
0.0
 48
0.0
140
0.18
141
0.09
142
0.0
143
25.4
144
1.0
145
0.0
146
1.0
147
0.09
 71
     0
 72
     0
 73
     1
 74
     1
 75
     0
 76
     0
 77
     0
 78
     0
170
     0
171
     2
172
     0
173
     0
174
     0
175
     0
176
     7
177
     7
178
     7
  0
ENDTAB
  0
ENDSEC
  0
SECTION
  2
BLOCKS
  0
BLOCK
  8
0
  2
$MODEL_SPACE
 70
     0
 10
0.0
 20
0.0
 30
0.0
  3
$MODEL_SPACE
  1

  0
ENDBLK
  5
135F
  8
0
  0
BLOCK
 67
     1
  8
0
  2
$PAPER_SPACE
 70
     0
 10
0.0
 20
0.0
 30
0.0
  3
$PAPER_SPACE
  1

  0
ENDBLK
  5
135B
 67
     1
  8
0
  0
BLOCK
  8
0
  2
DOT1
 70
     0
 10
0.0
 20
0.0
 30
0.0
  3
DOT1
  1

  0
CIRCLE
  5
137C
  8
SIZE
  6
CONTINUOUS
 62
     7
 10
0.0
 20
0.0
 30
0.0
 40
3.0
  0
ENDBLK
  5
137D
  8
0
  0
BLOCK
  8
0
  2
_ORIGIN
 70
     0
 10
0.0
 20
0.0
 30
0.0
  3
_ORIGIN
  1

  0
CIRCLE
  5
1380
  8
0
  6
CONTINUOUS
 62
     7
 10
0.0
 20
0.0
 30
0.0
 40
0.5
  0
LINE
  5
1381
  8
0
  6
CONTINUOUS
 62
     7
 10
0.0
 20
0.0
 30
0.0
 11
-1.0
 21
0.0
 31
0.0
  0
ENDBLK
  5
1382
  8
0
  0
ENDSEC
  0
SECTION
  2
ENTITIES
  0
LINE
  5
1383
  8
BASIS
  6
DASHDOT
 62
     6
 10
0.0
 20
-110.0221949999999
 30
0.0
 11
0.0
 21
234.6846209999999
 31
0.0
  0
LINE
  5
1384
  8
SIZE
  6
CONTINUOUS
 62
    30
 10
257.5
 20
0.0
 30
0.0
 11
573.7812179999999
 21
0.0
 31
0.0
  0
LINE
  5
1385
  8
SIZE
  6
CONTINUOUS
 62
    30
 10
20.0
 20
-30.0
 30
0.0
 11
573.7812179999999
 21
-30.0
 31
0.0
  0
LINE
  5
1386
  8
SIZE
  6
CONTINUOUS
 62
    30
 10
553.781218
 20
12.0
 30
0.0
 11
553.781218
 21
23.99999999999996
 31
0.0
  0
LINE
  5
1387
  8
SIZE
  6
CONTINUOUS
 62
    30
 10
553.781218
 20
-42.0
 30
0.0
 11
553.781218
 21
-54.0
 31
0.0
  0
LINE
  5
1388
  8
SIZE
  6
CONTINUOUS
 62
    30
 10
553.781218
 20
-198.7436149999999
 30
0.0
 11
553.781218
 21
-30.0
 31
0.0
  0
TEXT
  5
1389
  8
SIZE
  6
CONTINUOUS
 62
    30
 10
528.781218
 20
-181.9721868571428
 30
0.0
 40
64.0
  1
30
 50
90.0
 41
0.9
 72
     1
 11
528.781218
 21
-127.1150439999999
 31
0.0
  0
LINE
  5
138A
  8
SIZE
  6
CONTINUOUS
 62
    30
 10
553.781218
 20
0.0
 30
0.0
 11
553.781218
 21
-30.0
 31
0.0
  0
LINE
  5
138B
  8
SIZE
  6
CONTINUOUS
 62
    30
 10
553.781218
 20
0.0
 30
0.0
 11
553.781218
 21
-30.0
 31
0.0
  0
CIRCLE
  5
138C
  8
SIZE
  6
CONTINUOUS
 62
    30
 10
553.781218
 20
0.0
 30
0.0
 40
6.0
  0
LINE
  5
138D
  8
SIZE
  6
CONTINUOUS
 62
    30
 10
553.781218
 20
0.0
 30
0.0
 11
553.781218
 21
12.0
 31
0.0
  0
CIRCLE
  5
138E
  8
SIZE
  6
CONTINUOUS
 62
    30
 10
553.781218
 20
-30.0
 30
0.0
 40
6.0
  0
LINE
  5
138F
  8
SIZE
  6
CONTINUOUS
 62
    30
 10
553.781218
 20
-30.0
 30
0.0
 11
553.781218
 21
-42.0
 31
0.0
  0
LINE
  5
1390
  8
SIZE
  6
CONTINUOUS
 62
    30
 10
257.5
 20
0.0
 30
0.0
 11
451.723832
 21
0.0
 31
0.0
  0
LINE
  5
1391
  8
SIZE
  6
CONTINUOUS
 62
    30
 10
253.5
 20
-20.0
 30
0.0
 11
451.723832
 21
-20.0
 31
0.0
  0
LINE
  5
1392
  8
SIZE
  6
CONTINUOUS
 62
    30
 10
431.723832
 20
12.0
 30
0.0
 11
431.723832
 21
23.99999999999996
 31
0.0
  0
LINE
  5
1393
  8
SIZE
  6
CONTINUOUS
 62
    30
 10
431.723832
 20
-32.0
 30
0.0
 11
431.723832
 21
-44.0
 31
0.0
  0
LINE
  5
1394
  8
SIZE
  6
CONTINUOUS
 62
    30
 10
431.723832
 20
-199.443011
 30
0.0
 11
431.723832
 21
-20.0
 31
0.0
  0
TEXT
  5
1395
  8
SIZE
  6
CONTINUOUS
 62
    30
 10
406.7238319999999
 20
-182.6715818571429
 30
0.0
 40
64.0
  1
20
 50
90.0
 41
0.9
 72
     1
 11
406.7238319999999
 21
-127.814439
 31
0.0
  0
LINE
  5
1396
  8
SIZE
  6
CONTINUOUS
 62
    30
 10
431.723832
 20
0.0
 30
0.0
 11
431.723832
 21
-20.0
 31
0.0
  0
LINE
  5
1397
  8
SIZE
  6
CONTINUOUS
 62
    30
 10
431.723832
 20
0.0
 30
0.0
 11
431.723832
 21
-20.0
 31
0.0
  0
CIRCLE
  5
1398
  8
SIZE
  6
CONTINUOUS
 62
    30
 10
431.723832
 20
0.0
 30
0.0
 40
6.0
  0
LINE
  5
1399
  8
SIZE
  6
CONTINUOUS
 62
    30
 10
431.723832
 20
0.0
 30
0.0
 11
431.723832
 21
12.0
 31
0.0
  0
CIRCLE
  5
139A
  8
SIZE
  6
CONTINUOUS
 62
    30
 10
431.723832
 20
-20.0
 30
0.0
 40
6.0
  0
LINE
  5
139B
  8
SIZE
  6
CONTINUOUS
 62
    30
 10
431.723832
 20
-20.0
 30
0.0
 11
431.723832
 21
-32.0
 31
0.0
  0
CIRCLE
  5
139C
  8
FIX
  6
CONTINUOUS
 62
    11
 39
50.0
 10
177.0
 20
106.2999999999997
 30
0.0
 40
7.5
  0
LINE
  5
139D
  8
NOTE
  6
CONTINUOUS
 62
     4
 10
157.0
 20
106.2999999999997
 30
0.0
 11
197.0
 21
106.2999999999997
 31
0.0
  0
LINE
  5
139E
  8
NOTE
  6
CONTINUOUS
 62
     4
 10
177.0
 20
126.2999999999997
 30
0.0
 11
177.0
 21
86.29999999999998
 31
0.0
  0
CIRCLE
  5
139F
  8
FIX
  6
CONTINUOUS
 62
    11
 39
50.0
 10
-177.0
 20
106.2999999999997
 30
0.0
 40
7.5
  0
LINE
  5
13A0
  8
NOTE
  6
CONTINUOUS
 62
     4
 10
-157.0
 20
106.2999999999997
 30
0.0
 11
-197.0
 21
106.2999999999997
 31
0.0
  0
LINE
  5
13A1
  8
NOTE
  6
CONTINUOUS
 62
     4
 10
-177.0
 20
126.2999999999997
 30
0.0
 11
-177.0
 21
86.29999999999998
 31
0.0
  0
LINE
  5
13A2
  8
SIZE
  6
CONTINUOUS
 62
    30
 10
-257.5
 20
0.0
 30
0.0
 11
-379.361143
 21
0.0
 31
0.0
  0
LINE
  5
13A3
  8
SIZE
  6
CONTINUOUS
 62
    30
 10
-130.7916539999999
 20
-42.0
 30
0.0
 11
-379.361143
 21
-42.0
 31
0.0
  0
LINE
  5
13A4
  8
SIZE
  6
CONTINUOUS
 62
    30
 10
-359.361143
 20
12.0
 30
0.0
 11
-359.361143
 21
23.99999999999996
 31
0.0
  0
LINE
  5
13A5
  8
SIZE
  6
CONTINUOUS
 62
    30
 10
-359.361143
 20
-54.0
 30
0.0
 11
-359.361143
 21
-66.0
 31
0.0
  0
LINE
  5
13A6
  8
SIZE
  6
CONTINUOUS
 62
    30
 10
-359.361143
 20
-212.1601309999999
 30
0.0
 11
-359.361143
 21
-42.0
 31
0.0
  0
TEXT
  5
13A7
  8
SIZE
  6
CONTINUOUS
 62
    30
 10
-384.361143
 20
-195.3887018571425
 30
0.0
 40
64.0
  1
42
 50
90.0
 41
0.9
 72
     1
 11
-384.361143
 21
-140.5315589999996
 31
0.0
  0
LINE
  5
13A8
  8
SIZE
  6
CONTINUOUS
 62
    30
 10
-359.361143
 20
0.0
 30
0.0
 11
-359.361143
 21
-42.0
 31
0.0
  0
LINE
  5
13A9
  8
SIZE
  6
CONTINUOUS
 62
    30
 10
-359.361143
 20
0.0
 30
0.0
 11
-359.361143
 21
-42.0
 31
0.0
  0
CIRCLE
  5
13AA
  8
SIZE
  6
CONTINUOUS
 62
    30
 10
-359.361143
 20
0.0
 30
0.0
 40
6.0
  0
LINE
  5
13AB
  8
SIZE
  6
CONTINUOUS
 62
    30
 10
-359.361143
 20
0.0
 30
0.0
 11
-359.361143
 21
12.0
 31
0.0
  0
CIRCLE
  5
13AC
  8
SIZE
  6
CONTINUOUS
 62
    30
 10
-359.361143
 20
-42.0
 30
0.0
 40
6.0
  0
LINE
  5
13AD
  8
SIZE
  6
CONTINUOUS
 62
    30
 10
-359.361143
 20
-42.0
 30
0.0
 11
-359.361143
 21
-54.0
 31
0.0
  0
LINE
  5
13AE
  8
SIZE
  6
CONTINUOUS
 62
    30
 10
257.5
 20
0.0
 30
0.0
 11
692.6209169999998
 21
0.0
 31
0.0
  0
LINE
  5
13AF
  8
SIZE
  6
CONTINUOUS
 62
    30
 10
358.3708049999998
 20
95.99999999999999
 30
0.0
 11
692.6209169999998
 21
95.99999999999999
 31
0.0
  0
LINE
  5
13B0
  8
SIZE
  6
CONTINUOUS
 62
    30
 10
672.6209169999997
 20
0.0
 30
0.0
 11
672.6209169999997
 21
95.99999999999999
 31
0.0
  0
CIRCLE
  5
13B1
  8
SIZE
  6
CONTINUOUS
 62
    30
 10
672.6209169999997
 20
0.0
 30
0.0
 40
6.0
  0
CIRCLE
  5
13B2
  8
SIZE
  6
CONTINUOUS
 62
    30
 10
672.6209169999997
 20
95.99999999999999
 30
0.0
 40
6.0
  0
TEXT
  5
13B3
  8
SIZE
  6
CONTINUOUS
 62
    30
 10
647.6209169999998
 20
-6.857142857142883
 30
0.0
 40
64.0
  1
96
 50
90.0
 41
0.9
 72
     1
 11
647.6209169999998
 21
47.99999999999998
 31
0.0
  0
LINE
  5
13B4
  8
SIZE
  6
CONTINUOUS
 62
    30
 10
-257.5
 20
0.0
 30
0.0
 11
-431.5893809999997
 21
0.0
 31
0.0
  0
LINE
  5
13B5
  8
SIZE
  6
CONTINUOUS
 62
    30
 10
-210.0
 20
195.0
 30
0.0
 11
-431.5893809999997
 21
195.0
 31
0.0
  0
LINE
  5
13B6
  8
SIZE
  6
CONTINUOUS
 62
    30
 10
-411.5893809999999
 20
12.0
 30
0.0
 11
-411.5893809999999
 21
183.0
 31
0.0
  0
CIRCLE
  5
13B7
  8
SIZE
  6
CONTINUOUS
 62
    30
 10
-411.5893809999999
 20
0.0
 30
0.0
 40
6.0
  0
LINE
  5
13B8
  8
SIZE
  6
CONTINUOUS
 62
    30
 10
-411.5893809999999
 20
0.0
 30
0.0
 11
-411.5893809999999
 21
12.0
 31
0.0
  0
CIRCLE
  5
13B9
  8
SIZE
  6
CONTINUOUS
 62
    30
 10
-411.5893809999999
 20
195.0
 30
0.0
 40
6.0
  0
LINE
  5
13BA
  8
SIZE
  6
CONTINUOUS
 62
    30
 10
-411.5893809999999
 20
195.0
 30
0.0
 11
-411.5893809999999
 21
183.0
 31
0.0
  0
TEXT
  5
13BB
  8
SIZE
  6
CONTINUOUS
 62
    30
 10
-436.5893809999997
 20
11.09999999999999
 30
0.0
 40
64.0
  1
195
 50
90.0
 41
0.9
 72
     1
 11
-436.5893809999997
 21
97.5
 31
0.0
  0
LINE
  5
13BC
  8
SIZE
  6
CONTINUOUS
 62
    30
 10
-237.5
 20
-36.0
 30
0.0
 11
-237.5
 21
-528.539203
 31
0.0
  0
LINE
  5
13BD
  8
SIZE
  6
CONTINUOUS
 62
    30
 10
237.5
 20
-36.0
 30
0.0
 11
237.5
 21
-528.539203
 31
0.0
  0
LINE
  5
13BE
  8
SIZE
  6
CONTINUOUS
 62
    30
 10
-225.4999999999999
 20
-508.539203
 30
0.0
 11
225.4999999999997
 21
-508.539203
 31
0.0
  0
CIRCLE
  5
13BF
  8
SIZE
  6
CONTINUOUS
 62
    30
 10
-237.5
 20
-508.539203
 30
0.0
 40
6.0
  0
LINE
  5
13C0
  8
SIZE
  6
CONTINUOUS
 62
    30
 10
-237.5
 20
-508.539203
 30
0.0
 11
-225.4999999999999
 21
-508.539203
 31
0.0
  0
CIRCLE
  5
13C1
  8
SIZE
  6
CONTINUOUS
 62
    30
 10
237.5
 20
-508.539203
 30
0.0
 40
6.0
  0
LINE
  5
13C2
  8
SIZE
  6
CONTINUOUS
 62
    30
 10
237.5
 20
-508.539203
 30
0.0
 11
225.4999999999997
 21
-508.539203
 31
0.0
  0
TEXT
  5
13C3
  8
SIZE
  6
CONTINUOUS
 62
    30
 10
-106.9714285714286
 20
-483.539203
 30
0.0
 40
64.0
  1
□475
 41
0.9
 72
     1
 11
0.0
 21
-483.539203
 31
0.0
  0
CIRCLE
  5
13C4
  8
FIX
  6
CONTINUOUS
 62
    11
 39
50.0
 10
142.5
 20
0.0
 30
0.0
 40
2.5
  0
LINE
  5
13C5
  8
NOTE
  6
CONTINUOUS
 62
     4
 10
142.5
 20
19.99999999999996
 30
0.0
 11
142.5
 21
-20.0
 31
0.0
  0
LINE
  5
13C6
  8
NOTE
  6
CONTINUOUS
 62
     4
 10
162.5
 20
0.0
 30
0.0
 11
122.5
 21
0.0
 31
0.0
  0
CIRCLE
  5
13C7
  8
FIX
  6
CONTINUOUS
 62
    11
 39
50.0
 10
-142.5
 20
0.0
 30
0.0
 40
2.5
  0
LINE
  5
13C8
  8
NOTE
  6
CONTINUOUS
 62
     4
 10
-142.5
 20
19.99999999999996
 30
0.0
 11
-142.5
 21
-20.0
 31
0.0
  0
LINE
  5
13C9
  8
NOTE
  6
CONTINUOUS
 62
     4
 10
-122.5
 20
0.0
 30
0.0
 11
-162.5
 21
0.0
 31
0.0
  0
LINE
  5
13CA
  8
NOTE
  6
CONTINUOUS
 62
     4
 10
194.0
 20
0.0
 30
0.0
 11
234.0
 21
0.0
 31
0.0
  0
LINE
  5
13CB
  8
NOTE
  6
CONTINUOUS
 62
     4
 10
213.9999999999997
 20
-20.0
 30
0.0
 11
213.9999999999997
 21
19.99999999999996
 31
0.0
  0
LINE
  5
13CC
  8
NOTE
  6
CONTINUOUS
 62
     4
 10
-194.0
 20
0.0
 30
0.0
 11
-234.0
 21
0.0
 31
0.0
  0
LINE
  5
13CD
  8
NOTE
  6
CONTINUOUS
 62
     4
 10
-214.0
 20
-20.0
 30
0.0
 11
-214.0
 21
19.99999999999996
 31
0.0
  0
CIRCLE
  5
13CE
  8
FIX
  6
CONTINUOUS
 62
    11
 39
50.0
 10
-214.0
 20
0.0
 30
0.0
 40
2.5
  0
CIRCLE
  5
13CF
  8
FIX
  6
CONTINUOUS
 62
    11
 39
50.0
 10
213.9999999999997
 20
0.0
 30
0.0
 40
2.5
  0
LINE
  5
13D0
  8
SIZE
  6
CONTINUOUS
 62
    30
 10
-214.0
 20
-40.0
 30
0.0
 11
-214.0
 21
-397.957478
 31
0.0
  0
LINE
  5
13D1
  8
SIZE
  6
CONTINUOUS
 62
    30
 10
213.9999999999997
 20
-40.0
 30
0.0
 11
213.9999999999997
 21
-397.957478
 31
0.0
  0
LINE
  5
13D2
  8
SIZE
  6
CONTINUOUS
 62
    30
 10
-202.0
 20
-377.9574779999999
 30
0.0
 11
202.0
 21
-377.9574779999999
 31
0.0
  0
CIRCLE
  5
13D3
  8
SIZE
  6
CONTINUOUS
 62
    30
 10
-214.0
 20
-377.9574779999999
 30
0.0
 40
6.0
  0
LINE
  5
13D4
  8
SIZE
  6
CONTINUOUS
 62
    30
 10
-214.0
 20
-377.9574779999999
 30
0.0
 11
-202.0
 21
-377.9574779999999
 31
0.0
  0
CIRCLE
  5
13D5
  8
SIZE
  6
CONTINUOUS
 62
    30
 10
213.9999999999997
 20
-377.9574779999999
 30
0.0
 40
6.0
  0
LINE
  5
13D6
  8
SIZE
  6
CONTINUOUS
 62
    30
 10
213.9999999999997
 20
-377.9574779999999
 30
0.0
 11
202.0
 21
-377.9574779999999
 31
0.0
  0
TEXT
  5
13D7
  8
SIZE
  6
CONTINUOUS
 62
    30
 10
-82.28571428571429
 20
-352.9574779999999
 30
0.0
 40
64.0
  1
428
 41
0.9
 72
     1
 11
0.0
 21
-352.9574779999999
 31
0.0
  0
LINE
  5
13D8
  8
SIZE
  6
CONTINUOUS
 62
    30
 10
-142.5
 20
-40.0
 30
0.0
 11
-142.5
 21
-275.2873619999999
 31
0.0
  0
LINE
  5
13D9
  8
SIZE
  6
CONTINUOUS
 62
    30
 10
142.5
 20
-40.0
 30
0.0
 11
142.5
 21
-275.2873619999999
 31
0.0
  0
LINE
  5
13DA
  8
SIZE
  6
CONTINUOUS
 62
    30
 10
-130.4999999999999
 20
-255.2873619999997
 30
0.0
 11
130.4999999999999
 21
-255.2873619999997
 31
0.0
  0
CIRCLE
  5
13DB
  8
SIZE
  6
CONTINUOUS
 62
    30
 10
-142.5
 20
-255.2873619999997
 30
0.0
 40
6.0
  0
LINE
  5
13DC
  8
SIZE
  6
CONTINUOUS
 62
    30
 10
-142.5
 20
-255.2873619999997
 30
0.0
 11
-130.4999999999999
 21
-255.2873619999997
 31
0.0
  0
CIRCLE
  5
13DD
  8
SIZE
  6
CONTINUOUS
 62
    30
 10
142.5
 20
-255.2873619999997
 30
0.0
 40
6.0
  0
LINE
  5
13DE
  8
SIZE
  6
CONTINUOUS
 62
    30
 10
142.5
 20
-255.2873619999997
 30
0.0
 11
130.4999999999999
 21
-255.2873619999997
 31
0.0
  0
TEXT
  5
13DF
  8
SIZE
  6
CONTINUOUS
 62
    30
 10
-82.28571428571429
 20
-230.287362
 30
0.0
 40
64.0
  1
285
 41
0.9
 72
     1
 11
0.0
 21
-230.287362
 31
0.0
  0
TEXT
  5
13E0
  8
NOTE
  6
CONTINUOUS
 62
     4
 10
-95.49765100000002
 20
202.8422579999999
 30
0.0
 40
64.0
  1
RA1
 41
0.9
  0
TEXT
  5
13E1
  8
NOTE
  6
CONTINUOUS
 62
     4
 10
55.996261
 20
209.0761389999999
 30
0.0
 40
64.0
  1
(EA)
 41
0.9
  0
LINE
  5
13E2
  8
NOTE
  6
CONTINUOUS
 62
     4
 10
-246.1575029999999
 20
229.919318
 30
0.0
 11
-504.512286
 21
229.919318
 31
0.0
  0
LINE
  5
13E3
  8
NOTE
  6
CONTINUOUS
 62
     4
 10
-177.0
 20
106.2999999999997
 30
0.0
 11
-246.1575029999999
 21
229.919318
 31
0.0
  0
LINE
  5
13E4
  8
NOTE
  6
CONTINUOUS
 62
     4
 10
-186.0671659999999
 20
145.25878
 30
0.0
 11
-177.0
 21
106.2999999999997
 31
0.0
  0
LINE
  5
13E5
  8
NOTE
  6
CONTINUOUS
 62
     4
 10
-177.0
 20
106.2999999999997
 30
0.0
 11
-204.331786
 21
135.50571
 31
0.0
  0
LINE
  5
13E6
  8
NOTE
  6
CONTINUOUS
 62
     4
 39
50.0
 10
-214.0
 20
0.0
 30
0.0
 11
-354.8585479999999
 21
-350.7431609999998
 31
0.0
  0
LINE
  5
13E7
  8
NOTE
  6
CONTINUOUS
 62
     4
 10
-354.8585479999999
 20
-350.7431609999998
 30
0.0
 11
-875.6660078632912
 21
-350.7431609999998
 31
0.0
  0
LINE
  5
13E9
  8
NOTE
  6
CONTINUOUS
 62
     4
 10
-237.744657
 20
-32.189925
 30
0.0
 11
-214.0
 21
0.0
 31
0.0
  0
LINE
  5
13EA
  8
NOTE
  6
CONTINUOUS
 62
     4
 10
-214.0
 20
0.0
 30
0.0
 11
-218.468514
 21
-39.74962099999999
 31
0.0
  0
TEXT
  5
13EB
  8
NOTE
  6
CONTINUOUS
 62
     4
 10
-486.528545
 20
260.8607989999998
 30
0.0
 40
64.0
  1
AH-4
 41
0.9
  0
TEXT
  5
13EC
  8
NOTE
  6
CONTINUOUS
 62
     4
 10
-481.0979229999999
 20
402.199516
 30
0.0
 40
64.0
  1
CL,EL
 41
0.9
  0
LINE
  5
13ED
  8
NOTE
  6
CONTINUOUS
 62
     4
 10
-243.2244119999999
 20
369.3127789999999
 30
0.0
 11
-497.0698489999999
 21
369.3127789999999
 31
0.0
  0
LINE
  5
13EE
  8
SIZE
  6
CONTINUOUS
 62
    30
 10
-177.0
 20
146.3
 30
0.0
 11
-177.0
 21
510.235529
 31
0.0
  0
LINE
  5
13EF
  8
SIZE
  6
CONTINUOUS
 62
    30
 10
177.0
 20
146.3
 30
0.0
 11
177.0
 21
510.235529
 31
0.0
  0
LINE
  5
13F0
  8
SIZE
  6
CONTINUOUS
 62
    30
 10
-165.0
 20
490.235529
 30
0.0
 11
165.0
 21
490.235529
 31
0.0
  0
CIRCLE
  5
13F1
  8
SIZE
  6
CONTINUOUS
 62
    30
 10
-177.0
 20
490.235529
 30
0.0
 40
6.0
  0
LINE
  5
13F2
  8
SIZE
  6
CONTINUOUS
 62
    30
 10
-177.0
 20
490.235529
 30
0.0
 11
-165.0
 21
490.235529
 31
0.0
  0
CIRCLE
  5
13F3
  8
SIZE
  6
CONTINUOUS
 62
    30
 10
177.0
 20
490.235529
 30
0.0
 40
6.0
  0
LINE
  5
13F4
  8
SIZE
  6
CONTINUOUS
 62
    30
 10
177.0
 20
490.235529
 30
0.0
 11
165.0
 21
490.235529
 31
0.0
  0
TEXT
  5
13F5
  8
SIZE
  6
CONTINUOUS
 62
    30
 10
-83.65714285714286
 20
515.235529
 30
0.0
 40
64.0
  1
354
 41
0.9
 72
     1
 11
0.0
 21
515.235529
 31
0.0
  0
LINE
  5
13F6
  8
NOTE
  6
CONTINUOUS
 62
     4
 39
50.0
 10
-243.2244119999999
 20
369.3127789999999
 30
0.0
 11
-147.347303
 21
195.0
 31
0.0
  0
LINE
  5
13F7
  8
NOTE
  6
CONTINUOUS
 62
     4
 10
-157.1124149999999
 20
233.789723
 30
0.0
 11
-147.347303
 21
195.0
 31
0.0
  0
LINE
  5
13F8
  8
NOTE
  6
CONTINUOUS
 62
     4
 10
-147.347303
 20
195.0
 30
0.0
 11
-175.199
 21
223.7103289999998
 31
0.0
  0
LINE
  5
13F9
  8
SIZE
  6
CONTINUOUS
 62
    30
 10
0.0
 20
254.6846209999999
 30
0.0
 11
0.0
 21
390.268142
 31
0.0
  0
LINE
  5
13FA
  8
SIZE
  6
CONTINUOUS
 62
    30
 10
132.9999999999999
 20
188.826603
 30
0.0
 11
132.9999999999999
 21
390.268142
 31
0.0
  0
LINE
  5
13FB
  8
SIZE
  6
CONTINUOUS
 62
    30
 10
-12.0000000000004
 20
370.268142
 30
0.0
 11
-24.0
 21
370.268142
 31
0.0
  0
LINE
  5
13FC
  8
SIZE
  6
CONTINUOUS
 62
    30
 10
0.0
 20
370.268142
 30
0.0
 11
132.9999999999999
 21
370.268142
 31
0.0
  0
CIRCLE
  5
13FD
  8
SIZE
  6
CONTINUOUS
 62
    30
 10
0.0
 20
370.268142
 30
0.0
 40
6.0
  0
LINE
  5
13FE
  8
SIZE
  6
CONTINUOUS
 62
    30
 10
0.0
 20
370.268142
 30
0.0
 11
-12.0000000000004
 21
370.268142
 31
0.0
  0
CIRCLE
  5
13FF
  8
SIZE
  6
CONTINUOUS
 62
    30
 10
132.9999999999999
 20
370.268142
 30
0.0
 40
6.0
  0
TEXT
  5
1400
  8
SIZE
  6
CONTINUOUS
 62
    30
 10
-19.90000000000001
 20
395.268142
 30
0.0
 40
64.0
  1
133
 41
0.9
 72
     1
 11
66.5
 21
395.268142
 31
0.0
  0
LINE
  5
1401
  8
SIZE
  6
CONTINUOUS
 62
    30
 10
-200.0
 20
173.3999999999998
 30
0.0
 11
-200.0
 21
621.922697
 31
0.0
  0
LINE
  5
1402
  8
SIZE
  6
CONTINUOUS
 62
    30
 10
200.0
 20
173.3999999999998
 30
0.0
 11
200.0
 21
621.922697
 31
0.0
  0
LINE
  5
1403
  8
SIZE
  6
CONTINUOUS
 62
    30
 10
-188.0
 20
601.922697
 30
0.0
 11
188.0
 21
601.922697
 31
0.0
  0
CIRCLE
  5
1404
  8
SIZE
  6
CONTINUOUS
 62
    30
 10
-200.0
 20
601.922697
 30
0.0
 40
6.0
  0
LINE
  5
1405
  8
SIZE
  6
CONTINUOUS
 62
    30
 10
-200.0
 20
601.922697
 30
0.0
 11
-188.0
 21
601.922697
 31
0.0
  0
CIRCLE
  5
1406
  8
SIZE
  6
CONTINUOUS
 62
    30
 10
200.0
 20
601.922697
 30
0.0
 40
6.0
  0
LINE
  5
1407
  8
SIZE
  6
CONTINUOUS
 62
    30
 10
200.0
 20
601.922697
 30
0.0
 11
188.0
 21
601.922697
 31
0.0
  0
TEXT
  5
1408
  8
SIZE
  6
CONTINUOUS
 62
    30
 10
-106.9714285714286
 20
626.922697
 30
0.0
 40
64.0
  1
□400
 41
0.9
 72
     1
 11
0.0
 21
626.922697
 31
0.0
  0
TEXT
  5
1409
  8
NOTE
  6
CONTINUOUS
 62
     4
 10
343.2920619999998
 20
127.144198
 30
0.0
 40
64.0
  1
EA
 41
0.9
  0
LINE
  5
140A
  8
SIZE
  6
CONTINUOUS
 62
    30
 10
0.0
 20
254.6846209999999
 30
0.0
 11
0.0
 21
390.268142
 31
0.0
  0
LINE
  5
140B
  8
SIZE
  6
CONTINUOUS
 62
    30
 10
-21.0
 20
188.826603
 30
0.0
 11
-21.0
 21
390.268142
 31
0.0
  0
LINE
  5
140C
  8
SIZE
  6
CONTINUOUS
 62
    30
 10
11.9999999999998
 20
370.268142
 30
0.0
 11
24.0
 21
370.268142
 31
0.0
  0
LINE
  5
140D
  8
SIZE
  6
CONTINUOUS
 62
    30
 10
-33.0000000000001
 20
370.268142
 30
0.0
 11
-45.0
 21
370.268142
 31
0.0
  0
LINE
  5
140E
  8
SIZE
  6
CONTINUOUS
 62
    30
 10
-168.585366
 20
370.268142
 30
0.0
 11
-21.0
 21
370.268142
 31
0.0
  0
TEXT
  5
140F
  8
SIZE
  6
CONTINUOUS
 62
    30
 10
-155.9282234285714
 20
395.268142
 30
0.0
 40
64.0
  1
21
 41
0.9
 72
     1
 11
-109.299652
 21
395.268142
 31
0.0
  0
LINE
  5
1410
  8
SIZE
  6
CONTINUOUS
 62
    30
 10
0.0
 20
370.268142
 30
0.0
 11
-21.0
 21
370.268142
 31
0.0
  0
LINE
  5
1411
  8
SIZE
  6
CONTINUOUS
 62
    30
 10
0.0
 20
370.268142
 30
0.0
 11
-21.0
 21
370.268142
 31
0.0
  0
CIRCLE
  5
1412
  8
SIZE
  6
CONTINUOUS
 62
    30
 10
0.0
 20
370.268142
 30
0.0
 40
6.0
  0
LINE
  5
1413
  8
SIZE
  6
CONTINUOUS
 62
    30
 10
0.0
 20
370.268142
 30
0.0
 11
11.9999999999998
 21
370.268142
 31
0.0
  0
CIRCLE
  5
1414
  8
SIZE
  6
CONTINUOUS
 62
    30
 10
-21.0
 20
370.268142
 30
0.0
 40
6.0
  0
LINE
  5
1415
  8
SIZE
  6
CONTINUOUS
 62
    30
 10
-21.0
 20
370.268142
 30
0.0
 11
-33.0000000000001
 21
370.268142
 31
0.0
  0
TEXT
  5
1416
  8
ETC
  6
CONTINUOUS
 62
    61
 10
503.7931713520233
 20
630.7453839087115
 30
0.0
 40
64.0
  1
V-103BZL_5
 41
0.9
  0
TEXT
  5
1417
  8
ETC
  6
CONTINUOUS
 62
    61
 10
611.1198338267805
 20
445.2650430254846
 30
0.0
 40
50.0
  1
V-103BZL
 41
0.9
  0
TEXT
  5
1418
  8
ETC
  6
CONTINUOUS
 62
    61
 10
508.8061103520234
 20
525.0246189087115
 30
0.0
 40
64.0
  1
換気扇
 41
0.9
  0
CIRCLE
  5
1419
  8
ARRANGE
  6
CONTINUOUS
 62
     1
 39
50.0
 10
0.0
 20
0.0
 30
0.0
 40
40.0
  0
POINT
  5
141A
  8
ARRANGE
  6
CONTINUOUS
 62
     1
 39
50.0
 10
0.0
 20
0.0000000000001421
 30
0.0
  0
LINE
  5
141B
  8
DETAIL
  6
CONTINUOUS
 62
     5
 39
50.0
 10
135.4999999999997
 20
195.0
 30
0.0
 11
135.4999999999997
 21
176.6000000000001
 31
0.0
  0
LINE
  5
141C
  8
DETAIL
  6
CONTINUOUS
 62
     5
 10
192.9999999999999
 20
174.5000000000001
 30
0.0
 11
171.0
 21
174.5000000000001
 31
0.0
  0
ARC
  5
141D
  8
DETAIL
  6
DASHED
 62
     5
 10
180.9999999999997
 20
136.0000000000001
 30
0.0
 40
15.0
 50
0.0
 51
90.0
  0
LINE
  5
141E
  8
DETAIL
  6
DASHED
 62
     5
 10
192.9999999999999
 20
162.5000000000001
 30
0.0
 11
171.0
 21
162.5000000000001
 31
0.0
  0
ARC
  5
141F
  8
DETAIL
  6
CONTINUOUS
 62
     5
 10
189.4999999999997
 20
99.10000000000021
 30
0.0
 40
2.0
 50
270.0
 51
0.0
  0
LINE
  5
1420
  8
DETAIL
  6
CONTINUOUS
 62
     5
 10
153.9999999999997
 20
105.0999999999997
 30
0.0
 11
200.0
 21
105.0999999999997
 31
0.0
  0
LINE
  5
1421
  8
DETAIL
  6
CONTINUOUS
 62
     5
 10
153.9999999999997
 20
106.2999999999999
 30
0.0
 11
200.0
 21
106.2999999999999
 31
0.0
  0
LINE
  5
1422
  8
DETAIL
  6
CONTINUOUS
 62
     5
 10
176.3999999999998
 20
-19.99999999999986
 30
0.0
 11
233.4999999999998
 21
-19.99999999999986
 31
0.0
  0
LINE
  5
1423
  8
DETAIL
  6
CONTINUOUS
 62
     5
 10
197.0
 20
2.300000000000068
 30
0.0
 11
157.0
 21
2.300000000000068
 31
0.0
  0
ARC
  5
1424
  8
DETAIL
  6
DASHED
 62
     5
 10
180.9999999999997
 20
56.00000000000017
 30
0.0
 40
15.0
 50
270.0
 51
0.0
  0
LINE
  5
1425
  8
DETAIL
  6
CONTINUOUS
 62
     5
 10
55.5
 20
145.4000000000002
 30
0.0
 11
199.0
 21
145.4000000000002
 31
0.0
  0
LINE
  5
1426
  8
DETAIL
  6
CONTINUOUS
 62
     5
 10
200.0
 20
153.3999999999998
 30
0.0
 11
53.5
 21
153.3999999999998
 31
0.0
  0
LINE
  5
1427
  8
BASIS
  6
DASHDOT
 62
     6
 10
190.6272919999999
 20
96.00000000000013
 30
0.0
 11
338.3708049999999
 21
96.00000000000013
 31
0.0
  0
LINE
  5
1428
  8
DETAIL
  6
CONTINUOUS
 62
     5
 10
-237.5
 20
0.0000000000001705
 30
0.0
 11
237.5
 21
0.0000000000001137
 31
0.0
  0
LINE
  5
1429
  8
DETAIL
  6
CONTINUOUS
 62
     5
 10
-109.6622729999999
 20
-41.99999999999993
 30
0.0
 11
-104.0528099999999
 21
-26.5881269999998
 31
0.0
  0
LINE
  5
142A
  8
DETAIL
  6
CONTINUOUS
 62
     5
 10
-139.7989099999999
 20
-26.12133299999988
 30
0.0
 11
-143.218196
 21
-35.51574199999986
 31
0.0
  0
LINE
  5
142B
  8
DETAIL
  6
CONTINUOUS
 62
     5
 10
-141.808657
 20
-36.02877299999983
 30
0.0
 11
-138.389372
 21
-26.63436299999981
 31
0.0
  0
LINE
  5
142C
  8
DETAIL
  6
CONTINUOUS
 62
     5
 10
-127.8032439999999
 20
-39.94438199999996
 30
0.0
 11
-124.7638289999999
 21
-31.59365599999984
 31
0.0
  0
LINE
  5
142D
  8
DETAIL
  6
CONTINUOUS
 62
     5
 10
-126.314603
 20
-40.24008099999985
 30
0.0
 11
-123.35429
 21
-32.10668599999979
 31
0.0
  0
LINE
  5
142E
  8
DETAIL
  6
CONTINUOUS
 62
     5
 10
-140.0994719999998
 20
-31.33282699999978
 30
0.0
 11
-126.473929
 21
-36.29211899999977
 31
0.0
  0
LINE
  5
142F
  8
DETAIL
  6
CONTINUOUS
 62
     5
 10
-108.0842849999999
 20
-37.66451299999986
 30
0.0
 11
-123.35429
 21
-32.10668599999979
 31
0.0
  0
LINE
  5
1430
  8
DETAIL
  6
CONTINUOUS
 62
     5
 10
-110.7916540000001
 20
-41.99999999999993
 30
0.0
 11
-109.6622729999999
 21
-41.99999999999993
 31
0.0
  0
ARC
  5
1431
  8
DETAIL
  6
CONTINUOUS
 62
     5
 10
-106.6022269999999
 20
62.89295100000021
 30
0.0
 40
105.0
 50
249.5907410000014
 51
250.4092589999991
  0
ARC
  5
1432
  8
DETAIL
  6
CONTINUOUS
 62
     5
 10
-106.6022269999999
 20
62.89295100000021
 30
0.0
 40
105.0
 50
258.351066999994
 51
259.1792580000029
  0
LINE
  5
1433
  8
DETAIL
  6
CONTINUOUS
 62
     5
 10
-127.8032439999999
 20
-39.94438199999996
 30
0.0
 11
-126.314603
 21
-40.24008099999985
 31
0.0
  0
LINE
  5
1434
  8
DETAIL
  6
CONTINUOUS
 62
     5
 10
-143.218196
 20
-35.51574199999986
 30
0.0
 11
-141.808657
 21
-36.02877299999983
 31
0.0
  0
LINE
  5
1435
  8
DETAIL
  6
CONTINUOUS
 62
     5
 10
-125.06439
 20
-36.80514899999985
 30
0.0
 11
-110.7916540000001
 21
-41.99999999999993
 31
0.0
  0
LINE
  5
1436
  8
DETAIL
  6
CONTINUOUS
 62
     5
 10
16.99999999999969
 20
163.3
 30
0.0
 11
-59.00000000000001
 21
163.3
 31
0.0
  0
LINE
  5
1437
  8
DETAIL
  6
CONTINUOUS
 62
     5
 10
24.0
 20
163.0000000000002
 30
0.0
 11
-66.0
 21
163.0000000000002
 31
0.0
  0
LINE
  5
1438
  8
DETAIL
  6
CONTINUOUS
 62
     5
 10
27.0
 20
151.0000000000002
 30
0.0
 11
-69.0
 21
151.0000000000002
 31
0.0
  0
LINE
  5
1439
  8
DETAIL
  6
CONTINUOUS
 62
     5
 10
-66.0
 20
29.00000000000017
 30
0.0
 11
24.0
 21
29.00000000000017
 31
0.0
  0
LINE
  5
143A
  8
DETAIL
  6
CONTINUOUS
 62
     5
 10
-69.0
 20
41.00000000000017
 30
0.0
 11
27.0
 21
41.00000000000017
 31
0.0
  0
CIRCLE
  5
143B
  8
DETAIL
  6
CONTINUOUS
 62
     5
 10
-21.0
 20
96.00000000000016
 30
0.0
 40
49.0
  0
CIRCLE
  5
143C
  8
DETAIL
  6
CONTINUOUS
 62
     5
 10
-21.0
 20
96.00000000000016
 30
0.0
 40
52.5
  0
LINE
  5
143D
  8
DETAIL
  6
CONTINUOUS
 62
     5
 10
-35.0000000000001
 20
195.0
 30
0.0
 11
-190.0
 21
195.0
 31
0.0
  0
LINE
  5
143E
  8
DETAIL
  6
CONTINUOUS
 62
     5
 10
-154.0
 20
29.00000000000017
 30
0.0
 11
153.9999999999997
 21
29.00000000000011
 31
0.0
  0
LINE
  5
143F
  8
DETAIL
  6
CONTINUOUS
 62
     5
 10
175.3999999999998
 20
-12.49999999999988
 30
0.0
 11
-175.4
 21
-12.49999999999982
 31
0.0
  0
LINE
  5
1440
  8
DETAIL
  6
CONTINUOUS
 62
     5
 10
-174.3
 20
-19.99999999999983
 30
0.0
 11
174.2999999999999
 21
-19.99999999999986
 31
0.0
  0
ARC
  5
1441
  8
DETAIL
  6
CONTINUOUS
 62
     5
 10
0.0000000000003126
 20
1580.632
 30
0.0
 40
1610.632
 50
263.6120069999947
 51
276.387993000005
  0
LINE
  5
1442
  8
DETAIL
  6
CONTINUOUS
 62
     5
 10
-200.4
 20
151.6000000000001
 30
0.0
 11
-200.0
 21
106.2999999999999
 31
0.0
  0
LINE
  5
1443
  8
DETAIL
  6
CONTINUOUS
 62
     5
 10
-96.0
 20
133.0000000000002
 30
0.0
 11
-96.0
 21
59.00000000000017
 31
0.0
  0
LINE
  5
1444
  8
DETAIL
  6
CONTINUOUS
 62
     5
 10
-84.0
 20
136.0000000000002
 30
0.0
 11
-84.0
 21
56.00000000000017
 31
0.0
  0
LINE
  5
1445
  8
DETAIL
  6
CONTINUOUS
 62
     5
 10
-96.70000000000007
 20
30.80000000000012
 30
0.0
 11
-96.70000000000007
 21
147.5000000000002
 31
0.0
  0
LINE
  5
1446
  8
DETAIL
  6
CONTINUOUS
 62
     5
 10
-97.5
 20
30.80000000000012
 30
0.0
 11
-97.5
 21
147.5000000000002
 31
0.0
  0
LINE
  5
1447
  8
DETAIL
  6
CONTINUOUS
 62
     5
 10
-154.0
 20
105.0999999999997
 30
0.0
 11
-200.0
 21
105.0999999999997
 31
0.0
  0
LINE
  5
1448
  8
DETAIL
  6
CONTINUOUS
 62
     5
 10
-154.0
 20
106.2999999999999
 30
0.0
 11
-200.0
 21
106.2999999999999
 31
0.0
  0
ARC
  5
1449
  8
DETAIL
  6
CONTINUOUS
 62
     5
 10
-157.0
 20
5.300000000000125
 30
0.0
 40
3.0
 50
270.0
 51
0.0
  0
LINE
  5
144A
  8
DETAIL
  6
CONTINUOUS
 62
     5
 10
-157.794306
 20
-28.78240599999987
 30
0.0
 11
-155.4749009999998
 21
-22.40989299999982
 31
0.0
  0
LINE
  5
144B
  8
DETAIL
  6
CONTINUOUS
 62
     5
 10
-156.4638689999999
 20
-29.51276699999988
 30
0.0
 11
-153.9308239999997
 21
-22.55328399999979
 31
0.0
  0
LINE
  5
144C
  8
DETAIL
  6
CONTINUOUS
 62
     5
 10
-200.0
 20
5.300000000000125
 30
0.0
 11
-200.0
 21
106.2999999999999
 31
0.0
  0
LINE
  5
144D
  8
DETAIL
  6
CONTINUOUS
 62
     5
 10
-233.4999999999999
 20
-19.99999999999983
 30
0.0
 11
-176.4
 21
-19.99999999999983
 31
0.0
  0
ARC
  5
144E
  8
DETAIL
  6
CONTINUOUS
 62
     5
 10
-233.5
 20
-15.99999999999982
 30
0.0
 40
4.0
 50
180.0
 51
270.0
  0
LINE
  5
144F
  8
DETAIL
  6
CONTINUOUS
 62
     5
 10
-237.5
 20
-15.99999999999982
 30
0.0
 11
-237.5
 21
0.0000000000001705
 31
0.0
  0
LINE
  5
1450
  8
DETAIL
  6
CONTINUOUS
 62
     5
 10
-204.4999999999999
 20
29.00000000000017
 30
0.0
 11
-204.4999999999999
 21
1.200000000000214
 31
0.0
  0
LINE
  5
1451
  8
DETAIL
  6
CONTINUOUS
 62
     5
 10
-205.6999999999997
 20
29.00000000000017
 30
0.0
 11
-205.6999999999997
 21
1.200000000000214
 31
0.0
  0
LINE
  5
1452
  8
DETAIL
  6
CONTINUOUS
 62
     5
 10
-201.75
 20
0.0000000000001705
 30
0.0
 11
-201.75
 21
26.00000000000017
 31
0.0
  0
ARC
  5
1453
  8
DETAIL
  6
CONTINUOUS
 62
     5
 10
-197.0
 20
5.300000000000125
 30
0.0
 40
3.0
 50
180.0
 51
270.0
  0
ARC
  5
1454
  8
DETAIL
  6
CONTINUOUS
 62
     5
 10
-206.8999999999999
 20
1.200000000000214
 30
0.0
 40
1.199999999999999
 50
270.0
 51
0.0
  0
ARC
  5
1455
  8
DETAIL
  6
CONTINUOUS
 62
     5
 10
-206.8999999999999
 20
1.200000000000214
 30
0.0
 40
2.399999999999999
 50
330.0
 51
0.0
  0
LINE
  5
1456
  8
DETAIL
  6
CONTINUOUS
 62
     5
 10
-165.0
 20
29.30000000000012
 30
0.0
 11
-165.0
 21
19.30000000000012
 31
0.0
  0
LINE
  5
1457
  8
DETAIL
  6
CONTINUOUS
 62
     5
 10
-167.0
 20
19.30000000000012
 30
0.0
 11
-167.0
 21
22.80000000000011
 31
0.0
  0
ARC
  5
1458
  8
DETAIL
  6
CONTINUOUS
 62
     5
 10
-167.0
 20
29.30000000000012
 30
0.0
 40
2.0
 50
0.0
 51
90.0
  0
ARC
  5
1459
  8
DETAIL
  6
CONTINUOUS
 62
     5
 10
-166.0
 20
19.30000000000012
 30
0.0
 40
1.0
 50
180.0
 51
0.0
  0
LINE
  5
145A
  8
DETAIL
  6
CONTINUOUS
 62
     5
 10
-204.4999999999999
 20
29.00000000000017
 30
0.0
 11
-205.6999999999997
 21
29.00000000000017
 31
0.0
  0
LINE
  5
145B
  8
DETAIL
  6
CONTINUOUS
 62
     5
 10
-187.0
 20
19.30000000000012
 30
0.0
 11
-187.0
 21
22.80000000000011
 31
0.0
  0
LINE
  5
145C
  8
DETAIL
  6
CONTINUOUS
 62
     5
 10
-189.0
 20
19.30000000000012
 30
0.0
 11
-189.0
 21
29.30000000000012
 31
0.0
  0
ARC
  5
145D
  8
DETAIL
  6
CONTINUOUS
 62
     5
 10
-187.0
 20
29.30000000000012
 30
0.0
 40
2.0
 50
90.0
 51
180.0
  0
ARC
  5
145E
  8
DETAIL
  6
CONTINUOUS
 62
     5
 10
-188.0
 20
19.30000000000012
 30
0.0
 40
1.0
 50
180.0
 51
0.0
  0
ARC
  5
145F
  8
DETAIL
  6
CONTINUOUS
 62
     5
 10
-198.75
 20
26.00000000000017
 30
0.0
 40
3.0
 50
114.6272439999956
 51
180.0
  0
LINE
  5
1460
  8
DETAIL
  6
CONTINUOUS
 62
     5
 10
-167.0
 20
21.30000000000012
 30
0.0
 11
-187.0
 21
21.30000000000012
 31
0.0
  0
LINE
  5
1461
  8
DETAIL
  6
CONTINUOUS
 62
     5
 10
-165.0
 20
22.80000000000011
 30
0.0
 11
-189.0
 21
22.80000000000011
 31
0.0
  0
LINE
  5
1462
  8
DETAIL
  6
CONTINUOUS
 62
     5
 10
-165.0
 20
29.00000000000017
 30
0.0
 11
-189.0
 21
29.00000000000017
 31
0.0
  0
LINE
  5
1463
  8
DETAIL
  6
CONTINUOUS
 62
     5
 10
-167.0
 20
31.30000000000011
 30
0.0
 11
-187.0
 21
31.30000000000011
 31
0.0
  0
ARC
  5
1464
  8
DETAIL
  6
CONTINUOUS
 62
     5
 10
-175.4000000000001
 20
-12.99999999999982
 30
0.0
 40
0.5
 50
90.0
 51
180.0
  0
ARC
  5
1465
  8
DETAIL
  6
CONTINUOUS
 62
     5
 10
-176.4000000000001
 20
-19.49999999999983
 30
0.0
 40
0.5
 50
270.0
 51
0.0
  0
ARC
  5
1466
  8
DETAIL
  6
CONTINUOUS
 62
     5
 10
-176.3999959999999
 20
-19.80796999999978
 30
0.0
 40
0.499999
 50
263.7097870000008
 51
0.0
  0
ARC
  5
1467
  8
DETAIL
  6
CONTINUOUS
 62
     5
 10
-174.3
 20
-12.99999999999982
 30
0.0
 40
0.5
 50
90.0
 51
180.0
  0
ARC
  5
1468
  8
DETAIL
  6
CONTINUOUS
 62
     5
 10
-174.3
 20
-19.95199699999983
 30
0.0
 40
0.5
 50
180.0
 51
263.7290420000052
  0
ARC
  5
1469
  8
DETAIL
  6
CONTINUOUS
 62
     5
 10
-174.3
 20
-19.49999999999983
 30
0.0
 40
0.5
 50
180.0
 51
270.0
  0
LINE
  5
146A
  8
DETAIL
  6
CONTINUOUS
 62
     5
 10
-179.1722609999999
 20
-20.00310399999983
 30
0.0
 11
-179.2278699999999
 21
-20.00000099999982
 31
0.0
  0
LINE
  5
146B
  8
DETAIL
  6
CONTINUOUS
 62
     5
 10
-174.8
 20
-12.99999999999982
 30
0.0
 11
-174.8
 21
-19.95199699999983
 31
0.0
  0
LINE
  5
146C
  8
DETAIL
  6
CONTINUOUS
 62
     5
 10
-175.9000000000001
 20
-12.99999999999982
 30
0.0
 11
-175.9000000000001
 21
-19.80796999999978
 31
0.0
  0
ARC
  5
146D
  8
DETAIL
  6
CONTINUOUS
 62
     5
 10
-106.6022269999999
 20
62.89295100000021
 30
0.0
 40
105.0
 50
240.8207419999957
 51
241.648932999998
  0
LINE
  5
146E
  8
DETAIL
  6
CONTINUOUS
 62
     5
 10
-157.794306
 20
-28.78240599999987
 30
0.0
 11
-156.4638689999999
 21
-29.51276699999988
 31
0.0
  0
LINE
  5
146F
  8
DETAIL
  6
CONTINUOUS
 62
     5
 10
-197.0
 20
2.300000000000124
 30
0.0
 11
-157.0
 21
2.300000000000124
 31
0.0
  0
LINE
  5
1470
  8
DETAIL
  6
CONTINUOUS
 62
     5
 10
-168.0100699999998
 20
-21.17419999999987
 30
0.0
 11
-156.5440929999998
 21
-25.34747399999986
 31
0.0
  0
LINE
  5
1471
  8
DETAIL
  6
CONTINUOUS
 62
     5
 10
-166.0
 20
106.2999999999999
 30
0.0
 11
-166.0
 21
109.0999999999997
 31
0.0
  0
LINE
  5
1472
  8
DETAIL
  6
CONTINUOUS
 62
     5
 10
-167.5527779999999
 20
105.0999999999997
 30
0.0
 11
-167.5527779999999
 21
99.10000000000021
 31
0.0
  0
LINE
  5
1473
  8
DETAIL
  6
CONTINUOUS
 62
     5
 10
-168.1258799999998
 20
109.0999999999997
 30
0.0
 11
-168.1258799999998
 21
112.0999999999997
 31
0.0
  0
LINE
  5
1474
  8
DETAIL
  6
CONTINUOUS
 62
     5
 10
-168.953262
 20
106.2999999999999
 30
0.0
 11
-168.953262
 21
109.0999999999997
 31
0.0
  0
LINE
  5
1475
  8
DETAIL
  6
CONTINUOUS
 62
     5
 10
-168.3253239999999
 20
97.10000000000022
 30
0.0
 11
-168.0894339999999
 21
97.18980900000014
 31
0.0
  0
LINE
  5
1476
  8
DETAIL
  6
CONTINUOUS
 62
     5
 10
-168.0894339999999
 20
97.18980900000014
 30
0.0
 11
-167.8759799999998
 21
97.45847200000021
 31
0.0
  0
LINE
  5
1477
  8
DETAIL
  6
CONTINUOUS
 62
     5
 10
-167.8759799999998
 20
97.45847200000021
 30
0.0
 11
-167.7044379999999
 21
97.89194000000026
 31
0.0
  0
LINE
  5
1478
  8
DETAIL
  6
CONTINUOUS
 62
     5
 10
-167.7044379999999
 20
97.89194000000026
 30
0.0
 11
-167.592249
 21
98.4565950000003
 31
0.0
  0
LINE
  5
1479
  8
DETAIL
  6
CONTINUOUS
 62
     5
 10
-167.592249
 20
98.4565950000003
 30
0.0
 11
-167.5527779999999
 21
99.10000000000021
 31
0.0
  0
LINE
  5
147A
  8
DETAIL
  6
CONTINUOUS
 62
     5
 10
-185.0467379999999
 20
106.2999999999999
 30
0.0
 11
-185.0467379999999
 21
109.0999999999997
 31
0.0
  0
LINE
  5
147B
  8
DETAIL
  6
CONTINUOUS
 62
     5
 10
-185.8741199999999
 20
109.0999999999997
 30
0.0
 11
-185.8741199999999
 21
112.0999999999997
 31
0.0
  0
LINE
  5
147C
  8
DETAIL
  6
CONTINUOUS
 62
     5
 10
-186.447222
 20
105.0999999999997
 30
0.0
 11
-186.447222
 21
99.10000000000021
 31
0.0
  0
LINE
  5
147D
  8
DETAIL
  6
CONTINUOUS
 62
     5
 10
-188.0
 20
106.2999999999999
 30
0.0
 11
-188.0
 21
109.0999999999997
 31
0.0
  0
LINE
  5
147E
  8
DETAIL
  6
CONTINUOUS
 62
     5
 10
-190.0
 20
109.0999999999997
 30
0.0
 11
-190.0
 21
112.0999999999997
 31
0.0
  0
LINE
  5
147F
  8
DETAIL
  6
CONTINUOUS
 62
     5
 10
-191.5
 20
105.0999999999997
 30
0.0
 11
-191.5
 21
99.10000000000021
 31
0.0
  0
LINE
  5
1480
  8
DETAIL
  6
CONTINUOUS
 62
     5
 10
-185.674676
 20
97.10000000000022
 30
0.0
 11
-185.910566
 21
97.18980900000014
 31
0.0
  0
LINE
  5
1481
  8
DETAIL
  6
CONTINUOUS
 62
     5
 10
-185.910566
 20
97.18980900000014
 30
0.0
 11
-186.1240199999998
 21
97.45847200000021
 31
0.0
  0
LINE
  5
1482
  8
DETAIL
  6
CONTINUOUS
 62
     5
 10
-186.1240199999998
 20
97.45847200000021
 30
0.0
 11
-186.2955609999999
 21
97.89194000000026
 31
0.0
  0
LINE
  5
1483
  8
DETAIL
  6
CONTINUOUS
 62
     5
 10
-186.2955609999999
 20
97.89194000000026
 30
0.0
 11
-186.407751
 21
98.4565950000003
 31
0.0
  0
LINE
  5
1484
  8
DETAIL
  6
CONTINUOUS
 62
     5
 10
-186.407751
 20
98.4565950000003
 30
0.0
 11
-186.447222
 21
99.10000000000021
 31
0.0
  0
ARC
  5
1485
  8
DETAIL
  6
CONTINUOUS
 62
     5
 10
-189.4999999999999
 20
99.10000000000021
 30
0.0
 40
2.0
 50
180.0
 51
270.0
  0
LINE
  5
1486
  8
DETAIL
  6
CONTINUOUS
 62
     5
 10
-164.5
 20
97.10000000000022
 30
0.0
 11
-189.4999999999999
 21
97.10000000000022
 31
0.0
  0
LINE
  5
1487
  8
DETAIL
  6
CONTINUOUS
 62
     5
 10
-162.5
 20
105.0999999999997
 30
0.0
 11
-162.5
 21
99.10000000000021
 31
0.0
  0
LINE
  5
1488
  8
DETAIL
  6
CONTINUOUS
 62
     5
 10
-164.0
 20
109.0999999999997
 30
0.0
 11
-164.0
 21
112.0999999999997
 31
0.0
  0
ARC
  5
1489
  8
DETAIL
  6
CONTINUOUS
 62
     5
 10
-164.5
 20
99.10000000000021
 30
0.0
 40
2.0
 50
270.0
 51
0.0
  0
LINE
  5
148A
  8
DETAIL
  6
CONTINUOUS
 62
     5
 10
-190.0
 20
109.0999999999997
 30
0.0
 11
-164.0
 21
109.0999999999997
 31
0.0
  0
LINE
  5
148B
  8
DETAIL
  6
CONTINUOUS
 62
     5
 10
-190.0
 20
112.0999999999997
 30
0.0
 11
-164.0
 21
112.0999999999997
 31
0.0
  0
LINE
  5
148C
  8
DETAIL
  6
CONTINUOUS
 62
     5
 10
-154.0
 20
5.300000000000125
 30
0.0
 11
-154.0
 21
106.2999999999999
 31
0.0
  0
ARC
  5
148D
  8
DETAIL
  6
CONTINUOUS
 62
     5
 10
-66.0
 20
59.00000000000017
 30
0.0
 40
30.0
 50
180.0
 51
270.0
  0
ARC
  5
148E
  8
DETAIL
  6
CONTINUOUS
 62
     5
 10
-69.0
 20
56.00000000000017
 30
0.0
 40
15.0
 50
180.0
 51
270.0
  0
LINE
  5
148F
  8
DETAIL
  6
CONTINUOUS
 62
     5
 10
-142.7334189999999
 20
-23.60561699999988
 30
0.0
 11
-142.7908959999999
 21
-23.60045499999983
 31
0.0
  0
LINE
  5
1490
  8
DETAIL
  6
CONTINUOUS
 62
     5
 10
-124.7638289999999
 20
-31.59365599999984
 30
0.0
 11
-148.0081339999999
 21
-23.13341999999982
 31
0.0
  0
LINE
  5
1491
  8
DETAIL
  6
CONTINUOUS
 62
     5
 10
-155.1345539999998
 20
-25.86050399999981
 30
0.0
 11
-141.5090110000001
 21
-30.8197959999998
 31
0.0
  0
LINE
  5
1492
  8
DETAIL
  6
CONTINUOUS
 62
     5
 10
-97.5
 20
30.80000000000012
 30
0.0
 11
-95.5
 21
30.80000000000012
 31
0.0
  0
LINE
  5
1493
  8
DETAIL
  6
CONTINUOUS
 62
     5
 10
-95.5
 20
30.80000000000012
 30
0.0
 11
-95.5
 21
29.00000000000017
 31
0.0
  0
LINE
  5
1494
  8
DETAIL
  6
CONTINUOUS
 62
     5
 10
-95.5
 20
153.3999999999998
 30
0.0
 11
-200.0
 21
153.3999999999998
 31
0.0
  0
LINE
  5
1495
  8
DETAIL
  6
CONTINUOUS
 62
     5
 10
-199.0
 20
145.4000000000002
 30
0.0
 11
-97.5
 21
145.4000000000002
 31
0.0
  0
ARC
  5
1496
  8
DETAIL
  6
CONTINUOUS
 62
     5
 10
-199.3999999999999
 20
151.6000000000001
 30
0.0
 40
1.0
 50
127.0076879999968
 51
180.0
  0
ARC
  5
1497
  8
DETAIL
  6
CONTINUOUS
 62
     5
 10
-200.0
 20
152.0999999999999
 30
0.0
 40
1.3
 50
90.0
 51
180.0
  0
ARC
  5
1498
  8
DETAIL
  6
CONTINUOUS
 62
     5
 10
-199.0
 20
146.4000000000002
 30
0.0
 40
1.0
 50
180.0
 51
270.0
  0
ARC
  5
1499
  8
DETAIL
  6
CONTINUOUS
 62
     5
 10
-200.0
 20
152.0999999999999
 30
0.0
 40
0.5
 50
90.0
 51
180.0
  0
LINE
  5
149A
  8
DETAIL
  6
CONTINUOUS
 62
     5
 10
-200.4
 20
151.6000000000001
 30
0.0
 11
-200.0
 21
151.6000000000001
 31
0.0
  0
LINE
  5
149B
  8
DETAIL
  6
CONTINUOUS
 62
     5
 10
-201.2999999999999
 20
145.4000000000002
 30
0.0
 11
-200.4999999999999
 21
145.4000000000002
 31
0.0
  0
LINE
  5
149C
  8
DETAIL
  6
CONTINUOUS
 62
     5
 10
-200.0
 20
153.3999999999998
 30
0.0
 11
-200.0
 21
146.4000000000002
 31
0.0
  0
LINE
  5
149D
  8
DETAIL
  6
CONTINUOUS
 62
     5
 10
-200.4999999999999
 20
152.1000000000001
 30
0.0
 11
-200.4999999999999
 21
145.4000000000002
 31
0.0
  0
LINE
  5
149E
  8
DETAIL
  6
CONTINUOUS
 62
     5
 10
-201.2999999999999
 20
152.1000000000001
 30
0.0
 11
-201.2999999999999
 21
145.4000000000002
 31
0.0
  0
LINE
  5
149F
  8
DETAIL
  6
CONTINUOUS
 62
     5
 10
-190.0
 20
153.3999999999998
 30
0.0
 11
-190.0
 21
195.0
 31
0.0
  0
ARC
  5
14A0
  8
DETAIL
  6
CONTINUOUS
 62
     5
 10
-66.0
 20
133.0000000000001
 30
0.0
 40
30.0
 50
90.0
 51
180.0
  0
LINE
  5
14A1
  8
DETAIL
  6
CONTINUOUS
 62
     5
 10
-97.5
 20
147.5000000000002
 30
0.0
 11
-95.5
 21
147.5000000000002
 31
0.0
  0
LINE
  5
14A2
  8
DETAIL
  6
CONTINUOUS
 62
     5
 10
-95.5
 20
155.5000000000001
 30
0.0
 11
-95.5
 21
147.5000000000002
 31
0.0
  0
ARC
  5
14A3
  8
DETAIL
  6
CONTINUOUS
 62
     5
 10
-88.5
 20
155.4999999999996
 30
0.0
 40
7.0
 50
90.0
 51
180.0
  0
LINE
  5
14A4
  8
DETAIL
  6
CONTINUOUS
 62
     5
 10
-59.00000000000001
 20
163.3
 30
0.0
 11
-59.00000000000001
 21
163.0000000000002
 31
0.0
  0
LINE
  5
14A5
  8
DETAIL
  6
CONTINUOUS
 62
     5
 10
-71.33715099999995
 20
162.5000000000001
 30
0.0
 11
-88.5
 21
162.5000000000001
 31
0.0
  0
ARC
  5
14A6
  8
DETAIL
  6
CONTINUOUS
 62
     5
 10
-69.0
 20
136.0000000000001
 30
0.0
 40
15.0
 50
90.0
 51
180.0
  0
LINE
  5
14A7
  8
DETAIL
  6
CONTINUOUS
 62
     5
 10
54.0
 20
59.00000000000017
 30
0.0
 11
54.0
 21
133.0000000000002
 31
0.0
  0
LINE
  5
14A8
  8
DETAIL
  6
CONTINUOUS
 62
     5
 10
41.99999999999969
 20
56.00000000000017
 30
0.0
 11
41.99999999999969
 21
136.0000000000002
 31
0.0
  0
LINE
  5
14A9
  8
DETAIL
  6
DASHED
 62
     5
 10
70.0
 20
136.0000000000001
 30
0.0
 11
70.0
 21
56.00000000000017
 31
0.0
  0
LINE
  5
14AA
  8
DETAIL
  6
CONTINUOUS
 62
     5
 10
54.6999999999999
 20
30.80000000000012
 30
0.0
 11
54.6999999999999
 21
147.5000000000001
 31
0.0
  0
LINE
  5
14AB
  8
DETAIL
  6
CONTINUOUS
 62
     5
 10
55.5
 20
30.80000000000012
 30
0.0
 11
55.5
 21
147.5000000000001
 31
0.0
  0
LINE
  5
14AC
  8
DETAIL
  6
DASHED
 62
     5
 10
63.99999999999989
 20
30.80000000000012
 30
0.0
 11
63.99999999999989
 21
147.5000000000001
 31
0.0
  0
LINE
  5
14AD
  8
DETAIL
  6
DASHED
 62
     5
 10
64.7999999999999
 20
30.80000000000012
 30
0.0
 11
64.7999999999999
 21
147.5000000000001
 31
0.0
  0
CIRCLE
  5
14AE
  8
DETAIL
  6
DASHED
 62
     5
 10
132.9999999999999
 20
96.00000000000016
 30
0.0
 40
49.0
  0
CIRCLE
  5
14AF
  8
DETAIL
  6
DASHED
 62
     5
 10
132.9999999999999
 20
96.00000000000016
 30
0.0
 40
52.5
  0
ARC
  5
14B0
  8
DETAIL
  6
DASHED
 62
     5
 10
84.99999999999989
 20
56.00000000000017
 30
0.0
 40
15.0
 50
180.0
 51
270.0
  0
LINE
  5
14B1
  8
DETAIL
  6
CONTINUOUS
 62
     5
 10
120.5
 20
29.00000000000011
 30
0.0
 11
30.5
 21
29.00000000000017
 31
0.0
  0
ARC
  5
14B2
  8
DETAIL
  6
CONTINUOUS
 62
     5
 10
27.0
 20
56.00000000000017
 30
0.0
 40
15.0
 50
270.0
 51
0.0
  0
ARC
  5
14B3
  8
DETAIL
  6
CONTINUOUS
 62
     5
 10
24.0
 20
59.00000000000017
 30
0.0
 40
30.0
 50
270.0
 51
0.0
  0
LINE
  5
14B4
  8
DETAIL
  6
CONTINUOUS
 62
     5
 10
-29.5
 20
-19.22213199999981
 30
0.0
 11
29.49999700000001
 21
-19.22213199999981
 31
0.0
  0
ARC
  5
14B5
  8
DETAIL
  6
CONTINUOUS
 62
     5
 10
-30.5
 20
-19.49999999999983
 30
0.0
 40
0.5
 50
270.0
 51
0.0
  0
LINE
  5
14B6
  8
DETAIL
  6
CONTINUOUS
 62
     5
 10
-30.0
 20
-19.40298999999987
 30
0.0
 11
-30.0
 21
-19.49999999999983
 31
0.0
  0
LINE
  5
14B7
  8
DETAIL
  6
CONTINUOUS
 62
     5
 10
-30.0339750000001
 20
-19.43487999999985
 30
0.0
 11
-30.037066
 21
-19.43854099999979
 31
0.0
  0
LINE
  5
14B8
  8
DETAIL
  6
CONTINUOUS
 62
     5
 10
-30.0102380000003
 20
-19.41122999999985
 30
0.0
 11
-30.0339750000001
 21
-19.43487999999985
 31
0.0
  0
LINE
  5
14B9
  8
DETAIL
  6
CONTINUOUS
 62
     5
 10
-29.96562300000009
 20
-19.3753239999998
 30
0.0
 11
-30.0102380000003
 21
-19.41122999999985
 31
0.0
  0
LINE
  5
14BA
  8
DETAIL
  6
CONTINUOUS
 62
     5
 10
-29.9058460000001
 20
-19.33619999999979
 30
0.0
 11
-29.96562300000009
 21
-19.3753239999998
 31
0.0
  0
LINE
  5
14BB
  8
DETAIL
  6
CONTINUOUS
 62
     5
 10
-29.8352550000001
 20
-19.29901899999985
 30
0.0
 11
-29.9058460000001
 21
-19.33619999999979
 31
0.0
  0
LINE
  5
14BC
  8
DETAIL
  6
CONTINUOUS
 62
     5
 10
-29.75639200000001
 20
-19.26682799999986
 30
0.0
 11
-29.8352550000001
 21
-19.29901899999985
 31
0.0
  0
LINE
  5
14BD
  8
DETAIL
  6
CONTINUOUS
 62
     5
 10
-29.67084800000021
 20
-19.24193099999985
 30
0.0
 11
-29.75639200000001
 21
-19.26682799999986
 31
0.0
  0
LINE
  5
14BE
  8
DETAIL
  6
CONTINUOUS
 62
     5
 10
-29.58051900000009
 20
-19.22651499999988
 30
0.0
 11
-29.67084800000021
 21
-19.24193099999985
 31
0.0
  0
LINE
  5
14BF
  8
DETAIL
  6
CONTINUOUS
 62
     5
 10
-29.5
 20
-19.22211599999983
 30
0.0
 11
-29.58051900000009
 21
-19.22651499999988
 31
0.0
  0
LINE
  5
14C0
  8
DETAIL
  6
DASHED
 62
     5
 10
63.99999999999989
 20
30.80000000000012
 30
0.0
 11
65.99999999999989
 21
30.80000000000012
 31
0.0
  0
LINE
  5
14C1
  8
DETAIL
  6
DASHED
 62
     5
 10
65.99999999999989
 20
30.80000000000012
 30
0.0
 11
65.99999999999989
 21
29.00000000000017
 31
0.0
  0
LINE
  5
14C2
  8
DETAIL
  6
CONTINUOUS
 62
     5
 10
53.5
 20
30.80000000000012
 30
0.0
 11
55.5
 21
30.80000000000012
 31
0.0
  0
LINE
  5
14C3
  8
DETAIL
  6
CONTINUOUS
 62
     5
 10
53.5
 20
29.00000000000017
 30
0.0
 11
53.5
 21
30.80000000000012
 31
0.0
  0
ARC
  5
14C4
  8
DETAIL
  6
CONTINUOUS
 62
     5
 10
30.5
 20
-19.49999999999983
 30
0.0
 40
0.5
 50
180.0
 51
270.0
  0
LINE
  5
14C5
  8
DETAIL
  6
CONTINUOUS
 62
     5
 10
30.0
 20
-19.40295599999982
 30
0.0
 11
30.0
 21
-19.49999999999983
 31
0.0
  0
LINE
  5
14C6
  8
DETAIL
  6
CONTINUOUS
 62
     5
 10
30.009309
 20
-19.4103939999997
 30
0.0
 11
29.9634069999999
 21
-19.37371799999986
 31
0.0
  0
LINE
  5
14C7
  8
DETAIL
  6
CONTINUOUS
 62
     5
 10
30.033807
 20
-19.43468799999987
 30
0.0
 11
30.009309
 21
-19.4103939999997
 31
0.0
  0
LINE
  5
14C8
  8
DETAIL
  6
CONTINUOUS
 62
     5
 10
30.03725800000001
 20
-19.43863899999978
 30
0.0
 11
30.033807
 21
-19.43468799999987
 31
0.0
  0
LINE
  5
14C9
  8
DETAIL
  6
CONTINUOUS
 62
     5
 10
30.03535899999989
 20
-19.43564299999985
 30
0.0
 11
30.03725800000001
 21
-19.43863899999978
 31
0.0
  0
LINE
  5
14CA
  8
DETAIL
  6
CONTINUOUS
 62
     5
 10
29.57265000000001
 20
-19.22569999999979
 30
0.0
 11
29.49999700000001
 21
-19.22211599999983
 31
0.0
  0
LINE
  5
14CB
  8
DETAIL
  6
CONTINUOUS
 62
     5
 10
29.664287
 20
-19.24043999999986
 30
0.0
 11
29.57265000000001
 21
-19.22569999999979
 31
0.0
  0
LINE
  5
14CC
  8
DETAIL
  6
CONTINUOUS
 62
     5
 10
29.75114899999991
 20
-19.26500799999979
 30
0.0
 11
29.664287
 21
-19.24043999999986
 31
0.0
  0
LINE
  5
14CD
  8
DETAIL
  6
CONTINUOUS
 62
     5
 10
29.8310339999999
 20
-19.29705699999982
 30
0.0
 11
29.75114899999991
 21
-19.26500799999979
 31
0.0
  0
LINE
  5
14CE
  8
DETAIL
  6
CONTINUOUS
 62
     5
 10
29.902514
 20
-19.33424699999983
 30
0.0
 11
29.8310339999999
 21
-19.29705699999982
 31
0.0
  0
LINE
  5
14CF
  8
DETAIL
  6
CONTINUOUS
 62
     5
 10
29.9634069999999
 20
-19.37371799999986
 30
0.0
 11
29.902514
 21
-19.33424699999983
 31
0.0
  0
LINE
  5
14D0
  8
DETAIL
  6
CONTINUOUS
 62
     5
 10
153.9999999999997
 20
5.300000000000068
 30
0.0
 11
153.9999999999997
 21
106.2999999999999
 31
0.0
  0
LINE
  5
14D1
  8
DETAIL
  6
DASHED
 62
     5
 10
84.99999999999989
 20
41.00000000000017
 30
0.0
 11
180.9999999999997
 21
41.00000000000009
 31
0.0
  0
ARC
  5
14D2
  8
DETAIL
  6
CONTINUOUS
 62
     5
 10
156.9999999999997
 20
5.300000000000011
 30
0.0
 40
3.0
 50
180.0
 51
270.0
  0
LINE
  5
14D3
  8
DETAIL
  6
CONTINUOUS
 62
     5
 10
142.7908829999996
 20
-23.600456
 30
0.0
 11
142.7334209999999
 21
-23.60561599999994
 31
0.0
  0
ARC
  5
14D4
  8
DETAIL
  6
CONTINUOUS
 62
     5
 10
187.9999999999997
 20
19.3
 30
0.0
 40
1.0
 50
180.0
 51
0.0
  0
ARC
  5
14D5
  8
DETAIL
  6
CONTINUOUS
 62
     5
 10
186.9999999999997
 20
29.30000000000012
 30
0.0
 40
2.0
 50
0.0
 51
90.0
  0
LINE
  5
14D6
  8
DETAIL
  6
CONTINUOUS
 62
     5
 10
188.9999999999999
 20
19.30000000000006
 30
0.0
 11
188.9999999999999
 21
29.30000000000005
 31
0.0
  0
LINE
  5
14D7
  8
DETAIL
  6
CONTINUOUS
 62
     5
 10
186.9999999999999
 20
19.30000000000006
 30
0.0
 11
186.9999999999999
 21
22.80000000000006
 31
0.0
  0
ARC
  5
14D8
  8
DETAIL
  6
CONTINUOUS
 62
     5
 10
165.9999999999997
 20
19.3
 30
0.0
 40
1.0
 50
180.0
 51
0.0
  0
ARC
  5
14D9
  8
DETAIL
  6
CONTINUOUS
 62
     5
 10
166.9999999999997
 20
29.30000000000012
 30
0.0
 40
2.0
 50
90.0
 51
180.0
  0
LINE
  5
14DA
  8
DETAIL
  6
CONTINUOUS
 62
     5
 10
167.0
 20
19.30000000000006
 30
0.0
 11
167.0
 21
22.80000000000006
 31
0.0
  0
LINE
  5
14DB
  8
DETAIL
  6
CONTINUOUS
 62
     5
 10
165.0
 20
29.30000000000005
 30
0.0
 11
165.0
 21
19.30000000000006
 31
0.0
  0
LINE
  5
14DC
  8
DETAIL
  6
CONTINUOUS
 62
     5
 10
167.0
 20
31.30000000000006
 30
0.0
 11
186.9999999999999
 21
31.30000000000006
 31
0.0
  0
LINE
  5
14DD
  8
DETAIL
  6
CONTINUOUS
 62
     5
 10
165.0
 20
29.00000000000011
 30
0.0
 11
188.9999999999999
 21
29.00000000000011
 31
0.0
  0
LINE
  5
14DE
  8
DETAIL
  6
CONTINUOUS
 62
     5
 10
165.0
 20
22.80000000000006
 30
0.0
 11
188.9999999999999
 21
22.80000000000006
 31
0.0
  0
LINE
  5
14DF
  8
DETAIL
  6
CONTINUOUS
 62
     5
 10
167.0
 20
21.30000000000006
 30
0.0
 11
186.9999999999999
 21
21.30000000000006
 31
0.0
  0
ARC
  5
14E0
  8
DETAIL
  6
CONTINUOUS
 62
     5
 10
175.3999999999998
 20
-12.99999999999982
 30
0.0
 40
0.5
 50
0.0
 51
90.0
  0
ARC
  5
14E1
  8
DETAIL
  6
CONTINUOUS
 62
     5
 10
176.3999999999998
 20
-19.80796799999976
 30
0.0
 40
0.5
 50
180.0
 51
276.2897059999996
  0
ARC
  5
14E2
  8
DETAIL
  6
CONTINUOUS
 62
     5
 10
176.3999999999998
 20
-19.49999999999983
 30
0.0
 40
0.5
 50
180.0
 51
270.0
  0
ARC
  5
14E3
  8
DETAIL
  6
CONTINUOUS
 62
     5
 10
174.2999999999999
 20
-12.99999999999982
 30
0.0
 40
0.5
 50
0.0
 51
90.0
  0
ARC
  5
14E4
  8
DETAIL
  6
CONTINUOUS
 62
     5
 10
174.2999999999999
 20
-19.95199699999995
 30
0.0
 40
0.5
 50
276.2709579999948
 51
0.0
  0
ARC
  5
14E5
  8
DETAIL
  6
CONTINUOUS
 62
     5
 10
174.2999999999999
 20
-19.49999999999983
 30
0.0
 40
0.5
 50
270.0
 51
0.0
  0
LINE
  5
14E6
  8
DETAIL
  6
CONTINUOUS
 62
     5
 10
175.8999999999997
 20
-19.80796999999984
 30
0.0
 11
175.8999999999997
 21
-12.99999999999988
 31
0.0
  0
LINE
  5
14E7
  8
DETAIL
  6
CONTINUOUS
 62
     5
 10
174.7999999999999
 20
-19.95199699999987
 30
0.0
 11
174.7999999999999
 21
-12.99999999999988
 31
0.0
  0
LINE
  5
14E8
  8
DETAIL
  6
CONTINUOUS
 62
     5
 10
179.2278659999997
 20
-20.00000099999986
 30
0.0
 11
179.1722589999998
 21
-20.003104
 31
0.0
  0
LINE
  5
14E9
  8
DETAIL
  6
CONTINUOUS
 62
     5
 10
162.5
 20
105.0999999999997
 30
0.0
 11
162.5
 21
99.10000000000014
 31
0.0
  0
LINE
  5
14EA
  8
DETAIL
  6
CONTINUOUS
 62
     5
 10
167.5922489999999
 20
98.456595
 30
0.0
 11
167.5527779999998
 21
99.10000000000014
 31
0.0
  0
LINE
  5
14EB
  8
DETAIL
  6
CONTINUOUS
 62
     5
 10
167.7044379999998
 20
97.8919400000002
 30
0.0
 11
167.5922489999999
 21
98.456595
 31
0.0
  0
LINE
  5
14EC
  8
DETAIL
  6
CONTINUOUS
 62
     5
 10
167.8759799999999
 20
97.45847200000014
 30
0.0
 11
167.7044379999998
 21
97.8919400000002
 31
0.0
  0
LINE
  5
14ED
  8
DETAIL
  6
CONTINUOUS
 62
     5
 10
168.0894339999998
 20
97.18980900000008
 30
0.0
 11
167.8759799999999
 21
97.45847200000014
 31
0.0
  0
LINE
  5
14EE
  8
DETAIL
  6
CONTINUOUS
 62
     5
 10
168.3253239999999
 20
97.10000000000015
 30
0.0
 11
168.0894339999998
 21
97.18980900000008
 31
0.0
  0
LINE
  5
14EF
  8
DETAIL
  6
CONTINUOUS
 62
     5
 10
168.9532619999998
 20
106.2999999999999
 30
0.0
 11
168.9532619999998
 21
109.0999999999997
 31
0.0
  0
LINE
  5
14F0
  8
DETAIL
  6
CONTINUOUS
 62
     5
 10
168.1258799999999
 20
109.0999999999997
 30
0.0
 11
168.1258799999999
 21
112.0999999999997
 31
0.0
  0
LINE
  5
14F1
  8
DETAIL
  6
CONTINUOUS
 62
     5
 10
167.5527779999998
 20
105.0999999999997
 30
0.0
 11
167.5527779999998
 21
99.10000000000014
 31
0.0
  0
LINE
  5
14F2
  8
DETAIL
  6
CONTINUOUS
 62
     5
 10
165.9999999999999
 20
106.2999999999999
 30
0.0
 11
165.9999999999999
 21
109.0999999999997
 31
0.0
  0
LINE
  5
14F3
  8
DETAIL
  6
CONTINUOUS
 62
     5
 10
164.5
 20
97.10000000000015
 30
0.0
 11
189.4999999999997
 21
97.10000000000015
 31
0.0
  0
LINE
  5
14F4
  8
DETAIL
  6
CONTINUOUS
 62
     5
 10
163.9999999999999
 20
109.0999999999997
 30
0.0
 11
163.9999999999999
 21
112.0999999999997
 31
0.0
  0
LINE
  5
14F5
  8
DETAIL
  6
CONTINUOUS
 62
     5
 10
190.0
 20
112.0999999999997
 30
0.0
 11
163.9999999999999
 21
112.0999999999997
 31
0.0
  0
LINE
  5
14F6
  8
DETAIL
  6
CONTINUOUS
 62
     5
 10
190.0
 20
109.0999999999997
 30
0.0
 11
163.9999999999999
 21
109.0999999999997
 31
0.0
  0
LINE
  5
14F7
  8
DETAIL
  6
CONTINUOUS
 62
     5
 10
186.4077509999997
 20
98.456595
 30
0.0
 11
186.447222
 21
99.10000000000014
 31
0.0
  0
LINE
  5
14F8
  8
DETAIL
  6
CONTINUOUS
 62
     5
 10
186.295561
 20
97.8919400000002
 30
0.0
 11
186.4077509999997
 21
98.456595
 31
0.0
  0
LINE
  5
14F9
  8
DETAIL
  6
CONTINUOUS
 62
     5
 10
186.1240199999998
 20
97.45847200000014
 30
0.0
 11
186.295561
 21
97.8919400000002
 31
0.0
  0
LINE
  5
14FA
  8
DETAIL
  6
CONTINUOUS
 62
     5
 10
185.9105659999996
 20
97.18980900000008
 30
0.0
 11
186.1240199999998
 21
97.45847200000014
 31
0.0
  0
LINE
  5
14FB
  8
DETAIL
  6
CONTINUOUS
 62
     5
 10
185.6746759999998
 20
97.10000000000015
 30
0.0
 11
185.9105659999996
 21
97.18980900000008
 31
0.0
  0
LINE
  5
14FC
  8
DETAIL
  6
CONTINUOUS
 62
     5
 10
191.5
 20
105.0999999999997
 30
0.0
 11
191.5
 21
99.10000000000014
 31
0.0
  0
LINE
  5
14FD
  8
DETAIL
  6
CONTINUOUS
 62
     5
 10
190.0
 20
109.0999999999997
 30
0.0
 11
190.0
 21
112.0999999999997
 31
0.0
  0
LINE
  5
14FE
  8
DETAIL
  6
CONTINUOUS
 62
     5
 10
188.0
 20
106.2999999999999
 30
0.0
 11
188.0
 21
109.0999999999997
 31
0.0
  0
LINE
  5
14FF
  8
DETAIL
  6
CONTINUOUS
 62
     5
 10
186.447222
 20
105.0999999999997
 30
0.0
 11
186.447222
 21
99.10000000000014
 31
0.0
  0
LINE
  5
1500
  8
DETAIL
  6
CONTINUOUS
 62
     5
 10
185.8741199999997
 20
109.0999999999997
 30
0.0
 11
185.8741199999997
 21
112.0999999999997
 31
0.0
  0
LINE
  5
1501
  8
DETAIL
  6
CONTINUOUS
 62
     5
 10
185.0467379999997
 20
106.2999999999999
 30
0.0
 11
185.0467379999997
 21
109.0999999999997
 31
0.0
  0
ARC
  5
1502
  8
DETAIL
  6
CONTINUOUS
 62
     5
 10
164.4999999999997
 20
99.10000000000021
 30
0.0
 40
2.0
 50
180.0
 51
270.0
  0
LINE
  5
1503
  8
DETAIL
  6
CONTINUOUS
 62
     5
 10
130.4999999999997
 20
181.6
 30
0.0
 11
39.5
 21
181.6
 31
0.0
  0
LINE
  5
1504
  8
DETAIL
  6
CONTINUOUS
 62
     5
 10
135.4999999999997
 20
195.0
 30
0.0
 11
-20.0
 21
195.0
 31
0.0
  0
ARC
  5
1505
  8
DETAIL
  6
DASHED
 62
     5
 10
84.99999999999989
 20
136.0000000000001
 30
0.0
 40
15.0
 50
90.0
 51
180.0
  0
LINE
  5
1506
  8
DETAIL
  6
DASHED
 62
     5
 10
95.0
 20
162.5000000000001
 30
0.0
 11
73.0
 21
162.5000000000001
 31
0.0
  0
LINE
  5
1507
  8
DETAIL
  6
CONTINUOUS
 62
     5
 10
16.99999999999969
 20
163.3
 30
0.0
 11
16.99999999999969
 21
163.0000000000002
 31
0.0
  0
LINE
  5
1508
  8
DETAIL
  6
CONTINUOUS
 62
     5
 10
-35.0000000000001
 20
163.0000000000002
 30
0.0
 11
-35.0000000000001
 21
195.0
 31
0.0
  0
LINE
  5
1509
  8
DETAIL
  6
CONTINUOUS
 62
     5
 10
-20.0
 20
163.0000000000002
 30
0.0
 11
-20.0
 21
195.0
 31
0.0
  0
ARC
  5
150A
  8
DETAIL
  6
CONTINUOUS
 62
     5
 10
39.5
 20
176.6
 30
0.0
 40
5.0
 50
90.0
 51
180.0
  0
LINE
  5
150B
  8
DETAIL
  6
DASHED
 62
     5
 10
63.99999999999989
 20
147.5000000000001
 30
0.0
 11
65.99999999999989
 21
147.5000000000001
 31
0.0
  0
LINE
  5
150C
  8
DETAIL
  6
DASHED
 62
     5
 10
65.99999999999989
 20
155.5000000000001
 30
0.0
 11
65.99999999999989
 21
147.5000000000001
 31
0.0
  0
ARC
  5
150D
  8
DETAIL
  6
DASHED
 62
     5
 10
73.0
 20
155.4999999999996
 30
0.0
 40
7.0
 50
90.0
 51
180.0
  0
ARC
  5
150E
  8
DETAIL
  6
CONTINUOUS
 62
     5
 10
46.5
 20
155.4999999999996
 30
0.0
 40
7.0
 50
0.0
 51
90.0
  0
LINE
  5
150F
  8
DETAIL
  6
CONTINUOUS
 62
     5
 10
46.5
 20
162.5000000000001
 30
0.0
 11
29.33717799999999
 21
162.5000000000001
 31
0.0
  0
ARC
  5
1510
  8
DETAIL
  6
CONTINUOUS
 62
     5
 10
27.0
 20
136.0000000000001
 30
0.0
 40
15.0
 50
0.0
 51
90.0
  0
LINE
  5
1511
  8
DETAIL
  6
CONTINUOUS
 62
     5
 10
53.5
 20
147.5000000000001
 30
0.0
 11
55.5
 21
147.5000000000001
 31
0.0
  0
LINE
  5
1512
  8
DETAIL
  6
CONTINUOUS
 62
     5
 10
53.5
 20
155.5000000000001
 30
0.0
 11
53.5
 21
147.5000000000001
 31
0.0
  0
ARC
  5
1513
  8
DETAIL
  6
CONTINUOUS
 62
     5
 10
24.0
 20
133.0000000000001
 30
0.0
 40
30.0
 50
0.0
 51
90.0
  0
LINE
  5
1514
  8
DETAIL
  6
CONTINUOUS
 62
     5
 10
34.5
 20
163.0000000000002
 30
0.0
 11
34.5
 21
176.6000000000001
 31
0.0
  0
ARC
  5
1515
  8
DETAIL
  6
CONTINUOUS
 62
     5
 10
130.4999999999997
 20
176.6
 30
0.0
 40
5.0
 50
0.0
 51
90.0
  0
LINE
  5
1516
  8
DETAIL
  6
DASHED
 62
     5
 10
180.9999999999997
 20
151.0000000000001
 30
0.0
 11
84.99999999999989
 21
151.0000000000001
 31
0.0
  0
LINE
  5
1517
  8
DETAIL
  6
DASHED
 62
     5
 10
171.0
 20
163.3
 30
0.0
 11
95.0
 21
163.3
 31
0.0
  0
LINE
  5
1518
  8
DETAIL
  6
DASHED
 62
     5
 10
95.0
 20
162.5000000000001
 30
0.0
 11
95.0
 21
163.3
 31
0.0
  0
LINE
  5
1519
  8
DETAIL
  6
CONTINUOUS
 62
     5
 10
171.0
 20
175.3
 30
0.0
 11
135.4999999999997
 21
175.3
 31
0.0
  0
LINE
  5
151A
  8
DETAIL
  6
CONTINUOUS
 62
     5
 10
171.0
 20
163.3
 30
0.0
 11
171.0
 21
162.5000000000001
 31
0.0
  0
LINE
  5
151B
  8
DETAIL
  6
CONTINUOUS
 62
     5
 10
171.0
 20
153.3999999999998
 30
0.0
 11
171.0
 21
175.3
 31
0.0
  0
LINE
  5
151C
  8
DETAIL
  6
CONTINUOUS
 62
     5
 10
135.4999999999997
 20
153.3999999999998
 30
0.0
 11
135.4999999999997
 21
176.6000000000001
 31
0.0
  0
LINE
  5
151D
  8
DETAIL
  6
DASHED
 62
     5
 10
196.0
 20
56.00000000000012
 30
0.0
 11
196.0
 21
136.0000000000001
 31
0.0
  0
LINE
  5
151E
  8
DETAIL
  6
CONTINUOUS
 62
     5
 10
200.0
 20
106.2999999999999
 30
0.0
 11
200.3999999999999
 21
151.6000000000001
 31
0.0
  0
LINE
  5
151F
  8
DETAIL
  6
CONTINUOUS
 62
     5
 10
199.5
 20
106.2999999999999
 30
0.0
 11
199.8999999999998
 21
145.972775
 31
0.0
  0
LINE
  5
1520
  8
DETAIL
  6
CONTINUOUS
 62
     5
 10
199.7964469999997
 20
145.8005879999998
 30
0.0
 11
199.3964469999999
 21
106.2999999999999
 31
0.0
  0
LINE
  5
1521
  8
DETAIL
  6
CONTINUOUS
 62
     5
 10
203.699513
 20
40.51395600000012
 30
0.0
 11
200.103553
 21
143.4887559999999
 31
0.0
  0
LINE
  5
1522
  8
DETAIL
  6
CONTINUOUS
 62
     5
 10
203.2999999999997
 20
49.20000000000015
 30
0.0
 11
200.2269719999998
 21
137.1999999999997
 31
0.0
  0
LINE
  5
1523
  8
DETAIL
  6
CONTINUOUS
 62
     5
 10
207.6999999999998
 20
32.80000000000005
 30
0.0
 11
207.6999999999998
 21
145.5000000000001
 31
0.0
  0
LINE
  5
1524
  8
DETAIL
  6
CONTINUOUS
 62
     5
 10
201.1999999999998
 20
30.80000000000007
 30
0.0
 11
201.1999999999998
 21
147.5000000000001
 31
0.0
  0
LINE
  5
1525
  8
DETAIL
  6
CONTINUOUS
 62
     5
 10
202.0
 20
30.80000000000007
 30
0.0
 11
202.0
 21
147.5000000000001
 31
0.0
  0
LINE
  5
1526
  8
DETAIL
  6
CONTINUOUS
 62
     5
 10
317.5999999999999
 20
47.0000000000001
 30
0.0
 11
317.5999999999999
 21
145.0000000000001
 31
0.0
  0
LINE
  5
1527
  8
DETAIL
  6
CONTINUOUS
 62
     5
 10
287.1
 20
43.50000000000011
 30
0.0
 11
287.1
 21
148.5000000000001
 31
0.0
  0
LINE
  5
1528
  8
DETAIL
  6
CONTINUOUS
 62
     5
 10
290.6
 20
47.0000000000001
 30
0.0
 11
290.6
 21
145.0000000000001
 31
0.0
  0
LINE
  5
1529
  8
DETAIL
  6
CONTINUOUS
 62
     5
 10
265.1999999999999
 20
44.03060800000015
 30
0.0
 11
265.1999999999999
 21
147.96941
 31
0.0
  0
LINE
  5
152A
  8
DETAIL
  6
CONTINUOUS
 62
     5
 10
290.6
 20
47.0000000000001
 30
0.0
 11
317.5999999999999
 21
47.0000000000001
 31
0.0
  0
LINE
  5
152B
  8
DETAIL
  6
CONTINUOUS
 62
     5
 10
203.2999999999997
 20
40.20000000000016
 30
0.0
 11
200.103553
 21
131.7342550000001
 31
0.0
  0
LINE
  5
152C
  8
DETAIL
  6
CONTINUOUS
 62
     5
 10
200.0
 20
5.300000000000068
 30
0.0
 11
200.0
 21
106.2999999999999
 31
0.0
  0
LINE
  5
152D
  8
DETAIL
  6
CONTINUOUS
 62
     5
 10
260.292523
 20
41.00000000000009
 30
0.0
 11
207.6999999999998
 21
41.00000000000009
 31
0.0
  0
LINE
  5
152E
  8
DETAIL
  6
CONTINUOUS
 62
     5
 10
205.6999999999998
 20
1.200000000000158
 30
0.0
 11
205.6999999999998
 21
29.00000000000011
 31
0.0
  0
LINE
  5
152F
  8
DETAIL
  6
CONTINUOUS
 62
     5
 10
204.4999999999997
 20
1.200000000000158
 30
0.0
 11
204.4999999999997
 21
30.80000000000007
 31
0.0
  0
LINE
  5
1530
  8
DETAIL
  6
CONTINUOUS
 62
     5
 10
203.3999999999998
 20
0.0000000000001137
 30
0.0
 11
203.3999999999998
 21
49.0908760000001
 31
0.0
  0
LINE
  5
1531
  8
DETAIL
  6
CONTINUOUS
 62
     5
 10
201.7499999999997
 20
0.0000000000001137
 30
0.0
 11
201.7499999999997
 21
26.00000000000011
 31
0.0
  0
ARC
  5
1532
  8
DETAIL
  6
CONTINUOUS
 62
     5
 10
196.9999999999997
 20
5.299999999999952
 30
0.0
 40
3.0
 50
270.0
 51
0.0
  0
ARC
  5
1533
  8
DETAIL
  6
CONTINUOUS
 62
     5
 10
206.8999999999997
 20
1.200000000000158
 30
0.0
 40
1.199999999999999
 50
180.0
 51
270.0
  0
ARC
  5
1534
  8
DETAIL
  6
CONTINUOUS
 62
     5
 10
206.8999999999997
 20
1.200000000000158
 30
0.0
 40
2.399999999999999
 50
180.0
 51
209.9999999999997
  0
ARC
  5
1535
  8
DETAIL
  6
CONTINUOUS
 62
     5
 10
198.7499999999997
 20
26.00000000000011
 30
0.0
 40
3.0
 50
0.0
 51
65.37275600000437
  0
LINE
  5
1536
  8
DETAIL
  6
CONTINUOUS
 62
     5
 10
203.399513
 20
40.51395600000012
 30
0.0
 11
203.0961889999997
 21
49.20000000000015
 31
0.0
  0
LINE
  5
1537
  8
DETAIL
  6
CONTINUOUS
 62
     5
 10
202.9857129999999
 20
49.20000000000015
 30
0.0
 11
203.2999999999997
 21
49.20000000000015
 31
0.0
  0
LINE
  5
1538
  8
DETAIL
  6
CONTINUOUS
 62
     5
 10
200.103553
 20
40.20000000000016
 30
0.0
 11
203.2999999999997
 21
40.20000000000016
 31
0.0
  0
LINE
  5
1539
  8
DETAIL
  6
CONTINUOUS
 62
     5
 10
205.6999999999998
 20
29.00000000000011
 30
0.0
 11
204.4999999999997
 21
29.00000000000011
 31
0.0
  0
LINE
  5
153A
  8
DETAIL
  6
CONTINUOUS
 62
     5
 10
203.6999999999998
 20
30.80000000000007
 30
0.0
 11
205.6999999999998
 21
30.80000000000007
 31
0.0
  0
ARC
  5
153B
  8
DETAIL
  6
CONTINUOUS
 62
     5
 10
205.6999999999998
 20
32.80000000000005
 30
0.0
 40
2.0
 50
270.0
 51
0.0
  0
LINE
  5
153C
  8
DETAIL
  6
CONTINUOUS
 62
     5
 10
203.3999999999998
 20
30.80000000000007
 30
0.0
 11
203.619682
 21
30.80000000000007
 31
0.0
  0
LINE
  5
153D
  8
DETAIL
  6
CONTINUOUS
 62
     5
 10
200.0
 20
29.00000000000011
 30
0.0
 11
200.0
 21
30.80000000000007
 31
0.0
  0
LINE
  5
153E
  8
DETAIL
  6
CONTINUOUS
 62
     5
 10
200.0
 20
30.80000000000007
 30
0.0
 11
202.0
 21
30.80000000000007
 31
0.0
  0
ARC
  5
153F
  8
DETAIL
  6
CONTINUOUS
 62
     5
 10
233.4999999999997
 20
-15.99999999999988
 30
0.0
 40
4.0
 50
270.0
 51
0.0
  0
LINE
  5
1540
  8
DETAIL
  6
CONTINUOUS
 62
     5
 10
237.5
 20
-15.99999999999988
 30
0.0
 11
237.5
 21
0.0000000000001137
 31
0.0
  0
LINE
  5
1541
  8
DETAIL
  6
CONTINUOUS
 62
     5
 10
265.1659199999999
 20
43.50000000000011
 30
0.0
 11
287.1
 21
43.50000000000011
 31
0.0
  0
ARC
  5
1542
  8
DETAIL
  6
CONTINUOUS
 62
     5
 10
260.2925229999998
 20
47.0000000000001
 30
0.0
 40
6.0
 50
270.0
 51
324.3146649999957
  0
LINE
  5
1543
  8
DETAIL
  6
CONTINUOUS
 62
     5
 10
265.1999999999999
 20
44.03060800000015
 30
0.0
 11
265.181504
 21
43.63612299999998
 31
0.0
  0
LINE
  5
1544
  8
DETAIL
  6
CONTINUOUS
 62
     5
 10
265.181504
 20
43.63612299999998
 30
0.0
 11
265.1659199999999
 21
43.50000000000011
 31
0.0
  0
LINE
  5
1545
  8
DETAIL
  6
CONTINUOUS
 62
     5
 10
287.1
 20
43.50000000000011
 30
0.0
 11
290.6
 21
47.0000000000001
 31
0.0
  0
LINE
  5
1546
  8
DETAIL
  6
CONTINUOUS
 62
     5
 10
203.3724459999999
 20
61.60645900000009
 30
0.0
 11
203.4657199999999
 21
62.19450100000006
 31
0.0
  0
LINE
  5
1547
  8
DETAIL
  6
CONTINUOUS
 62
     5
 10
203.2914389999999
 20
61.01914700000008
 30
0.0
 11
203.3724459999999
 21
61.60645900000009
 31
0.0
  0
LINE
  5
1548
  8
DETAIL
  6
CONTINUOUS
 62
     5
 10
203.2233689999998
 20
60.43233900000007
 30
0.0
 11
203.2914389999999
 21
61.01914700000008
 31
0.0
  0
LINE
  5
1549
  8
DETAIL
  6
CONTINUOUS
 62
     5
 10
203.1690179999998
 20
59.84629000000007
 30
0.0
 11
203.2233689999998
 21
60.43233900000007
 31
0.0
  0
LINE
  5
154A
  8
DETAIL
  6
CONTINUOUS
 62
     5
 10
203.1291209999998
 20
59.25981500000012
 30
0.0
 11
203.1690179999998
 21
59.84629000000007
 31
0.0
  0
LINE
  5
154B
  8
DETAIL
  6
CONTINUOUS
 62
     5
 10
203.1045429999999
 20
58.66890599999999
 30
0.0
 11
203.1291209999998
 21
59.25981500000012
 31
0.0
  0
LINE
  5
154C
  8
DETAIL
  6
CONTINUOUS
 62
     5
 10
203.0967289999998
 20
58.06851000000007
 30
0.0
 11
203.1045429999999
 21
58.66890599999999
 31
0.0
  0
LINE
  5
154D
  8
DETAIL
  6
CONTINUOUS
 62
     5
 10
203.1079749999998
 20
57.45338200000015
 30
0.0
 11
203.0967289999998
 21
58.06851000000007
 31
0.0
  0
LINE
  5
154E
  8
DETAIL
  6
CONTINUOUS
 62
     5
 10
202.9233719999998
 20
60.43236400000012
 30
0.0
 11
202.9853029999998
 21
60.96625100000006
 31
0.0
  0
LINE
  5
154F
  8
DETAIL
  6
CONTINUOUS
 62
     5
 10
202.9120279999999
 20
60.31005500000016
 30
0.0
 11
202.9233719999998
 21
60.43236400000012
 31
0.0
  0
LINE
  5
1550
  8
DETAIL
  6
CONTINUOUS
 62
     5
 10
203.4692489999998
 20
62.21469500000011
 30
0.0
 11
203.4656309999999
 21
62.19396800000016
 31
0.0
  0
LINE
  5
1551
  8
DETAIL
  6
CONTINUOUS
 62
     5
 10
203.4739729999997
 20
62.23515500000008
 30
0.0
 11
203.4692489999998
 21
62.21469500000011
 31
0.0
  0
LINE
  5
1552
  8
DETAIL
  6
CONTINUOUS
 62
     5
 10
203.4832879999996
 20
62.25217300000007
 30
0.0
 11
203.4739729999997
 21
62.23515500000008
 31
0.0
  0
LINE
  5
1553
  8
DETAIL
  6
CONTINUOUS
 62
     5
 10
290.6
 20
145.0000000000001
 30
0.0
 11
317.5999999999999
 21
145.0000000000001
 31
0.0
  0
LINE
  5
1554
  8
DETAIL
  6
CONTINUOUS
 62
     5
 10
260.292523
 20
151.0000000000001
 30
0.0
 11
204.6999999999998
 21
151.0000000000001
 31
0.0
  0
ARC
  5
1555
  8
DETAIL
  6
CONTINUOUS
 62
     5
 10
199.3999999999998
 20
151.6
 30
0.0
 40
1.0
 50
0.0
 51
53.12718700000308
  0
ARC
  5
1556
  8
DETAIL
  6
CONTINUOUS
 62
     5
 10
202.2878459999997
 20
149.7007039999996
 30
0.0
 40
2.0
 50
153.9445769999961
 51
161.3780560000008
  0
ARC
  5
1557
  8
DETAIL
  6
CONTINUOUS
 62
     5
 10
197.6999999999998
 20
155.1999999999999
 30
0.0
 40
0.8
 50
90.0
 51
139.7717210000067
  0
ARC
  5
1558
  8
DETAIL
  6
CONTINUOUS
 62
     5
 10
201.9878459999998
 20
149.7007039999996
 30
0.0
 40
2.0
 50
138.2650369999937
 51
142.6992509999975
  0
ARC
  5
1559
  8
DETAIL
  6
CONTINUOUS
 62
     5
 10
200.0
 20
152.0999999999999
 30
0.0
 40
1.3
 50
0.0
 51
90.0
  0
ARC
  5
155A
  8
DETAIL
  6
CONTINUOUS
 62
     5
 10
199.0
 20
146.4
 30
0.0
 40
1.0
 50
270.0
 51
0.0
  0
ARC
  5
155B
  8
DETAIL
  6
CONTINUOUS
 62
     5
 10
197.6999999999998
 20
155.1999999999999
 30
0.0
 40
1.6
 50
90.0
 51
139.7717210000046
  0
ARC
  5
155C
  8
DETAIL
  6
CONTINUOUS
 62
     5
 10
197.3999999999998
 20
155.1999999999999
 30
0.0
 40
1.6
 50
90.0
 51
139.7717210000046
  0
ARC
  5
155D
  8
DETAIL
  6
CONTINUOUS
 62
     5
 10
200.0
 20
152.0999999999999
 30
0.0
 40
0.5
 50
0.0
 51
90.0
  0
LINE
  5
155E
  8
DETAIL
  6
CONTINUOUS
 62
     5
 10
202.0
 20
159.4999999999997
 30
0.0
 11
202.0
 21
156.8
 31
0.0
  0
LINE
  5
155F
  8
DETAIL
  6
CONTINUOUS
 62
     5
 10
201.2999999999997
 20
145.4000000000002
 30
0.0
 11
201.2999999999997
 21
152.0999999999999
 31
0.0
  0
LINE
  5
1560
  8
DETAIL
  6
CONTINUOUS
 62
     5
 10
200.4999999999997
 20
145.4000000000002
 30
0.0
 11
200.4999999999997
 21
152.0999999999999
 31
0.0
  0
LINE
  5
1561
  8
DETAIL
  6
CONTINUOUS
 62
     5
 10
200.0
 20
153.3999999999998
 30
0.0
 11
200.0
 21
146.4
 31
0.0
  0
LINE
  5
1562
  8
DETAIL
  6
CONTINUOUS
 62
     5
 10
200.0
 20
159.4999999999997
 30
0.0
 11
202.0
 21
159.4999999999997
 31
0.0
  0
LINE
  5
1563
  8
DETAIL
  6
CONTINUOUS
 62
     5
 10
200.3999999999999
 20
151.6000000000001
 30
0.0
 11
200.0
 21
151.6000000000001
 31
0.0
  0
LINE
  5
1564
  8
DETAIL
  6
CONTINUOUS
 62
     5
 10
200.3999999999999
 20
150.0999999999999
 30
0.0
 11
200.503553
 21
150.0999999999999
 31
0.0
  0
LINE
  5
1565
  8
DETAIL
  6
CONTINUOUS
 62
     5
 10
201.2999999999997
 20
145.4000000000002
 30
0.0
 11
200.4999999999997
 21
145.4000000000002
 31
0.0
  0
LINE
  5
1566
  8
DETAIL
  6
CONTINUOUS
 62
     5
 10
200.103553
 20
137.1999999999997
 30
0.0
 11
200.2269719999998
 21
137.1999999999997
 31
0.0
  0
LINE
  5
1567
  8
DETAIL
  6
CONTINUOUS
 62
     5
 10
196.178436
 20
156.233335
 30
0.0
 11
193.7816839999999
 21
153.3999999999998
 31
0.0
  0
LINE
  5
1568
  8
DETAIL
  6
CONTINUOUS
 62
     5
 10
196.4784359999998
 20
156.233335
 30
0.0
 11
194.0816839999999
 21
153.3999999999998
 31
0.0
  0
LINE
  5
1569
  8
DETAIL
  6
CONTINUOUS
 62
     5
 10
197.0892179999999
 20
155.7166679999999
 30
0.0
 11
195.1295209999997
 21
153.3999999999998
 31
0.0
  0
ARC
  5
156A
  8
DETAIL
  6
CONTINUOUS
 62
     5
 10
205.6999999999998
 20
145.5000000000001
 30
0.0
 40
2.0
 50
0.0
 51
90.0
  0
LINE
  5
156B
  8
DETAIL
  6
CONTINUOUS
 62
     5
 10
204.6999999999998
 20
156.8
 30
0.0
 11
197.3999999999998
 21
156.8
 31
0.0
  0
LINE
  5
156C
  8
DETAIL
  6
CONTINUOUS
 62
     5
 10
204.6999999999998
 20
147.5000000000001
 30
0.0
 11
204.6999999999998
 21
156.8
 31
0.0
  0
LINE
  5
156D
  8
DETAIL
  6
CONTINUOUS
 62
     5
 10
204.4999999999997
 20
156.0000000000001
 30
0.0
 11
204.4999999999997
 21
147.5000000000001
 31
0.0
  0
LINE
  5
156E
  8
DETAIL
  6
CONTINUOUS
 62
     5
 10
204.4999999999997
 20
156.0000000000001
 30
0.0
 11
197.6999999999998
 21
156.0000000000001
 31
0.0
  0
LINE
  5
156F
  8
DETAIL
  6
CONTINUOUS
 62
     5
 10
201.2999999999997
 20
147.5000000000001
 30
0.0
 11
205.6999999999998
 21
147.5000000000001
 31
0.0
  0
LINE
  5
1570
  8
DETAIL
  6
CONTINUOUS
 62
     5
 10
202.0
 20
156.0000000000001
 30
0.0
 11
202.0
 21
147.5000000000001
 31
0.0
  0
LINE
  5
1571
  8
DETAIL
  6
CONTINUOUS
 62
     5
 10
200.0
 20
155.4999999999997
 30
0.0
 11
200.0
 21
147.5000000000001
 31
0.0
  0
ARC
  5
1572
  8
DETAIL
  6
DASHED
 62
     5
 10
192.9999999999999
 20
155.4999999999996
 30
0.0
 40
7.0
 50
0.0
 51
90.0
  0
LINE
  5
1573
  8
DETAIL
  6
CONTINUOUS
 62
     5
 10
200.0
 20
147.5000000000001
 30
0.0
 11
202.0
 21
147.5000000000001
 31
0.0
  0
LINE
  5
1574
  8
DETAIL
  6
CONTINUOUS
 62
     5
 10
200.0
 20
167.5000000000001
 30
0.0
 11
200.0
 21
159.4999999999997
 31
0.0
  0
ARC
  5
1575
  8
DETAIL
  6
CONTINUOUS
 62
     5
 10
192.9999999999999
 20
167.5000000000001
 30
0.0
 40
7.0
 50
0.0
 51
90.0
  0
ARC
  5
1576
  8
DETAIL
  6
CONTINUOUS
 62
     5
 10
260.292523
 20
145.0000000000001
 30
0.0
 40
6.0
 50
35.68533500000428
 51
90.0
  0
LINE
  5
1577
  8
DETAIL
  6
CONTINUOUS
 62
     5
 10
265.1659199999999
 20
148.5000000000001
 30
0.0
 11
287.1
 21
148.5000000000001
 31
0.0
  0
LINE
  5
1578
  8
DETAIL
  6
CONTINUOUS
 62
     5
 10
265.181506
 20
148.363873
 30
0.0
 11
265.1999999999999
 21
147.96941
 31
0.0
  0
LINE
  5
1579
  8
DETAIL
  6
CONTINUOUS
 62
     5
 10
265.1659199999999
 20
148.5000000000001
 30
0.0
 11
265.181506
 21
148.363873
 31
0.0
  0
LINE
  5
157A
  8
DETAIL
  6
CONTINUOUS
 62
     5
 10
287.1
 20
148.5000000000001
 30
0.0
 11
290.6
 21
145.0000000000001
 31
0.0
  0
LINE
  5
157B
  8
OUTLINE
  6
CONTINUOUS
 62
     3
 10
201.7499999999997
 20
0.0
 30
0.0
 11
201.7499999999997
 21
25.99999999999996
 31
0.0
  0
LINE
  5
157C
  8
OUTLINE
  6
CONTINUOUS
 62
     3
 10
-201.75
 20
0.0
 30
0.0
 11
-201.75
 21
25.99999999999996
 31
0.0
  0
LINE
  5
157D
  8
OUTLINE
  6
CONTINUOUS
 62
     3
 10
-237.5
 20
0.0
 30
0.0
 11
237.5
 21
0.0
 31
0.0
  0
LINE
  5
157E
  8
OUTLINE
  6
CONTINUOUS
 62
     3
 39
50.0
 10
-200.0
 20
153.3999999999996
 30
0.0
 11
200.0
 21
153.3999999999996
 31
0.0
  0
LINE
  5
157F
  8
BASIS
  6
DASHDOT
 62
     6
 10
156.0955109999997
 20
96.00000000000009
 30
0.0
 11
-104.3783359999998
 21
96.00000000000021
 31
0.0
  0
LINE
  5
1580
  8
BASIS
  6
DASHDOT
 62
     6
 10
-21.0
 20
20.27033700000016
 30
0.0
 11
-21.0
 21
168.8266030000001
 31
0.0
  0
LINE
  5
1581
  8
OUTLINE
  6
CONTINUOUS
 62
     3
 10
-200.0
 20
28.72711400000001
 30
0.0
 11
-200.0
 21
106.2999999999997
 31
0.0
  0
ARC
  5
1582
  8
OUTLINE
  6
CONTINUOUS
 62
     3
 10
-198.75
 20
25.99999999999996
 30
0.0
 40
3.0
 50
114.6272439999999
 51
180.0
  0
LINE
  5
1583
  8
OUTLINE
  6
CONTINUOUS
 62
     3
 10
-200.4
 20
151.5999999999999
 30
0.0
 11
-200.0
 21
106.2999999999997
 31
0.0
  0
LINE
  5
1584
  8
OUTLINE
  6
CONTINUOUS
 62
     3
 10
-200.0
 20
153.3999999999996
 30
0.0
 11
-200.0
 21
152.3985549999999
 31
0.0
  0
ARC
  5
1585
  8
OUTLINE
  6
CONTINUOUS
 62
     3
 10
-199.3999999999999
 20
151.5999999999999
 30
0.0
 40
1.0
 50
127.0076880000001
 51
180.0
  0
LINE
  5
1586
  8
BASIS
  6
DASHDOT
 62
     6
 10
132.9999999999999
 20
20.27033700000012
 30
0.0
 11
132.9999999999999
 21
168.826603
 31
0.0
  0
LINE
  5
1587
  8
OUTLINE
  6
CONTINUOUS
 62
     3
 10
200.0
 20
28.72711400000001
 30
0.0
 11
200.0
 21
106.2999999999997
 31
0.0
  0
ARC
  5
1588
  8
OUTLINE
  6
CONTINUOUS
 62
     3
 10
198.75
 20
25.99999999999996
 30
0.0
 40
3.0
 50
0.0
 51
65.37275599999963
  0
LINE
  5
1589
  8
OUTLINE
  6
CONTINUOUS
 62
     3
 10
199.7964469999997
 20
145.8005879999998
 30
0.0
 11
199.3964470000001
 21
106.2999999999997
 31
0.0
  0
LINE
  5
158A
  8
OUTLINE
  6
CONTINUOUS
 62
     3
 10
200.0
 20
153.3999999999996
 30
0.0
 11
200.0
 21
146.3999999999998
 31
0.0
  0
ARC
  5
158B
  8
OUTLINE
  6
CONTINUOUS
 62
     3
 10
199.0
 20
146.3999999999998
 30
0.0
 40
1.0
 50
322.786955
 51
0.0
  0
TEXT
  5
1592
  8
NOTE
  6
CONTINUOUS
 62
     4
 10
-863.3138569412321
 20
-326.2100607021354
 30
0.0
 40
64.0
  1
8ヶ所×φ5×9
 41
0.9
  0
ENDSEC
  0
EOF
