  0
SECTION
  2
HEADER
  9
$ACADVER
  1
AC1009
  9
$DWGCODEPAGE
  3
dos932
  9
$INSBASE
 10
0.0
 20
0.0
 30
0.0
  9
$EXTMIN
 10
-993.383773
 20
-507.568348
 30
-0.001526
  9
$EXTMAX
 10
1078.582775
 20
652.725228
 30
50.001526
  9
$LIMMIN
 10
-2970.0
 20
-2100.0
  9
$LIMMAX
 10
2970.0
 20
2100.0
  9
$ORTHOMODE
 70
     1
  9
$REGENMODE
 70
     1
  9
$FILLMODE
 70
     1
  9
$QTEXTMODE
 70
     0
  9
$MIRRTEXT
 70
     0
  9
$DRAGMODE
 70
     2
  9
$LTSCALE
 40
20.0
  9
$OSMODE
 70
  1023
  9
$ATTMODE
 70
     1
  9
$TEXTSIZE
 40
64.0
  9
$TRACEWID
 40
0.05
  9
$TEXTSTYLE
  7
STANDARD
  9
$CLAYER
  8
DETAIL
  9
$CELTYPE
  6
CONTINUOUS
  9
$CECOLOR
 62
     7
  9
$DIMSCALE
 40
1.0
  9
$DIMASZ
 40
12.0
  9
$DIMEXO
 40
20.0
  9
$DIMDLI
 40
200.0
  9
$DIMRND
 40
0.0
  9
$DIMDLE
 40
0.0
  9
$DIMEXE
 40
20.0
  9
$DIMTP
 40
0.0
  9
$DIMTM
 40
0.0
  9
$DIMTXT
 40
64.0
  9
$DIMCEN
 40
0.09
  9
$DIMTSZ
 40
0.0
  9
$DIMTOL
 70
     0
  9
$DIMLIM
 70
     0
  9
$DIMTIH
 70
     0
  9
$DIMTOH
 70
     0
  9
$DIMSE1
 70
     0
  9
$DIMSE2
 70
     0
  9
$DIMTAD
 70
     1
  9
$DIMZIN
 70
     8
  9
$DIMBLK
  1
DOT1
  9
$DIMASO
 70
     1
  9
$DIMSHO
 70
     0
  9
$DIMPOST
  1

  9
$DIMAPOST
  1

  9
$DIMALT
 70
     0
  9
$DIMALTD
 70
     2
  9
$DIMALTF
 40
25.4
  9
$DIMLFAC
 40
1.0
  9
$DIMTOFL
 70
     1
  9
$DIMTVP
 40
0.0
  9
$DIMTIX
 70
     1
  9
$DIMSOXD
 70
     0
  9
$DIMSAH
 70
     1
  9
$DIMBLK1
  1
_ORIGIN
  9
$DIMBLK2
  1
_ORIGIN
  9
$DIMSTYLE
  2
STANDARD
  9
$DIMCLRD
 70
     7
  9
$DIMCLRE
 70
     7
  9
$DIMCLRT
 70
     7
  9
$DIMTFAC
 40
1.0
  9
$DIMGAP
 40
25.0
  9
$LUNITS
 70
     2
  9
$LUPREC
 70
     4
  9
$SKETCHINC
 40
0.1
  9
$FILLETRAD
 40
5.0
  9
$AUNITS
 70
     1
  9
$AUPREC
 70
     3
  9
$MENU
  1
ACAD
  9
$ELEVATION
 40
0.0
  9
$PELEVATION
 40
0.0
  9
$THICKNESS
 40
50.0
  9
$LIMCHECK
 70
     0
  9
$BLIPMODE
 70
     0
  9
$CHAMFERA
 40
0.0
  9
$CHAMFERB
 40
0.0
  9
$SKPOLY
 70
     0
  9
$TDCREATE
 40
2452321.396199653
  9
$TDUPDATE
 40
2453675.652494456
  9
$TDINDWG
 40
0.5098661921
  9
$TDUSRTIMER
 40
0.5098661921
  9
$USRTIMER
 70
     1
  9
$ANGBASE
 50
0.0
  9
$ANGDIR
 70
     0
  9
$PDMODE
 70
     3
  9
$PDSIZE
 40
-2.0
  9
$PLINEWID
 40
0.0
  9
$COORDS
 70
     2
  9
$SPLFRAME
 70
     0
  9
$SPLINETYPE
 70
     6
  9
$SPLINESEGS
 70
     8
  9
$ATTDIA
 70
     0
  9
$ATTREQ
 70
     1
  9
$HANDLING
 70
     0
  9
$HANDSEED
  5
94D6
  9
$SURFTAB1
 70
     6
  9
$SURFTAB2
 70
     6
  9
$SURFTYPE
 70
     6
  9
$SURFU
 70
     6
  9
$SURFV
 70
     6
  9
$UCSNAME
  2

  9
$UCSORG
 10
0.0
 20
0.0
 30
0.0
  9
$UCSXDIR
 10
1.0
 20
0.0
 30
0.0
  9
$UCSYDIR
 10
0.0
 20
1.0
 30
0.0
  9
$PUCSNAME
  2

  9
$PUCSORG
 10
0.0
 20
0.0
 30
0.0
  9
$PUCSXDIR
 10
1.0
 20
0.0
 30
0.0
  9
$PUCSYDIR
 10
0.0
 20
1.0
 30
0.0
  9
$USERI1
 70
     0
  9
$USERI2
 70
     0
  9
$USERI3
 70
     0
  9
$USERI4
 70
     0
  9
$USERI5
 70
     0
  9
$USERR1
 40
20.0
  9
$USERR2
 40
0.0
  9
$USERR3
 40
0.0
  9
$USERR4
 40
0.0
  9
$USERR5
 40
0.0
  9
$WORLDVIEW
 70
     1
  9
$SHADEDGE
 70
     3
  9
$SHADEDIF
 70
    70
  9
$TILEMODE
 70
     1
  9
$MAXACTVP
 70
    48
  9
$PINSBASE
 10
0.0
 20
0.0
 30
0.0
  9
$PLIMCHECK
 70
     0
  9
$PEXTMIN
 10
-100000000000000000000.0
 20
-100000000000000000000.0
 30
-100000000000000000000.0
  9
$PEXTMAX
 10
100000000000000000000.0
 20
100000000000000000000.0
 30
100000000000000000000.0
  9
$PLIMMIN
 10
0.0
 20
0.0
  9
$PLIMMAX
 10
12.0
 20
9.0
  9
$UNITMODE
 70
     0
  9
$VISRETAIN
 70
     0
  9
$PLINEGEN
 70
     0
  9
$PSLTSCALE
 70
     0
  9
$TREEDEPTH
 70
  3020
  0
ENDSEC
  0
SECTION
  2
TABLES
  0
TABLE
  2
LTYPE
 70
     2
  0
LTYPE
  2
CONTINUOUS
 70
     0
  3
実線
 72
    65
 73
     0
 40
0.0
  0
LTYPE
  2
DASHDOT
 70
     0
  3
____ _ ____ _ ____ _ ____ _ ____ _ ____ _ ____
 72
    65
 73
     4
 40
5.5
 49
4.0
 49
-0.6
 49
0.3
 49
-0.6
  0
ENDTAB
  0
TABLE
  2
LAYER
 70
    12
  0
LAYER
  2
0
 70
     0
 62
     7
  6
CONTINUOUS
  0
LAYER
  2
BASIS
 70
     0
 62
     6
  6
DASHDOT
  0
LAYER
  2
OUTLINE
 70
     0
 62
     3
  6
CONTINUOUS
  0
LAYER
  2
DETAIL
 70
     0
 62
     5
  6
CONTINUOUS
  0
LAYER
  2
SIZE
 70
     0
 62
    30
  6
CONTINUOUS
  0
LAYER
  2
ARRANGE
 70
     0
 62
     1
  6
CONTINUOUS
  0
LAYER
  2
DEFPOINTS
 70
     0
 62
     7
  6
CONTINUOUS
  0
LAYER
  2
ETC
 70
     0
 62
    61
  6
CONTINUOUS
  0
LAYER
  2
FIX
 70
     0
 62
    11
  6
CONTINUOUS
  0
LAYER
  2
NOTE
 70
     0
 62
     4
  6
CONTINUOUS
  0
LAYER
  2
SERVICESPACE
 70
    64
 62
     2
  6
DASHDOT
  0
LAYER
  2
SYMBOLLINE
 70
    64
 62
    15
  6
CONTINUOUS
  0
ENDTAB
  0
TABLE
  2
STYLE
 70
     1
  0
STYLE
  2
STANDARD
 70
     0
 40
64.0
 41
0.9
 50
0.0
 71
     0
 42
64.0
  3
SIMPLEX.shx
  4
BIGFONT.shx
  0
ENDTAB
  0
TABLE
  2
APPID
 70
     2
  0
APPID
  2
ACAD
 70
     0
  0
APPID
  2
AUTOCAD_POSTSCRIPT_FIGURE
 70
     0
  0
ENDTAB
  0
TABLE
  2
DIMSTYLE
 70
     1
  0
DIMSTYLE
  2
STANDARD
 70
     0
  3

  4

  5

  6

  7

 40
1.0
 41
0.18
 42
0.0625
 43
0.38
 44
0.18
 45
0.0
 46
0.0
 47
0.0
 48
0.0
140
0.18
141
0.09
142
0.0
143
25.4
144
1.0
145
0.0
146
1.0
147
0.09
 71
     0
 72
     0
 73
     1
 74
     1
 75
     0
 76
     0
 77
     0
 78
     0
170
     0
171
     2
172
     0
173
     0
174
     0
175
     0
176
     7
177
     7
178
     7
  0
ENDTAB
  0
TABLE
  2
VIEW
 70
     1
  0
VIEW
  2
ALL
 70
     0
 40
4282.619808
 10
0.0
 20
41.309904
 41
5940.0
 11
0.0
 21
0.0
 31
1.0
 12
0.0
 22
0.0
 32
0.0
 42
50.0
 43
0.0
 44
0.0
 50
0.0
 71
     0
  0
ENDTAB
  0
TABLE
  2
UCS
 70
     0
  0
ENDTAB
  0
TABLE
  2
VPORT
 70
     1
  0
VPORT
  2
*ACTIVE
 70
     0
 10
0.0
 20
0.0
 11
1.0
 21
1.0
 12
42.599501
 22
72.57844
 13
0.0
 23
0.0
 14
1.0
 24
1.0
 15
0.0
 25
0.0
 16
0.0
 26
0.0
 36
1.0
 17
0.0
 27
0.0
 37
0.0
 40
1458.917681
 41
1.428777
 42
50.0
 43
0.0
 44
0.0
 50
0.0
 51
0.0
 71
     0
 72
  1000
 73
     1
 74
     0
 75
     0
 76
     0
 77
     0
 78
     0
  0
ENDTAB
  0
ENDSEC
  0
SECTION
  2
BLOCKS
  0
BLOCK
  8
0
  2
DOT1
 70
     0
 10
0.0
 20
0.0
 30
0.0
  3
DOT1
  1

  0
CIRCLE
  8
SIZE
  6
CONTINUOUS
 62
     7
 10
0.0
 20
0.0
 30
0.0
 40
3.0
  0
ENDBLK
  8
0
  0
BLOCK
  8
0
  2
_ORIGIN
 70
     0
 10
0.0
 20
0.0
 30
0.0
  3
_ORIGIN
  1

  0
CIRCLE
  8
0
  6
CONTINUOUS
 62
     7
 10
0.0
 20
0.0
 30
0.0
 40
0.5
  0
LINE
  8
0
  6
CONTINUOUS
 62
     7
 10
0.0
 20
0.0
 30
0.0
 11
-1.0
 21
0.0
 31
0.0
  0
ENDBLK
  8
0
  0
ENDSEC
  0
SECTION
  2
ENTITIES
  0
TEXT
  8
ETC
  6
CONTINUOUS
 62
    61
 10
503.74911
 20
594.373163
 30
0.0
 40
40.0
  1
V-111BKA-RN_6
 41
0.9
  0
TEXT
  8
ETC
  6
CONTINUOUS
 62
    61
 10
505.938287
 20
535.807466
 30
0.0
 40
40.0
  1
換気扇
 41
0.9
  0
LINE
  8
DETAIL
  6
CONTINUOUS
 62
     5
 39
50.0
 10
61.0
 20
135.0
 30
0.0
 11
61.0
 21
0.0
 31
0.0
  0
LINE
  8
DETAIL
  6
CONTINUOUS
 62
     5
 39
50.0
 10
-61.0
 20
0.0
 30
0.0
 11
-61.0
 21
135.0
 31
0.0
  0
LINE
  8
DETAIL
  6
CONTINUOUS
 62
     5
 39
50.0
 10
-61.0
 20
135.0
 30
0.0
 11
61.0
 21
135.0
 31
0.0
  0
LINE
  8
DETAIL
  6
CONTINUOUS
 62
     5
 39
50.0
 10
-249.0
 20
-28.0
 30
0.0
 11
-182.448622
 21
-28.0
 31
0.0
  0
LINE
  8
DETAIL
  6
CONTINUOUS
 62
     5
 39
50.0
 10
-249.0
 20
-28.0
 30
0.0
 11
-244.164287
 21
-170.16997
 31
0.0
  0
LINE
  8
DETAIL
  6
CONTINUOUS
 62
     5
 39
50.0
 10
249.0
 20
-28.0
 30
0.0
 11
244.164287
 21
-170.16997
 31
0.0
  0
LINE
  8
DETAIL
  6
CONTINUOUS
 62
     5
 39
50.0
 10
239.167177
 20
-175.0
 30
0.0
 11
-239.167177
 21
-175.0
 31
0.0
  0
ARC
  8
DETAIL
  6
CONTINUOUS
 62
     5
 39
50.0
 10
-239.167177
 20
-170.0
 30
0.0
 40
5.0
 50
181.948085
 51
270.0
  0
ARC
  8
DETAIL
  6
CONTINUOUS
 62
     5
 39
50.0
 10
239.167177
 20
-170.0
 30
0.0
 40
5.0
 50
270.0
 51
358.051915
  0
LINE
  8
DETAIL
  6
CONTINUOUS
 62
     5
 39
50.0
 10
-195.0
 20
0.0
 30
0.0
 11
195.0
 21
0.0
 31
0.0
  0
LINE
  8
DETAIL
  6
CONTINUOUS
 62
     5
 39
50.0
 10
195.0
 20
0.0
 30
0.0
 11
195.0
 21
-28.0
 31
0.0
  0
LINE
  8
DETAIL
  6
CONTINUOUS
 62
     5
 39
50.0
 10
-195.0
 20
-28.0
 30
0.0
 11
-195.0
 21
0.0
 31
0.0
  0
LINE
  8
DETAIL
  6
CONTINUOUS
 62
     5
 39
50.0
 10
-195.0
 20
-9.966022
 30
0.0
 11
195.0
 21
-9.966022
 31
0.0
  0
LINE
  8
DETAIL
  6
CONTINUOUS
 62
     5
 39
50.0
 10
124.0
 20
-12.0
 30
0.0
 11
124.0
 21
0.0
 31
0.0
  0
LINE
  8
DETAIL
  6
CONTINUOUS
 62
     5
 39
50.0
 10
-124.0
 20
-12.0
 30
0.0
 11
-124.0
 21
0.0
 31
0.0
  0
LINE
  8
DETAIL
  6
CONTINUOUS
 62
     5
 10
-75.333021
 20
140.885486
 30
0.0
 11
-82.333021
 21
140.885486
 31
0.0
  0
LINE
  8
DETAIL
  6
CONTINUOUS
 62
     5
 10
-75.333021
 20
0.0
 30
0.0
 11
-75.333021
 21
112.885486
 31
0.0
  0
LINE
  8
DETAIL
  6
CONTINUOUS
 62
     5
 10
-82.333021
 20
84.885486
 30
0.0
 11
-80.333021
 21
70.885486
 31
0.0
  0
LINE
  8
DETAIL
  6
CONTINUOUS
 62
     5
 10
-75.333021
 20
70.885486
 30
0.0
 11
-80.333021
 21
70.885486
 31
0.0
  0
LINE
  8
DETAIL
  6
CONTINUOUS
 62
     5
 10
-75.333021
 20
70.885486
 30
0.0
 11
-80.333021
 21
70.885486
 31
0.0
  0
LINE
  8
DETAIL
  6
CONTINUOUS
 62
     5
 10
-75.333021
 20
56.885486
 30
0.0
 11
-82.333021
 21
56.885486
 31
0.0
  0
LINE
  8
DETAIL
  6
CONTINUOUS
 62
     5
 10
-82.333021
 20
56.885486
 30
0.0
 11
-80.333021
 21
42.885486
 31
0.0
  0
LINE
  8
DETAIL
  6
CONTINUOUS
 62
     5
 10
-78.333021
 20
70.885486
 30
0.0
 11
-80.333021
 21
56.885486
 31
0.0
  0
LINE
  8
DETAIL
  6
CONTINUOUS
 62
     5
 10
-82.333021
 20
140.885486
 30
0.0
 11
-80.333021
 21
126.885486
 31
0.0
  0
LINE
  8
DETAIL
  6
CONTINUOUS
 62
     5
 10
-75.333021
 20
126.885486
 30
0.0
 11
-80.333021
 21
126.885486
 31
0.0
  0
LINE
  8
DETAIL
  6
CONTINUOUS
 62
     5
 10
-75.333021
 20
84.885486
 30
0.0
 11
-82.333021
 21
84.885486
 31
0.0
  0
LINE
  8
DETAIL
  6
CONTINUOUS
 62
     5
 10
-75.333021
 20
112.885486
 30
0.0
 11
-82.333021
 21
112.885486
 31
0.0
  0
LINE
  8
DETAIL
  6
CONTINUOUS
 62
     5
 10
-78.333021
 20
98.885486
 30
0.0
 11
-80.333021
 21
84.885486
 31
0.0
  0
LINE
  8
DETAIL
  6
CONTINUOUS
 62
     5
 10
-75.333021
 20
98.885486
 30
0.0
 11
-80.333021
 21
98.885486
 31
0.0
  0
LINE
  8
DETAIL
  6
CONTINUOUS
 62
     5
 10
-82.333021
 20
112.885486
 30
0.0
 11
-80.333021
 21
98.885486
 31
0.0
  0
LINE
  8
DETAIL
  6
CONTINUOUS
 62
     5
 10
-75.333021
 20
112.885486
 30
0.0
 11
-75.333021
 21
140.885486
 31
0.0
  0
LINE
  8
DETAIL
  6
CONTINUOUS
 62
     5
 10
-78.333021
 20
126.885486
 30
0.0
 11
-80.333021
 21
112.885486
 31
0.0
  0
LINE
  8
DETAIL
  6
CONTINUOUS
 62
     5
 10
-75.333021
 20
42.885486
 30
0.0
 11
-80.333021
 21
42.885486
 31
0.0
  0
LINE
  8
DETAIL
  6
CONTINUOUS
 62
     5
 10
-75.333021
 20
42.885486
 30
0.0
 11
-80.333021
 21
42.885486
 31
0.0
  0
LINE
  8
DETAIL
  6
CONTINUOUS
 62
     5
 10
-82.333021
 20
28.885486
 30
0.0
 11
-80.333021
 21
14.885486
 31
0.0
  0
LINE
  8
DETAIL
  6
CONTINUOUS
 62
     5
 10
-75.333021
 20
28.885486
 30
0.0
 11
-82.333021
 21
28.885486
 31
0.0
  0
LINE
  8
DETAIL
  6
CONTINUOUS
 62
     5
 10
-78.333021
 20
42.885486
 30
0.0
 11
-80.333021
 21
28.885486
 31
0.0
  0
LINE
  8
DETAIL
  6
CONTINUOUS
 62
     5
 10
-75.333021
 20
42.885486
 30
0.0
 11
-80.333021
 21
42.885486
 31
0.0
  0
LINE
  8
DETAIL
  6
CONTINUOUS
 62
     5
 10
-75.333021
 20
14.885486
 30
0.0
 11
-80.333021
 21
14.885486
 31
0.0
  0
LINE
  8
DETAIL
  6
CONTINUOUS
 62
     5
 10
-78.333021
 20
14.885486
 30
0.0
 11
-80.333021
 21
0.885485
 31
0.0
  0
LINE
  8
DETAIL
  6
CONTINUOUS
 62
     5
 10
-80.333021
 20
0.885485
 30
0.0
 11
-75.333021
 21
0.0
 31
0.0
  0
LINE
  8
SIZE
  6
CONTINUOUS
 62
    30
 10
61.0
 20
155.0
 30
0.0
 11
61.0
 21
240.226362
 31
0.0
  0
LINE
  8
SIZE
  6
CONTINUOUS
 62
    30
 10
-61.0
 20
155.0
 30
0.0
 11
-61.0
 21
240.226362
 31
0.0
  0
LINE
  8
SIZE
  6
CONTINUOUS
 62
    30
 10
49.0
 20
220.226362
 30
0.0
 11
-49.0
 21
220.226362
 31
0.0
  0
TEXT
  8
SIZE
  6
CONTINUOUS
 62
    30
 10
-109.152
 20
266.073982
 30
0.0
 40
64.0
  1
φ122
 50
0.0
 41
0.9
 51
0.0
  7
STANDARD
 71
     0
 72
     1
 11
0.0
 21
266.073982
 31
0.0
210
0.0
220
0.0
230
1.0
  0
CIRCLE
  8
SIZE
  6
CONTINUOUS
 62
    30
 10
61.0
 20
220.226362
 30
0.0
 40
6.0
  0
LINE
  8
SIZE
  6
CONTINUOUS
 62
    30
 10
61.0
 20
220.226362
 30
0.0
 11
49.0
 21
220.226362
 31
0.0
  0
CIRCLE
  8
SIZE
  6
CONTINUOUS
 62
    30
 10
-61.0
 20
220.226362
 30
0.0
 40
6.0
  0
LINE
  8
SIZE
  6
CONTINUOUS
 62
    30
 10
-61.0
 20
220.226362
 30
0.0
 11
-49.0
 21
220.226362
 31
0.0
  0
POINT
  8
DEFPOINTS
  6
CONTINUOUS
 62
    30
 10
61.0
 20
135.0
 30
0.0
  0
POINT
  8
DEFPOINTS
  6
CONTINUOUS
 62
    30
 10
-61.0
 20
135.0
 30
0.0
  0
POINT
  8
DEFPOINTS
  6
CONTINUOUS
 62
    30
 10
-61.0
 20
220.226362
 30
0.0
  0
LINE
  8
SIZE
  6
CONTINUOUS
 62
    30
 10
-124.0
 20
20.0
 30
0.0
 11
-124.0
 21
402.123848
 31
0.0
  0
LINE
  8
SIZE
  6
CONTINUOUS
 62
    30
 10
124.0
 20
20.0
 30
0.0
 11
124.0
 21
402.123848
 31
0.0
  0
LINE
  8
SIZE
  6
CONTINUOUS
 62
    30
 10
-112.0
 20
382.123848
 30
0.0
 11
112.0
 21
382.123848
 31
0.0
  0
TEXT
  8
SIZE
  6
CONTINUOUS
 62
    30
 10
-80.928
 20
407.123848
 30
0.0
 40
64.0
  1
248
 50
0.0
 41
0.9
 51
0.0
  7
STANDARD
 71
     0
 72
     1
 11
0.0
 21
407.123848
 31
0.0
210
0.0
220
0.0
230
1.0
  0
CIRCLE
  8
SIZE
  6
CONTINUOUS
 62
    30
 10
-124.0
 20
382.123848
 30
0.0
 40
6.0
  0
LINE
  8
SIZE
  6
CONTINUOUS
 62
    30
 10
-124.0
 20
382.123848
 30
0.0
 11
-112.0
 21
382.123848
 31
0.0
  0
CIRCLE
  8
SIZE
  6
CONTINUOUS
 62
    30
 10
124.0
 20
382.123848
 30
0.0
 40
6.0
  0
LINE
  8
SIZE
  6
CONTINUOUS
 62
    30
 10
124.0
 20
382.123848
 30
0.0
 11
112.0
 21
382.123848
 31
0.0
  0
POINT
  8
DEFPOINTS
  6
CONTINUOUS
 62
    30
 10
-124.0
 20
0.0
 30
0.0
  0
POINT
  8
DEFPOINTS
  6
CONTINUOUS
 62
    30
 10
124.0
 20
0.0
 30
0.0
  0
POINT
  8
DEFPOINTS
  6
CONTINUOUS
 62
    30
 10
124.0
 20
382.123848
 30
0.0
  0
LINE
  8
SIZE
  6
CONTINUOUS
 62
    30
 10
-249.0
 20
-8.0
 30
0.0
 11
-249.0
 21
583.715552
 31
0.0
  0
LINE
  8
SIZE
  6
CONTINUOUS
 62
    30
 10
249.0
 20
-8.0
 30
0.0
 11
249.0
 21
583.715552
 31
0.0
  0
LINE
  8
SIZE
  6
CONTINUOUS
 62
    30
 10
-237.0
 20
563.715552
 30
0.0
 11
237.0
 21
563.715552
 31
0.0
  0
CIRCLE
  8
SIZE
  6
CONTINUOUS
 62
    30
 10
-249.0
 20
563.715552
 30
0.0
 40
6.0
  0
LINE
  8
SIZE
  6
CONTINUOUS
 62
    30
 10
-249.0
 20
563.715552
 30
0.0
 11
-237.0
 21
563.715552
 31
0.0
  0
CIRCLE
  8
SIZE
  6
CONTINUOUS
 62
    30
 10
249.0
 20
563.715552
 30
0.0
 40
6.0
  0
LINE
  8
SIZE
  6
CONTINUOUS
 62
    30
 10
249.0
 20
563.715552
 30
0.0
 11
237.0
 21
563.715552
 31
0.0
  0
TEXT
  8
SIZE
  6
CONTINUOUS
 62
    30
 10
-80.928
 20
588.715552
 30
0.0
 40
64.0
  1
498
 50
0.0
 41
0.9
 51
0.0
  7
STANDARD
 71
     0
 72
     1
 11
0.0
 21
588.715552
 31
0.0
210
0.0
220
0.0
230
1.0
  0
POINT
  8
DEFPOINTS
  6
CONTINUOUS
 62
    30
 10
-249.0
 20
-28.0
 30
0.0
  0
POINT
  8
DEFPOINTS
  6
CONTINUOUS
 62
    30
 10
249.0
 20
-28.0
 30
0.0
  0
POINT
  8
DEFPOINTS
  6
CONTINUOUS
 62
    30
 10
249.0
 20
563.715552
 30
0.0
  0
LINE
  8
SIZE
  6
CONTINUOUS
 62
    30
 10
-215.0
 20
0.0
 30
0.0
 11
-562.689771
 21
0.0
 31
0.0
  0
LINE
  8
SIZE
  6
CONTINUOUS
 62
    30
 10
-259.167177
 20
-175.0
 30
0.0
 11
-562.689771
 21
-175.0
 31
0.0
  0
LINE
  8
SIZE
  6
CONTINUOUS
 62
    30
 10
-542.689771
 20
12.0
 30
0.0
 11
-542.689771
 21
24.0
 31
0.0
  0
LINE
  8
SIZE
  6
CONTINUOUS
 62
    30
 10
-542.689771
 20
-187.0
 30
0.0
 11
-542.689771
 21
-199.0
 31
0.0
  0
LINE
  8
SIZE
  6
CONTINUOUS
 62
    30
 10
-542.689771
 20
0.0
 30
0.0
 11
-542.689771
 21
-175.0
 31
0.0
  0
CIRCLE
  8
SIZE
  6
CONTINUOUS
 62
    30
 10
-542.689771
 20
0.0
 30
0.0
 40
6.0
  0
LINE
  8
SIZE
  6
CONTINUOUS
 62
    30
 10
-542.689771
 20
0.0
 30
0.0
 11
-542.689771
 21
12.0
 31
0.0
  0
CIRCLE
  8
SIZE
  6
CONTINUOUS
 62
    30
 10
-542.689771
 20
-175.0
 30
0.0
 40
6.0
  0
LINE
  8
SIZE
  6
CONTINUOUS
 62
    30
 10
-542.689771
 20
-175.0
 30
0.0
 11
-542.689771
 21
-187.0
 31
0.0
  0
TEXT
  8
SIZE
  6
CONTINUOUS
 62
    30
 10
-567.689771
 20
-162.092
 30
0.0
 40
64.0
  1
175
 50
90.0
 41
0.9
 51
0.0
  7
STANDARD
 71
     0
 72
     1
 11
-567.689771
 21
-87.5
 31
0.0
210
0.0
220
0.0
230
1.0
  0
POINT
  8
DEFPOINTS
  6
CONTINUOUS
 62
    30
 10
-195.0
 20
0.0
 30
0.0
  0
POINT
  8
DEFPOINTS
  6
CONTINUOUS
 62
    30
 10
-239.167177
 20
-175.0
 30
0.0
  0
POINT
  8
DEFPOINTS
  6
CONTINUOUS
 62
    30
 10
-542.689771
 20
-175.0
 30
0.0
  0
LINE
  8
SIZE
  6
CONTINUOUS
 62
    30
 10
-81.0
 20
135.0
 30
0.0
 11
-710.341503
 21
135.0
 31
0.0
  0
LINE
  8
SIZE
  6
CONTINUOUS
 62
    30
 10
-81.0
 20
0.0
 30
0.0
 11
-710.341503
 21
0.0
 31
0.0
  0
LINE
  8
SIZE
  6
CONTINUOUS
 62
    30
 10
-690.341503
 20
123.0
 30
0.0
 11
-690.341503
 21
12.0
 31
0.0
  0
LINE
  8
SIZE
  6
CONTINUOUS
 62
    30
 10
-690.341503
 20
-507.313193
 30
0.0
 11
-690.341503
 21
0.0
 31
0.0
  0
TEXT
  8
SIZE
  6
CONTINUOUS
 62
    30
 10
-732.103407
 20
-487.113193
 30
0.0
 40
64.0
  1
135(～185)
 50
90.0
 41
0.9
 51
0.0
  7
STANDARD
 71
     0
 72
     1
 11
-732.103407
 21
-265.353193
 31
0.0
210
0.0
220
0.0
230
1.0
  0
CIRCLE
  8
SIZE
  6
CONTINUOUS
 62
    30
 10
-690.341503
 20
135.0
 30
0.0
 40
6.0
  0
LINE
  8
SIZE
  6
CONTINUOUS
 62
    30
 10
-690.341503
 20
135.0
 30
0.0
 11
-690.341503
 21
123.0
 31
0.0
  0
CIRCLE
  8
SIZE
  6
CONTINUOUS
 62
    30
 10
-690.341503
 20
0.0
 30
0.0
 40
6.0
  0
LINE
  8
SIZE
  6
CONTINUOUS
 62
    30
 10
-690.341503
 20
0.0
 30
0.0
 11
-690.341503
 21
12.0
 31
0.0
  0
POINT
  8
DEFPOINTS
  6
CONTINUOUS
 62
    30
 10
-61.0
 20
135.0
 30
0.0
  0
POINT
  8
DEFPOINTS
  6
CONTINUOUS
 62
    30
 10
-61.0
 20
0.0
 30
0.0
  0
POINT
  8
DEFPOINTS
  6
CONTINUOUS
 62
    30
 10
-690.341503
 20
0.0
 30
0.0
  0
TEXT
  8
NOTE
  6
CONTINUOUS
 62
     4
 10
-602.734512
 20
-335.055507
 30
0.0
 40
64.0
  1
壁
 50
90.0
 41
0.9
  0
TEXT
  8
NOTE
  6
CONTINUOUS
 62
     4
 10
-993.066851
 20
515.330348
 30
0.0
 40
64.0
  1
落下防止用チェーン
 41
0.9
  0
LINE
  8
NOTE
  6
CONTINUOUS
 62
     4
 39
50.0
 10
-993.066851
 20
481.931331
 30
0.0
 11
-386.010503
 21
481.931331
 31
0.0
  0
LINE
  8
NOTE
  6
CONTINUOUS
 62
     4
 39
50.0
 10
-386.010503
 20
481.931331
 30
0.0
 11
-82.333021
 21
140.885486
 31
0.0
  0
LINE
  8
NOTE
  6
CONTINUOUS
 62
     4
 10
-115.21163
 20
163.666994
 30
0.0
 11
-82.333021
 21
140.885486
 31
0.0
  0
LINE
  8
NOTE
  6
CONTINUOUS
 62
     4
 10
-82.333021
 20
140.885486
 30
0.0
 11
-99.415978
 21
177.054155
 31
0.0
  0
CIRCLE
  8
FIX
  6
CONTINUOUS
 62
    11
 39
50.0
 10
89.747231
 20
0.0
 30
0.0
 40
2.5
  0
CIRCLE
  8
FIX
  6
CONTINUOUS
 62
    11
 39
50.0
 10
99.747231
 20
0.0
 30
0.0
 40
2.5
  0
CIRCLE
  8
FIX
  6
CONTINUOUS
 62
    11
 39
50.0
 10
109.747231
 20
0.0
 30
0.0
 40
2.5
  0
CIRCLE
  8
FIX
  6
CONTINUOUS
 62
    11
 39
50.0
 10
119.747231
 20
0.0
 30
0.0
 40
2.5
  0
LINE
  8
NOTE
  6
CONTINUOUS
 62
     4
 10
89.747231
 20
-20.0
 30
0.0
 11
89.747231
 21
20.0
 31
0.0
  0
LINE
  8
NOTE
  6
CONTINUOUS
 62
     4
 10
69.747231
 20
0.0
 30
0.0
 11
109.747231
 21
0.0
 31
0.0
  0
LINE
  8
NOTE
  6
CONTINUOUS
 62
     4
 10
99.747231
 20
-20.0
 30
0.0
 11
99.747231
 21
20.0
 31
0.0
  0
LINE
  8
NOTE
  6
CONTINUOUS
 62
     4
 10
79.747231
 20
0.0
 30
0.0
 11
119.747231
 21
0.0
 31
0.0
  0
LINE
  8
NOTE
  6
CONTINUOUS
 62
     4
 10
109.747231
 20
-20.0
 30
0.0
 11
109.747231
 21
20.0
 31
0.0
  0
LINE
  8
NOTE
  6
CONTINUOUS
 62
     4
 10
89.747231
 20
0.0
 30
0.0
 11
129.747231
 21
0.0
 31
0.0
  0
LINE
  8
NOTE
  6
CONTINUOUS
 62
     4
 10
119.747231
 20
-20.0
 30
0.0
 11
119.747231
 21
20.0
 31
0.0
  0
LINE
  8
NOTE
  6
CONTINUOUS
 62
     4
 10
99.747231
 20
0.0
 30
0.0
 11
139.747231
 21
0.0
 31
0.0
  0
CIRCLE
  8
FIX
  6
CONTINUOUS
 62
    11
 39
50.0
 10
-117.5
 20
0.0
 30
0.0
 40
2.5
  0
CIRCLE
  8
FIX
  6
CONTINUOUS
 62
    11
 39
50.0
 10
-107.5
 20
0.0
 30
0.0
 40
2.5
  0
CIRCLE
  8
FIX
  6
CONTINUOUS
 62
    11
 39
50.0
 10
-97.5
 20
0.0
 30
0.0
 40
2.5
  0
CIRCLE
  8
FIX
  6
CONTINUOUS
 62
    11
 39
50.0
 10
-87.5
 20
0.0
 30
0.0
 40
2.5
  0
LINE
  8
NOTE
  6
CONTINUOUS
 62
     4
 10
-117.5
 20
-20.0
 30
0.0
 11
-117.5
 21
20.0
 31
0.0
  0
LINE
  8
NOTE
  6
CONTINUOUS
 62
     4
 10
-137.5
 20
0.0
 30
0.0
 11
-97.5
 21
0.0
 31
0.0
  0
LINE
  8
NOTE
  6
CONTINUOUS
 62
     4
 10
-107.5
 20
-20.0
 30
0.0
 11
-107.5
 21
20.0
 31
0.0
  0
LINE
  8
NOTE
  6
CONTINUOUS
 62
     4
 10
-127.5
 20
0.0
 30
0.0
 11
-87.5
 21
0.0
 31
0.0
  0
LINE
  8
NOTE
  6
CONTINUOUS
 62
     4
 10
-97.5
 20
-20.0
 30
0.0
 11
-97.5
 21
20.0
 31
0.0
  0
LINE
  8
NOTE
  6
CONTINUOUS
 62
     4
 10
-117.5
 20
0.0
 30
0.0
 11
-77.5
 21
0.0
 31
0.0
  0
LINE
  8
NOTE
  6
CONTINUOUS
 62
     4
 10
-87.5
 20
-20.0
 30
0.0
 11
-87.5
 21
20.0
 31
0.0
  0
LINE
  8
NOTE
  6
CONTINUOUS
 62
     4
 10
-107.5
 20
0.0
 30
0.0
 11
-67.5
 21
0.0
 31
0.0
  0
LINE
  8
NOTE
  6
CONTINUOUS
 62
     4
 10
-67.5
 20
-20.0
 30
0.0
 11
-67.5
 21
20.0
 31
0.0
  0
LINE
  8
NOTE
  6
CONTINUOUS
 62
     4
 10
-87.5
 20
0.0
 30
0.0
 11
-47.5
 21
0.0
 31
0.0
  0
LINE
  8
NOTE
  6
CONTINUOUS
 62
     4
 10
69.747231
 20
-20.0
 30
0.0
 11
69.747231
 21
20.0
 31
0.0
  0
LINE
  8
NOTE
  6
CONTINUOUS
 62
     4
 10
49.747231
 20
0.0
 30
0.0
 11
89.747231
 21
0.0
 31
0.0
  0
LINE
  8
NOTE
  6
CONTINUOUS
 62
     4
 10
87.832691
 20
35.67795
 30
0.0
 11
69.747231
 21
0.0
 31
0.0
  0
LINE
  8
NOTE
  6
CONTINUOUS
 62
     4
 10
69.747231
 20
0.0
 30
0.0
 11
103.248674
 21
21.855281
 31
0.0
  0
TEXT
  8
NOTE
  6
CONTINUOUS
 62
     4
 10
359.428892
 20
329.087874
 30
0.0
 40
64.0
  1
EL(電源コード出し穴)
 41
0.9
  0
LINE
  8
NOTE
  6
CONTINUOUS
 62
     4
 39
50.0
 10
340.820195
 20
287.023054
 30
0.0
 11
1078.30814
 21
287.023054
 31
0.0
  0
LINE
  8
NOTE
  6
CONTINUOUS
 62
     4
 39
50.0
 10
340.820195
 20
287.023054
 30
0.0
 11
69.747231
 21
0.0
 31
0.0
  0
LINE
  8
NOTE
  6
CONTINUOUS
 62
     4
 39
50.0
 10
340.820195
 20
287.023054
 30
0.0
 11
-67.5
 21
0.0
 31
0.0
  0
LINE
  8
NOTE
  6
CONTINUOUS
 62
     4
 10
-43.085277
 20
31.684717
 30
0.0
 11
-67.5
 21
0.0
 31
0.0
  0
LINE
  8
NOTE
  6
CONTINUOUS
 62
     4
 10
-67.5
 20
0.0
 30
0.0
 11
-30.513871
 21
15.232408
 31
0.0
  0
LINE
  8
OUTLINE
  6
CONTINUOUS
 62
     3
 39
50.0
 10
-61.0
 20
135.0
 30
0.0
 11
-61.0
 21
0.0
 31
0.0
  0
LINE
  8
OUTLINE
  6
CONTINUOUS
 62
     3
 39
50.0
 10
-61.0
 20
0.0
 30
0.0
 11
-195.0
 21
0.0
 31
0.0
  0
LINE
  8
OUTLINE
  6
CONTINUOUS
 62
     3
 39
50.0
 10
-195.0
 20
0.0
 30
0.0
 11
-195.0
 21
-28.0
 31
0.0
  0
LINE
  8
OUTLINE
  6
CONTINUOUS
 62
     3
 39
50.0
 10
-195.0
 20
-28.0
 30
0.0
 11
-248.937598
 21
-28.0
 31
0.0
  0
LINE
  8
OUTLINE
  6
CONTINUOUS
 62
     3
 39
50.0
 10
-249.0
 20
-28.0
 30
0.0
 11
-244.164287
 21
-170.16997
 31
0.0
  0
LINE
  8
OUTLINE
  6
CONTINUOUS
 62
     3
 39
50.0
 10
-244.164287
 20
-170.16997
 30
0.0
 11
-242.642098
 21
-173.595125
 31
0.0
  0
LINE
  8
OUTLINE
  6
CONTINUOUS
 62
     3
 39
50.0
 10
-242.642098
 20
-173.595125
 30
0.0
 11
-239.167177
 21
-175.0
 31
0.0
  0
LINE
  8
OUTLINE
  6
CONTINUOUS
 62
     3
 39
50.0
 10
-239.167177
 20
-175.0
 30
0.0
 11
239.167177
 21
-175.0
 31
0.0
  0
LINE
  8
OUTLINE
  6
CONTINUOUS
 62
     3
 39
50.0
 10
239.167177
 20
-175.0
 30
0.0
 11
242.642098
 21
-173.595125
 31
0.0
  0
LINE
  8
OUTLINE
  6
CONTINUOUS
 62
     3
 39
50.0
 10
242.642098
 20
-173.595125
 30
0.0
 11
244.164287
 21
-170.16997
 31
0.0
  0
LINE
  8
OUTLINE
  6
CONTINUOUS
 62
     3
 39
50.0
 10
244.164287
 20
-170.16997
 30
0.0
 11
249.0
 21
-28.0
 31
0.0
  0
LINE
  8
OUTLINE
  6
CONTINUOUS
 62
     3
 39
50.0
 10
249.0
 20
-28.0
 30
0.0
 11
195.0
 21
-28.0
 31
0.0
  0
LINE
  8
OUTLINE
  6
CONTINUOUS
 62
     3
 39
50.0
 10
195.0
 20
-28.0
 30
0.0
 11
195.0
 21
0.0
 31
0.0
  0
LINE
  8
OUTLINE
  6
CONTINUOUS
 62
     3
 39
50.0
 10
195.0
 20
0.0
 30
0.0
 11
61.0
 21
0.0
 31
0.0
  0
LINE
  8
OUTLINE
  6
CONTINUOUS
 62
     3
 39
50.0
 10
61.0
 20
0.0
 30
0.0
 11
61.0
 21
135.0
 31
0.0
  0
LINE
  8
OUTLINE
  6
CONTINUOUS
 62
     3
 39
50.0
 10
61.0
 20
135.0
 30
0.0
 11
-61.0
 21
135.0
 31
0.0
  0
CIRCLE
  8
ARRANGE
  6
CONTINUOUS
 62
     1
 39
50.0
 10
0.0
 20
0.0
 30
0.0
 40
40.0
  0
POINT
  8
ARRANGE
  6
CONTINUOUS
 62
     1
 10
0.0
 20
0.0
 30
0.0
 39
50.0
  0
LINE
  8
BASIS
  6
DASHDOT
 62
     6
 39
50.0
 10
0.0
 20
22.429513
 30
0.0
 11
0.0
 21
-432.848835
 31
0.0
  0
TEXT
  8
NOTE
  6
CONTINUOUS
 62
     4
 10
323.344585
 20
122.073509
 30
0.0
 40
64.0
  1
62×φ5
 41
0.9
  0
LINE
  8
NOTE
  6
CONTINUOUS
 62
     4
 39
50.0
 10
321.423155
 20
102.868968
 30
0.0
 11
613.480156
 21
102.868968
 31
0.0
  0
LINE
  8
NOTE
  6
CONTINUOUS
 62
     4
 10
148.645739
 20
27.656396
 30
0.0
 11
119.747231
 21
0.0
 31
0.0
  0
LINE
  8
NOTE
  6
CONTINUOUS
 62
     4
 10
119.747231
 20
0.0
 30
0.0
 11
158.602271
 21
9.501888
 31
0.0
  0
LINE
  8
NOTE
  6
CONTINUOUS
 62
     4
 39
50.0
 10
119.747231
 20
0.0
 30
0.0
 11
321.423155
 21
102.868968
 31
0.0
  0
LINE
  8
DETAIL
  6
CONTINUOUS
 62
     5
 10
169.028088
 20
-54.903055
 30
0.0
 11
179.905784
 21
-54.903055
 31
0.0
  0
LINE
  8
DETAIL
  6
CONTINUOUS
 62
     5
 10
169.028088
 20
-54.357235
 30
0.0
 11
179.905784
 21
-54.357235
 31
0.0
  0
LINE
  8
DETAIL
  6
CONTINUOUS
 62
     5
 10
169.028088
 20
-52.955924
 30
0.0
 11
179.905784
 21
-52.955924
 31
0.0
  0
LINE
  8
DETAIL
  6
CONTINUOUS
 62
     5
 10
179.905784
 20
-52.784024
 30
0.0
 11
169.028088
 21
-52.784024
 31
0.0
  0
LINE
  8
DETAIL
  6
CONTINUOUS
 62
     5
 10
179.905784
 20
-42.602698
 30
0.0
 11
169.028088
 21
-42.602698
 31
0.0
  0
LINE
  8
DETAIL
  6
CONTINUOUS
 62
     5
 10
170.228873
 20
-52.955924
 30
0.0
 11
170.228873
 21
-52.784024
 31
0.0
  0
LINE
  8
DETAIL
  6
CONTINUOUS
 62
     5
 10
169.028088
 20
-98.220724
 30
0.0
 11
179.905784
 21
-98.220724
 31
0.0
  0
LINE
  8
DETAIL
  6
CONTINUOUS
 62
     5
 10
169.028088
 20
-87.0117
 30
0.0
 11
179.905784
 21
-87.0117
 31
0.0
  0
LINE
  8
DETAIL
  6
CONTINUOUS
 62
     5
 10
169.028088
 20
-80.138453
 30
0.0
 11
179.905784
 21
-80.138453
 31
0.0
  0
LINE
  8
DETAIL
  6
CONTINUOUS
 62
     5
 10
169.028088
 20
-65.305232
 30
0.0
 11
179.905784
 21
-65.305232
 31
0.0
  0
LINE
  8
DETAIL
  6
CONTINUOUS
 62
     5
 10
142.187021
 20
-54.903055
 30
0.0
 11
153.064717
 21
-54.903055
 31
0.0
  0
LINE
  8
DETAIL
  6
CONTINUOUS
 62
     5
 10
142.187021
 20
-54.357235
 30
0.0
 11
153.064717
 21
-54.357235
 31
0.0
  0
LINE
  8
DETAIL
  6
CONTINUOUS
 62
     5
 10
142.187021
 20
-52.955924
 30
0.0
 11
153.064717
 21
-52.955924
 31
0.0
  0
LINE
  8
DETAIL
  6
CONTINUOUS
 62
     5
 10
153.064717
 20
-52.784024
 30
0.0
 11
142.187021
 21
-52.784024
 31
0.0
  0
LINE
  8
DETAIL
  6
CONTINUOUS
 62
     5
 10
153.064717
 20
-42.602698
 30
0.0
 11
142.187021
 21
-42.602698
 31
0.0
  0
LINE
  8
DETAIL
  6
CONTINUOUS
 62
     5
 10
115.345954
 20
-54.903055
 30
0.0
 11
126.22365
 21
-54.903055
 31
0.0
  0
LINE
  8
DETAIL
  6
CONTINUOUS
 62
     5
 10
115.345954
 20
-54.357235
 30
0.0
 11
126.22365
 21
-54.357235
 31
0.0
  0
LINE
  8
DETAIL
  6
CONTINUOUS
 62
     5
 10
115.345954
 20
-52.955924
 30
0.0
 11
126.22365
 21
-52.955924
 31
0.0
  0
LINE
  8
DETAIL
  6
CONTINUOUS
 62
     5
 10
126.22365
 20
-52.784024
 30
0.0
 11
115.345954
 21
-52.784024
 31
0.0
  0
LINE
  8
DETAIL
  6
CONTINUOUS
 62
     5
 10
126.22365
 20
-42.602698
 30
0.0
 11
115.345954
 21
-42.602698
 31
0.0
  0
LINE
  8
DETAIL
  6
CONTINUOUS
 62
     5
 10
128.766488
 20
-54.903055
 30
0.0
 11
139.644183
 21
-54.903055
 31
0.0
  0
LINE
  8
DETAIL
  6
CONTINUOUS
 62
     5
 10
128.766488
 20
-54.357235
 30
0.0
 11
139.644183
 21
-54.357235
 31
0.0
  0
LINE
  8
DETAIL
  6
CONTINUOUS
 62
     5
 10
128.766488
 20
-52.955924
 30
0.0
 11
139.644183
 21
-52.955924
 31
0.0
  0
LINE
  8
DETAIL
  6
CONTINUOUS
 62
     5
 10
139.644183
 20
-52.784024
 30
0.0
 11
128.766488
 21
-52.784024
 31
0.0
  0
LINE
  8
DETAIL
  6
CONTINUOUS
 62
     5
 10
139.644183
 20
-42.602698
 30
0.0
 11
128.766488
 21
-42.602698
 31
0.0
  0
LINE
  8
DETAIL
  6
CONTINUOUS
 62
     5
 10
142.187021
 20
-98.220724
 30
0.0
 11
153.064717
 21
-98.220724
 31
0.0
  0
LINE
  8
DETAIL
  6
CONTINUOUS
 62
     5
 10
142.187021
 20
-87.0117
 30
0.0
 11
153.064717
 21
-87.0117
 31
0.0
  0
LINE
  8
DETAIL
  6
CONTINUOUS
 62
     5
 10
142.187021
 20
-80.138453
 30
0.0
 11
153.064717
 21
-80.138453
 31
0.0
  0
LINE
  8
DETAIL
  6
CONTINUOUS
 62
     5
 10
142.187021
 20
-65.305232
 30
0.0
 11
153.064717
 21
-65.305232
 31
0.0
  0
LINE
  8
DETAIL
  6
CONTINUOUS
 62
     5
 10
115.345954
 20
-98.220724
 30
0.0
 11
126.22365
 21
-98.220724
 31
0.0
  0
LINE
  8
DETAIL
  6
CONTINUOUS
 62
     5
 10
115.345954
 20
-87.0117
 30
0.0
 11
126.22365
 21
-87.0117
 31
0.0
  0
LINE
  8
DETAIL
  6
CONTINUOUS
 62
     5
 10
115.345954
 20
-80.138453
 30
0.0
 11
126.22365
 21
-80.138453
 31
0.0
  0
LINE
  8
DETAIL
  6
CONTINUOUS
 62
     5
 10
115.345954
 20
-65.305232
 30
0.0
 11
126.22365
 21
-65.305232
 31
0.0
  0
LINE
  8
DETAIL
  6
CONTINUOUS
 62
     5
 10
128.766488
 20
-98.220724
 30
0.0
 11
139.644183
 21
-98.220724
 31
0.0
  0
LINE
  8
DETAIL
  6
CONTINUOUS
 62
     5
 10
128.766488
 20
-87.0117
 30
0.0
 11
139.644183
 21
-87.0117
 31
0.0
  0
LINE
  8
DETAIL
  6
CONTINUOUS
 62
     5
 10
128.766488
 20
-80.138453
 30
0.0
 11
139.644183
 21
-80.138453
 31
0.0
  0
LINE
  8
DETAIL
  6
CONTINUOUS
 62
     5
 10
128.766488
 20
-65.305232
 30
0.0
 11
139.644183
 21
-65.305232
 31
0.0
  0
LINE
  8
DETAIL
  6
CONTINUOUS
 62
     5
 10
155.607555
 20
-98.220724
 30
0.0
 11
166.48525
 21
-98.220724
 31
0.0
  0
LINE
  8
DETAIL
  6
CONTINUOUS
 62
     5
 10
155.607555
 20
-87.0117
 30
0.0
 11
166.48525
 21
-87.0117
 31
0.0
  0
LINE
  8
DETAIL
  6
CONTINUOUS
 62
     5
 10
155.607555
 20
-80.138453
 30
0.0
 11
166.48525
 21
-80.138453
 31
0.0
  0
LINE
  8
DETAIL
  6
CONTINUOUS
 62
     5
 10
155.607555
 20
-65.305232
 30
0.0
 11
166.48525
 21
-65.305232
 31
0.0
  0
LINE
  8
DETAIL
  6
CONTINUOUS
 62
     5
 10
155.607555
 20
-54.903055
 30
0.0
 11
166.48525
 21
-54.903055
 31
0.0
  0
LINE
  8
DETAIL
  6
CONTINUOUS
 62
     5
 10
155.607555
 20
-54.357235
 30
0.0
 11
166.48525
 21
-54.357235
 31
0.0
  0
LINE
  8
DETAIL
  6
CONTINUOUS
 62
     5
 10
155.607555
 20
-52.955924
 30
0.0
 11
166.48525
 21
-52.955924
 31
0.0
  0
LINE
  8
DETAIL
  6
CONTINUOUS
 62
     5
 10
166.48525
 20
-52.784024
 30
0.0
 11
155.607555
 21
-52.784024
 31
0.0
  0
LINE
  8
DETAIL
  6
CONTINUOUS
 62
     5
 10
166.48525
 20
-42.602698
 30
0.0
 11
155.607555
 21
-42.602698
 31
0.0
  0
LINE
  8
DETAIL
  6
CONTINUOUS
 62
     5
 10
95.356423
 20
-55.424679
 30
0.0
 11
88.504887
 21
-55.424679
 31
0.0
  0
LINE
  8
DETAIL
  6
CONTINUOUS
 62
     5
 10
85.962049
 20
-55.424679
 30
0.0
 11
81.229545
 21
-55.424679
 31
0.0
  0
LINE
  8
DETAIL
  6
CONTINUOUS
 62
     5
 10
95.356423
 20
-54.903055
 30
0.0
 11
99.382583
 21
-54.903055
 31
0.0
  0
LINE
  8
DETAIL
  6
CONTINUOUS
 62
     5
 10
95.356423
 20
-54.357235
 30
0.0
 11
99.382583
 21
-54.357235
 31
0.0
  0
LINE
  8
DETAIL
  6
CONTINUOUS
 62
     5
 10
95.356423
 20
-52.955924
 30
0.0
 11
99.382583
 21
-52.955924
 31
0.0
  0
LINE
  8
DETAIL
  6
CONTINUOUS
 62
     5
 10
99.382583
 20
-52.784024
 30
0.0
 11
95.356423
 21
-52.784024
 31
0.0
  0
LINE
  8
DETAIL
  6
CONTINUOUS
 62
     5
 10
99.382583
 20
-42.602698
 30
0.0
 11
88.504887
 21
-42.602698
 31
0.0
  0
LINE
  8
DETAIL
  6
CONTINUOUS
 62
     5
 10
81.229545
 20
-55.424648
 30
0.0
 11
81.229545
 21
-52.784024
 31
0.0
  0
LINE
  8
DETAIL
  6
CONTINUOUS
 62
     5
 10
95.356423
 20
-55.424663
 30
0.0
 11
95.356423
 21
-52.784024
 31
0.0
  0
LINE
  8
DETAIL
  6
CONTINUOUS
 62
     5
 10
61.66382
 20
-54.903055
 30
0.0
 11
72.541516
 21
-54.903055
 31
0.0
  0
LINE
  8
DETAIL
  6
CONTINUOUS
 62
     5
 10
61.66382
 20
-54.357235
 30
0.0
 11
72.541516
 21
-54.357235
 31
0.0
  0
LINE
  8
DETAIL
  6
CONTINUOUS
 62
     5
 10
61.66382
 20
-52.955924
 30
0.0
 11
72.541516
 21
-52.955924
 31
0.0
  0
LINE
  8
DETAIL
  6
CONTINUOUS
 62
     5
 10
72.541516
 20
-52.784024
 30
0.0
 11
61.66382
 21
-52.784024
 31
0.0
  0
LINE
  8
DETAIL
  6
CONTINUOUS
 62
     5
 10
72.541516
 20
-42.602698
 30
0.0
 11
61.66382
 21
-42.602698
 31
0.0
  0
LINE
  8
DETAIL
  6
CONTINUOUS
 62
     5
 10
75.084353
 20
-54.903055
 30
0.0
 11
81.229545
 21
-54.903055
 31
0.0
  0
LINE
  8
DETAIL
  6
CONTINUOUS
 62
     5
 10
75.084353
 20
-54.357235
 30
0.0
 11
81.229545
 21
-54.357235
 31
0.0
  0
LINE
  8
DETAIL
  6
CONTINUOUS
 62
     5
 10
75.084353
 20
-52.955924
 30
0.0
 11
81.229545
 21
-52.955924
 31
0.0
  0
LINE
  8
DETAIL
  6
CONTINUOUS
 62
     5
 10
81.229545
 20
-52.784024
 30
0.0
 11
75.084353
 21
-52.784024
 31
0.0
  0
LINE
  8
DETAIL
  6
CONTINUOUS
 62
     5
 10
85.962049
 20
-42.602698
 30
0.0
 11
75.084353
 21
-42.602698
 31
0.0
  0
LINE
  8
DETAIL
  6
CONTINUOUS
 62
     5
 10
88.504887
 20
-98.220724
 30
0.0
 11
99.382583
 21
-98.220724
 31
0.0
  0
LINE
  8
DETAIL
  6
CONTINUOUS
 62
     5
 10
88.504887
 20
-87.0117
 30
0.0
 11
99.382583
 21
-87.0117
 31
0.0
  0
LINE
  8
DETAIL
  6
CONTINUOUS
 62
     5
 10
88.504887
 20
-80.138453
 30
0.0
 11
99.382583
 21
-80.138453
 31
0.0
  0
LINE
  8
DETAIL
  6
CONTINUOUS
 62
     5
 10
88.504887
 20
-65.305232
 30
0.0
 11
99.382583
 21
-65.305232
 31
0.0
  0
LINE
  8
DETAIL
  6
CONTINUOUS
 62
     5
 10
61.66382
 20
-98.220724
 30
0.0
 11
72.541516
 21
-98.220724
 31
0.0
  0
LINE
  8
DETAIL
  6
CONTINUOUS
 62
     5
 10
61.66382
 20
-87.0117
 30
0.0
 11
72.541516
 21
-87.0117
 31
0.0
  0
LINE
  8
DETAIL
  6
CONTINUOUS
 62
     5
 10
61.66382
 20
-80.138453
 30
0.0
 11
72.541516
 21
-80.138453
 31
0.0
  0
LINE
  8
DETAIL
  6
CONTINUOUS
 62
     5
 10
61.66382
 20
-65.305232
 30
0.0
 11
72.541516
 21
-65.305232
 31
0.0
  0
LINE
  8
DETAIL
  6
CONTINUOUS
 62
     5
 10
75.084353
 20
-98.220724
 30
0.0
 11
85.962049
 21
-98.220724
 31
0.0
  0
LINE
  8
DETAIL
  6
CONTINUOUS
 62
     5
 10
75.084353
 20
-87.0117
 30
0.0
 11
85.962049
 21
-87.0117
 31
0.0
  0
LINE
  8
DETAIL
  6
CONTINUOUS
 62
     5
 10
75.084353
 20
-80.138453
 30
0.0
 11
85.962049
 21
-80.138453
 31
0.0
  0
LINE
  8
DETAIL
  6
CONTINUOUS
 62
     5
 10
75.084353
 20
-65.305232
 30
0.0
 11
85.962049
 21
-65.305232
 31
0.0
  0
LINE
  8
DETAIL
  6
CONTINUOUS
 62
     5
 10
34.822753
 20
-54.903055
 30
0.0
 11
45.700448
 21
-54.903055
 31
0.0
  0
LINE
  8
DETAIL
  6
CONTINUOUS
 62
     5
 10
34.822753
 20
-54.357235
 30
0.0
 11
45.700448
 21
-54.357235
 31
0.0
  0
LINE
  8
DETAIL
  6
CONTINUOUS
 62
     5
 10
34.822753
 20
-52.955924
 30
0.0
 11
45.700448
 21
-52.955924
 31
0.0
  0
LINE
  8
DETAIL
  6
CONTINUOUS
 62
     5
 10
45.700448
 20
-52.784024
 30
0.0
 11
34.822753
 21
-52.784024
 31
0.0
  0
LINE
  8
DETAIL
  6
CONTINUOUS
 62
     5
 10
45.700448
 20
-42.602698
 30
0.0
 11
34.822753
 21
-42.602698
 31
0.0
  0
LINE
  8
DETAIL
  6
CONTINUOUS
 62
     5
 10
7.981686
 20
-54.903055
 30
0.0
 11
18.859381
 21
-54.903055
 31
0.0
  0
LINE
  8
DETAIL
  6
CONTINUOUS
 62
     5
 10
7.981686
 20
-54.357235
 30
0.0
 11
18.859381
 21
-54.357235
 31
0.0
  0
LINE
  8
DETAIL
  6
CONTINUOUS
 62
     5
 10
7.981686
 20
-52.955924
 30
0.0
 11
18.859381
 21
-52.955924
 31
0.0
  0
LINE
  8
DETAIL
  6
CONTINUOUS
 62
     5
 10
18.859381
 20
-52.784024
 30
0.0
 11
7.981686
 21
-52.784024
 31
0.0
  0
LINE
  8
DETAIL
  6
CONTINUOUS
 62
     5
 10
18.859381
 20
-42.602698
 30
0.0
 11
7.981686
 21
-42.602698
 31
0.0
  0
LINE
  8
DETAIL
  6
CONTINUOUS
 62
     5
 10
21.402219
 20
-54.903055
 30
0.0
 11
32.279915
 21
-54.903055
 31
0.0
  0
LINE
  8
DETAIL
  6
CONTINUOUS
 62
     5
 10
21.402219
 20
-54.357235
 30
0.0
 11
32.279915
 21
-54.357235
 31
0.0
  0
LINE
  8
DETAIL
  6
CONTINUOUS
 62
     5
 10
21.402219
 20
-52.955924
 30
0.0
 11
32.279915
 21
-52.955924
 31
0.0
  0
LINE
  8
DETAIL
  6
CONTINUOUS
 62
     5
 10
32.279915
 20
-52.784024
 30
0.0
 11
21.402219
 21
-52.784024
 31
0.0
  0
LINE
  8
DETAIL
  6
CONTINUOUS
 62
     5
 10
32.279915
 20
-42.602698
 30
0.0
 11
21.402219
 21
-42.602698
 31
0.0
  0
LINE
  8
DETAIL
  6
CONTINUOUS
 62
     5
 10
34.822753
 20
-98.220724
 30
0.0
 11
45.700448
 21
-98.220724
 31
0.0
  0
LINE
  8
DETAIL
  6
CONTINUOUS
 62
     5
 10
34.822753
 20
-87.0117
 30
0.0
 11
45.700448
 21
-87.0117
 31
0.0
  0
LINE
  8
DETAIL
  6
CONTINUOUS
 62
     5
 10
34.822753
 20
-80.138453
 30
0.0
 11
45.700448
 21
-80.138453
 31
0.0
  0
LINE
  8
DETAIL
  6
CONTINUOUS
 62
     5
 10
34.822753
 20
-65.305232
 30
0.0
 11
45.700448
 21
-65.305232
 31
0.0
  0
LINE
  8
DETAIL
  6
CONTINUOUS
 62
     5
 10
7.981686
 20
-98.220724
 30
0.0
 11
18.859381
 21
-98.220724
 31
0.0
  0
LINE
  8
DETAIL
  6
CONTINUOUS
 62
     5
 10
7.981686
 20
-87.0117
 30
0.0
 11
18.859381
 21
-87.0117
 31
0.0
  0
LINE
  8
DETAIL
  6
CONTINUOUS
 62
     5
 10
7.981686
 20
-80.138453
 30
0.0
 11
18.859381
 21
-80.138453
 31
0.0
  0
LINE
  8
DETAIL
  6
CONTINUOUS
 62
     5
 10
7.981686
 20
-65.305232
 30
0.0
 11
18.859381
 21
-65.305232
 31
0.0
  0
LINE
  8
DETAIL
  6
CONTINUOUS
 62
     5
 10
21.402219
 20
-98.220724
 30
0.0
 11
32.279915
 21
-98.220724
 31
0.0
  0
LINE
  8
DETAIL
  6
CONTINUOUS
 62
     5
 10
21.402219
 20
-87.0117
 30
0.0
 11
32.279915
 21
-87.0117
 31
0.0
  0
LINE
  8
DETAIL
  6
CONTINUOUS
 62
     5
 10
21.402219
 20
-80.138453
 30
0.0
 11
32.279915
 21
-80.138453
 31
0.0
  0
LINE
  8
DETAIL
  6
CONTINUOUS
 62
     5
 10
21.402219
 20
-65.305232
 30
0.0
 11
32.279915
 21
-65.305232
 31
0.0
  0
LINE
  8
DETAIL
  6
CONTINUOUS
 62
     5
 10
48.243286
 20
-98.220724
 30
0.0
 11
59.120982
 21
-98.220724
 31
0.0
  0
LINE
  8
DETAIL
  6
CONTINUOUS
 62
     5
 10
48.243286
 20
-87.0117
 30
0.0
 11
59.120982
 21
-87.0117
 31
0.0
  0
LINE
  8
DETAIL
  6
CONTINUOUS
 62
     5
 10
48.243286
 20
-80.138453
 30
0.0
 11
59.120982
 21
-80.138453
 31
0.0
  0
LINE
  8
DETAIL
  6
CONTINUOUS
 62
     5
 10
48.243286
 20
-65.305232
 30
0.0
 11
59.120982
 21
-65.305232
 31
0.0
  0
LINE
  8
DETAIL
  6
CONTINUOUS
 62
     5
 10
48.243286
 20
-54.903055
 30
0.0
 11
59.120982
 21
-54.903055
 31
0.0
  0
LINE
  8
DETAIL
  6
CONTINUOUS
 62
     5
 10
48.243286
 20
-54.357235
 30
0.0
 11
59.120982
 21
-54.357235
 31
0.0
  0
LINE
  8
DETAIL
  6
CONTINUOUS
 62
     5
 10
48.243286
 20
-52.955924
 30
0.0
 11
59.120982
 21
-52.955924
 31
0.0
  0
LINE
  8
DETAIL
  6
CONTINUOUS
 62
     5
 10
59.120982
 20
-52.784024
 30
0.0
 11
48.243286
 21
-52.784024
 31
0.0
  0
LINE
  8
DETAIL
  6
CONTINUOUS
 62
     5
 10
59.120982
 20
-42.602698
 30
0.0
 11
48.243286
 21
-42.602698
 31
0.0
  0
LINE
  8
DETAIL
  6
CONTINUOUS
 62
     5
 10
101.925421
 20
-98.220724
 30
0.0
 11
112.803116
 21
-98.220724
 31
0.0
  0
LINE
  8
DETAIL
  6
CONTINUOUS
 62
     5
 10
101.925421
 20
-87.0117
 30
0.0
 11
112.803116
 21
-87.0117
 31
0.0
  0
LINE
  8
DETAIL
  6
CONTINUOUS
 62
     5
 10
101.925421
 20
-80.138453
 30
0.0
 11
112.803116
 21
-80.138453
 31
0.0
  0
LINE
  8
DETAIL
  6
CONTINUOUS
 62
     5
 10
101.925421
 20
-65.305232
 30
0.0
 11
112.803116
 21
-65.305232
 31
0.0
  0
LINE
  8
DETAIL
  6
CONTINUOUS
 62
     5
 10
101.925421
 20
-54.903055
 30
0.0
 11
112.803116
 21
-54.903055
 31
0.0
  0
LINE
  8
DETAIL
  6
CONTINUOUS
 62
     5
 10
101.925421
 20
-54.357235
 30
0.0
 11
112.803116
 21
-54.357235
 31
0.0
  0
LINE
  8
DETAIL
  6
CONTINUOUS
 62
     5
 10
101.925421
 20
-52.955924
 30
0.0
 11
112.803116
 21
-52.955924
 31
0.0
  0
LINE
  8
DETAIL
  6
CONTINUOUS
 62
     5
 10
112.803116
 20
-52.784024
 30
0.0
 11
101.925421
 21
-52.784024
 31
0.0
  0
LINE
  8
DETAIL
  6
CONTINUOUS
 62
     5
 10
112.803116
 20
-42.602698
 30
0.0
 11
101.925421
 21
-42.602698
 31
0.0
  0
LINE
  8
DETAIL
  6
CONTINUOUS
 62
     5
 10
179.905784
 20
-122.684727
 30
0.0
 11
169.028088
 21
-122.684727
 31
0.0
  0
LINE
  8
DETAIL
  6
CONTINUOUS
 62
     5
 10
179.905784
 20
-116.34552
 30
0.0
 11
169.028088
 21
-116.34552
 31
0.0
  0
LINE
  8
DETAIL
  6
CONTINUOUS
 62
     5
 10
169.028088
 20
-116.103528
 30
0.0
 11
179.905784
 21
-116.103528
 31
0.0
  0
LINE
  8
DETAIL
  6
CONTINUOUS
 62
     5
 10
169.028088
 20
-113.56069
 30
0.0
 11
179.905784
 21
-113.56069
 31
0.0
  0
LINE
  8
DETAIL
  6
CONTINUOUS
 62
     5
 10
169.028088
 20
-154.836576
 30
0.0
 11
179.905784
 21
-154.836576
 31
0.0
  0
LINE
  8
DETAIL
  6
CONTINUOUS
 62
     5
 10
169.028088
 20
-152.293738
 30
0.0
 11
179.905784
 21
-152.293738
 31
0.0
  0
LINE
  8
DETAIL
  6
CONTINUOUS
 62
     5
 10
169.028088
 20
-151.38543
 30
0.0
 11
179.905784
 21
-151.38543
 31
0.0
  0
LINE
  8
DETAIL
  6
CONTINUOUS
 62
     5
 10
169.028088
 20
-148.842592
 30
0.0
 11
179.905784
 21
-148.842592
 31
0.0
  0
ARC
  8
DETAIL
  6
CONTINUOUS
 62
     5
 10
167.756669
 20
-156.352957
 30
0.0
 40
1.271419
 50
180.0
 51
0.0
  0
ARC
  8
DETAIL
  6
CONTINUOUS
 62
     5
 10
181.177203
 20
-156.352957
 30
0.0
 40
1.271419
 50
180.0
 51
0.0
  0
LINE
  8
DETAIL
  6
CONTINUOUS
 62
     5
 10
153.064717
 20
-122.684727
 30
0.0
 11
142.187021
 21
-122.684727
 31
0.0
  0
LINE
  8
DETAIL
  6
CONTINUOUS
 62
     5
 10
153.064717
 20
-116.34552
 30
0.0
 11
142.187021
 21
-116.34552
 31
0.0
  0
LINE
  8
DETAIL
  6
CONTINUOUS
 62
     5
 10
142.187021
 20
-116.103528
 30
0.0
 11
153.064717
 21
-116.103528
 31
0.0
  0
LINE
  8
DETAIL
  6
CONTINUOUS
 62
     5
 10
142.187021
 20
-113.56069
 30
0.0
 11
153.064717
 21
-113.56069
 31
0.0
  0
LINE
  8
DETAIL
  6
CONTINUOUS
 62
     5
 10
126.22365
 20
-122.684727
 30
0.0
 11
115.345954
 21
-122.684727
 31
0.0
  0
LINE
  8
DETAIL
  6
CONTINUOUS
 62
     5
 10
126.22365
 20
-116.34552
 30
0.0
 11
115.345954
 21
-116.34552
 31
0.0
  0
LINE
  8
DETAIL
  6
CONTINUOUS
 62
     5
 10
115.345954
 20
-116.103528
 30
0.0
 11
126.22365
 21
-116.103528
 31
0.0
  0
LINE
  8
DETAIL
  6
CONTINUOUS
 62
     5
 10
115.345954
 20
-113.56069
 30
0.0
 11
126.22365
 21
-113.56069
 31
0.0
  0
LINE
  8
DETAIL
  6
CONTINUOUS
 62
     5
 10
139.644183
 20
-122.684727
 30
0.0
 11
128.766488
 21
-122.684727
 31
0.0
  0
LINE
  8
DETAIL
  6
CONTINUOUS
 62
     5
 10
139.644183
 20
-116.34552
 30
0.0
 11
128.766488
 21
-116.34552
 31
0.0
  0
LINE
  8
DETAIL
  6
CONTINUOUS
 62
     5
 10
128.766488
 20
-116.103528
 30
0.0
 11
139.644183
 21
-116.103528
 31
0.0
  0
LINE
  8
DETAIL
  6
CONTINUOUS
 62
     5
 10
128.766488
 20
-113.56069
 30
0.0
 11
139.644183
 21
-113.56069
 31
0.0
  0
LINE
  8
DETAIL
  6
CONTINUOUS
 62
     5
 10
142.187021
 20
-154.836576
 30
0.0
 11
153.064717
 21
-154.836576
 31
0.0
  0
LINE
  8
DETAIL
  6
CONTINUOUS
 62
     5
 10
142.187021
 20
-152.293738
 30
0.0
 11
153.064717
 21
-152.293738
 31
0.0
  0
LINE
  8
DETAIL
  6
CONTINUOUS
 62
     5
 10
142.187021
 20
-151.38543
 30
0.0
 11
153.064717
 21
-151.38543
 31
0.0
  0
LINE
  8
DETAIL
  6
CONTINUOUS
 62
     5
 10
142.187021
 20
-148.842592
 30
0.0
 11
153.064717
 21
-148.842592
 31
0.0
  0
ARC
  8
DETAIL
  6
CONTINUOUS
 62
     5
 10
140.915602
 20
-156.352957
 30
0.0
 40
1.271419
 50
180.0
 51
0.0
  0
ARC
  8
DETAIL
  6
CONTINUOUS
 62
     5
 10
154.336136
 20
-156.352957
 30
0.0
 40
1.271419
 50
180.0
 51
0.0
  0
LINE
  8
DETAIL
  6
CONTINUOUS
 62
     5
 10
115.345954
 20
-154.836576
 30
0.0
 11
126.22365
 21
-154.836576
 31
0.0
  0
LINE
  8
DETAIL
  6
CONTINUOUS
 62
     5
 10
115.345954
 20
-152.293738
 30
0.0
 11
126.22365
 21
-152.293738
 31
0.0
  0
LINE
  8
DETAIL
  6
CONTINUOUS
 62
     5
 10
115.345954
 20
-151.38543
 30
0.0
 11
126.22365
 21
-151.38543
 31
0.0
  0
LINE
  8
DETAIL
  6
CONTINUOUS
 62
     5
 10
115.345954
 20
-148.842592
 30
0.0
 11
126.22365
 21
-148.842592
 31
0.0
  0
ARC
  8
DETAIL
  6
CONTINUOUS
 62
     5
 10
114.074535
 20
-156.352957
 30
0.0
 40
1.271419
 50
180.0
 51
0.0
  0
ARC
  8
DETAIL
  6
CONTINUOUS
 62
     5
 10
127.495069
 20
-156.352957
 30
0.0
 40
1.271419
 50
180.0
 51
0.0
  0
LINE
  8
DETAIL
  6
CONTINUOUS
 62
     5
 10
128.766488
 20
-154.836576
 30
0.0
 11
139.644183
 21
-154.836576
 31
0.0
  0
LINE
  8
DETAIL
  6
CONTINUOUS
 62
     5
 10
128.766488
 20
-152.293738
 30
0.0
 11
139.644183
 21
-152.293738
 31
0.0
  0
LINE
  8
DETAIL
  6
CONTINUOUS
 62
     5
 10
128.766488
 20
-151.38543
 30
0.0
 11
139.644183
 21
-151.38543
 31
0.0
  0
LINE
  8
DETAIL
  6
CONTINUOUS
 62
     5
 10
128.766488
 20
-148.842592
 30
0.0
 11
139.644183
 21
-148.842592
 31
0.0
  0
LINE
  8
DETAIL
  6
CONTINUOUS
 62
     5
 10
155.607555
 20
-154.836576
 30
0.0
 11
166.48525
 21
-154.836576
 31
0.0
  0
LINE
  8
DETAIL
  6
CONTINUOUS
 62
     5
 10
155.607555
 20
-152.293738
 30
0.0
 11
166.48525
 21
-152.293738
 31
0.0
  0
LINE
  8
DETAIL
  6
CONTINUOUS
 62
     5
 10
155.607555
 20
-151.38543
 30
0.0
 11
166.48525
 21
-151.38543
 31
0.0
  0
LINE
  8
DETAIL
  6
CONTINUOUS
 62
     5
 10
155.607555
 20
-148.842592
 30
0.0
 11
166.48525
 21
-148.842592
 31
0.0
  0
LINE
  8
DETAIL
  6
CONTINUOUS
 62
     5
 10
166.48525
 20
-122.684727
 30
0.0
 11
155.607555
 21
-122.684727
 31
0.0
  0
LINE
  8
DETAIL
  6
CONTINUOUS
 62
     5
 10
166.48525
 20
-116.34552
 30
0.0
 11
155.607555
 21
-116.34552
 31
0.0
  0
LINE
  8
DETAIL
  6
CONTINUOUS
 62
     5
 10
155.607555
 20
-116.103528
 30
0.0
 11
166.48525
 21
-116.103528
 31
0.0
  0
LINE
  8
DETAIL
  6
CONTINUOUS
 62
     5
 10
155.607555
 20
-113.56069
 30
0.0
 11
166.48525
 21
-113.56069
 31
0.0
  0
LINE
  8
DETAIL
  6
CONTINUOUS
 62
     5
 10
99.382583
 20
-122.684727
 30
0.0
 11
88.504887
 21
-122.684727
 31
0.0
  0
LINE
  8
DETAIL
  6
CONTINUOUS
 62
     5
 10
99.382583
 20
-116.34552
 30
0.0
 11
88.504887
 21
-116.34552
 31
0.0
  0
LINE
  8
DETAIL
  6
CONTINUOUS
 62
     5
 10
88.504887
 20
-116.103528
 30
0.0
 11
99.382583
 21
-116.103528
 31
0.0
  0
LINE
  8
DETAIL
  6
CONTINUOUS
 62
     5
 10
88.504887
 20
-113.56069
 30
0.0
 11
99.382583
 21
-113.56069
 31
0.0
  0
LINE
  8
DETAIL
  6
CONTINUOUS
 62
     5
 10
72.541516
 20
-122.684727
 30
0.0
 11
61.66382
 21
-122.684727
 31
0.0
  0
LINE
  8
DETAIL
  6
CONTINUOUS
 62
     5
 10
72.541516
 20
-116.34552
 30
0.0
 11
61.66382
 21
-116.34552
 31
0.0
  0
LINE
  8
DETAIL
  6
CONTINUOUS
 62
     5
 10
61.66382
 20
-116.103528
 30
0.0
 11
72.541516
 21
-116.103528
 31
0.0
  0
LINE
  8
DETAIL
  6
CONTINUOUS
 62
     5
 10
61.66382
 20
-113.56069
 30
0.0
 11
72.541516
 21
-113.56069
 31
0.0
  0
LINE
  8
DETAIL
  6
CONTINUOUS
 62
     5
 10
85.962049
 20
-122.684727
 30
0.0
 11
75.084353
 21
-122.684727
 31
0.0
  0
LINE
  8
DETAIL
  6
CONTINUOUS
 62
     5
 10
85.962049
 20
-116.34552
 30
0.0
 11
75.084353
 21
-116.34552
 31
0.0
  0
LINE
  8
DETAIL
  6
CONTINUOUS
 62
     5
 10
75.084353
 20
-116.103528
 30
0.0
 11
85.962049
 21
-116.103528
 31
0.0
  0
LINE
  8
DETAIL
  6
CONTINUOUS
 62
     5
 10
75.084353
 20
-113.56069
 30
0.0
 11
85.962049
 21
-113.56069
 31
0.0
  0
LINE
  8
DETAIL
  6
CONTINUOUS
 62
     5
 10
88.504887
 20
-154.836576
 30
0.0
 11
99.382583
 21
-154.836576
 31
0.0
  0
LINE
  8
DETAIL
  6
CONTINUOUS
 62
     5
 10
88.504887
 20
-152.293738
 30
0.0
 11
99.382583
 21
-152.293738
 31
0.0
  0
LINE
  8
DETAIL
  6
CONTINUOUS
 62
     5
 10
88.504887
 20
-151.38543
 30
0.0
 11
99.382583
 21
-151.38543
 31
0.0
  0
LINE
  8
DETAIL
  6
CONTINUOUS
 62
     5
 10
88.504887
 20
-148.842592
 30
0.0
 11
99.382583
 21
-148.842592
 31
0.0
  0
ARC
  8
DETAIL
  6
CONTINUOUS
 62
     5
 10
87.233468
 20
-156.352957
 30
0.0
 40
1.271419
 50
180.0
 51
0.0
  0
ARC
  8
DETAIL
  6
CONTINUOUS
 62
     5
 10
100.654002
 20
-156.352957
 30
0.0
 40
1.271419
 50
180.0
 51
0.0
  0
LINE
  8
DETAIL
  6
CONTINUOUS
 62
     5
 10
61.66382
 20
-154.836576
 30
0.0
 11
72.541516
 21
-154.836576
 31
0.0
  0
LINE
  8
DETAIL
  6
CONTINUOUS
 62
     5
 10
61.66382
 20
-152.293738
 30
0.0
 11
72.541516
 21
-152.293738
 31
0.0
  0
LINE
  8
DETAIL
  6
CONTINUOUS
 62
     5
 10
61.66382
 20
-151.38543
 30
0.0
 11
72.541516
 21
-151.38543
 31
0.0
  0
LINE
  8
DETAIL
  6
CONTINUOUS
 62
     5
 10
61.66382
 20
-148.842592
 30
0.0
 11
72.541516
 21
-148.842592
 31
0.0
  0
ARC
  8
DETAIL
  6
CONTINUOUS
 62
     5
 10
60.392401
 20
-156.352957
 30
0.0
 40
1.271419
 50
180.0
 51
0.0
  0
ARC
  8
DETAIL
  6
CONTINUOUS
 62
     5
 10
73.812935
 20
-156.352957
 30
0.0
 40
1.271419
 50
180.0
 51
0.0
  0
LINE
  8
DETAIL
  6
CONTINUOUS
 62
     5
 10
75.084353
 20
-154.836576
 30
0.0
 11
85.962049
 21
-154.836576
 31
0.0
  0
LINE
  8
DETAIL
  6
CONTINUOUS
 62
     5
 10
75.084353
 20
-152.293738
 30
0.0
 11
85.962049
 21
-152.293738
 31
0.0
  0
LINE
  8
DETAIL
  6
CONTINUOUS
 62
     5
 10
75.084353
 20
-151.38543
 30
0.0
 11
85.962049
 21
-151.38543
 31
0.0
  0
LINE
  8
DETAIL
  6
CONTINUOUS
 62
     5
 10
75.084353
 20
-148.842592
 30
0.0
 11
85.962049
 21
-148.842592
 31
0.0
  0
LINE
  8
DETAIL
  6
CONTINUOUS
 62
     5
 10
45.700448
 20
-122.684727
 30
0.0
 11
34.822753
 21
-122.684727
 31
0.0
  0
LINE
  8
DETAIL
  6
CONTINUOUS
 62
     5
 10
45.700448
 20
-116.34552
 30
0.0
 11
34.822753
 21
-116.34552
 31
0.0
  0
LINE
  8
DETAIL
  6
CONTINUOUS
 62
     5
 10
34.822753
 20
-116.103528
 30
0.0
 11
45.700448
 21
-116.103528
 31
0.0
  0
LINE
  8
DETAIL
  6
CONTINUOUS
 62
     5
 10
34.822753
 20
-113.56069
 30
0.0
 11
45.700448
 21
-113.56069
 31
0.0
  0
LINE
  8
DETAIL
  6
CONTINUOUS
 62
     5
 10
18.859381
 20
-122.684727
 30
0.0
 11
7.981686
 21
-122.684727
 31
0.0
  0
LINE
  8
DETAIL
  6
CONTINUOUS
 62
     5
 10
18.859381
 20
-116.34552
 30
0.0
 11
7.981686
 21
-116.34552
 31
0.0
  0
LINE
  8
DETAIL
  6
CONTINUOUS
 62
     5
 10
7.981686
 20
-116.103528
 30
0.0
 11
18.859381
 21
-116.103528
 31
0.0
  0
LINE
  8
DETAIL
  6
CONTINUOUS
 62
     5
 10
7.981686
 20
-113.56069
 30
0.0
 11
18.859381
 21
-113.56069
 31
0.0
  0
LINE
  8
DETAIL
  6
CONTINUOUS
 62
     5
 10
32.279915
 20
-122.684727
 30
0.0
 11
21.402219
 21
-122.684727
 31
0.0
  0
LINE
  8
DETAIL
  6
CONTINUOUS
 62
     5
 10
32.279915
 20
-116.34552
 30
0.0
 11
21.402219
 21
-116.34552
 31
0.0
  0
LINE
  8
DETAIL
  6
CONTINUOUS
 62
     5
 10
21.402219
 20
-116.103528
 30
0.0
 11
32.279915
 21
-116.103528
 31
0.0
  0
LINE
  8
DETAIL
  6
CONTINUOUS
 62
     5
 10
21.402219
 20
-113.56069
 30
0.0
 11
32.279915
 21
-113.56069
 31
0.0
  0
LINE
  8
DETAIL
  6
CONTINUOUS
 62
     5
 10
34.822753
 20
-154.836576
 30
0.0
 11
45.700448
 21
-154.836576
 31
0.0
  0
LINE
  8
DETAIL
  6
CONTINUOUS
 62
     5
 10
34.822753
 20
-152.293738
 30
0.0
 11
45.700448
 21
-152.293738
 31
0.0
  0
LINE
  8
DETAIL
  6
CONTINUOUS
 62
     5
 10
34.822753
 20
-151.38543
 30
0.0
 11
45.700448
 21
-151.38543
 31
0.0
  0
LINE
  8
DETAIL
  6
CONTINUOUS
 62
     5
 10
34.822753
 20
-148.842592
 30
0.0
 11
45.700448
 21
-148.842592
 31
0.0
  0
ARC
  8
DETAIL
  6
CONTINUOUS
 62
     5
 10
33.551334
 20
-156.352957
 30
0.0
 40
1.271419
 50
180.0
 51
0.0
  0
ARC
  8
DETAIL
  6
CONTINUOUS
 62
     5
 10
46.971867
 20
-156.352957
 30
0.0
 40
1.271419
 50
180.0
 51
0.0
  0
LINE
  8
DETAIL
  6
CONTINUOUS
 62
     5
 10
7.981686
 20
-154.836576
 30
0.0
 11
18.859381
 21
-154.836576
 31
0.0
  0
LINE
  8
DETAIL
  6
CONTINUOUS
 62
     5
 10
7.981686
 20
-152.293738
 30
0.0
 11
18.859381
 21
-152.293738
 31
0.0
  0
LINE
  8
DETAIL
  6
CONTINUOUS
 62
     5
 10
7.981686
 20
-151.38543
 30
0.0
 11
18.859381
 21
-151.38543
 31
0.0
  0
LINE
  8
DETAIL
  6
CONTINUOUS
 62
     5
 10
7.981686
 20
-148.842592
 30
0.0
 11
18.859381
 21
-148.842592
 31
0.0
  0
ARC
  8
DETAIL
  6
CONTINUOUS
 62
     5
 10
6.710267
 20
-156.352957
 30
0.0
 40
1.271419
 50
180.0
 51
0.0
  0
ARC
  8
DETAIL
  6
CONTINUOUS
 62
     5
 10
20.1308
 20
-156.352957
 30
0.0
 40
1.271419
 50
180.0
 51
0.0
  0
LINE
  8
DETAIL
  6
CONTINUOUS
 62
     5
 10
21.402219
 20
-154.836576
 30
0.0
 11
32.279915
 21
-154.836576
 31
0.0
  0
LINE
  8
DETAIL
  6
CONTINUOUS
 62
     5
 10
21.402219
 20
-152.293738
 30
0.0
 11
32.279915
 21
-152.293738
 31
0.0
  0
LINE
  8
DETAIL
  6
CONTINUOUS
 62
     5
 10
21.402219
 20
-151.38543
 30
0.0
 11
32.279915
 21
-151.38543
 31
0.0
  0
LINE
  8
DETAIL
  6
CONTINUOUS
 62
     5
 10
21.402219
 20
-148.842592
 30
0.0
 11
32.279915
 21
-148.842592
 31
0.0
  0
LINE
  8
DETAIL
  6
CONTINUOUS
 62
     5
 10
48.243286
 20
-154.836576
 30
0.0
 11
59.120982
 21
-154.836576
 31
0.0
  0
LINE
  8
DETAIL
  6
CONTINUOUS
 62
     5
 10
48.243286
 20
-152.293738
 30
0.0
 11
59.120982
 21
-152.293738
 31
0.0
  0
LINE
  8
DETAIL
  6
CONTINUOUS
 62
     5
 10
48.243286
 20
-151.38543
 30
0.0
 11
59.120982
 21
-151.38543
 31
0.0
  0
LINE
  8
DETAIL
  6
CONTINUOUS
 62
     5
 10
48.243286
 20
-148.842592
 30
0.0
 11
59.120982
 21
-148.842592
 31
0.0
  0
LINE
  8
DETAIL
  6
CONTINUOUS
 62
     5
 10
59.120982
 20
-122.684727
 30
0.0
 11
48.243286
 21
-122.684727
 31
0.0
  0
LINE
  8
DETAIL
  6
CONTINUOUS
 62
     5
 10
59.120982
 20
-116.34552
 30
0.0
 11
48.243286
 21
-116.34552
 31
0.0
  0
LINE
  8
DETAIL
  6
CONTINUOUS
 62
     5
 10
48.243286
 20
-116.103528
 30
0.0
 11
59.120982
 21
-116.103528
 31
0.0
  0
LINE
  8
DETAIL
  6
CONTINUOUS
 62
     5
 10
48.243286
 20
-113.56069
 30
0.0
 11
59.120982
 21
-113.56069
 31
0.0
  0
LINE
  8
DETAIL
  6
CONTINUOUS
 62
     5
 10
101.925421
 20
-154.836576
 30
0.0
 11
112.803116
 21
-154.836576
 31
0.0
  0
LINE
  8
DETAIL
  6
CONTINUOUS
 62
     5
 10
101.925421
 20
-152.293738
 30
0.0
 11
112.803116
 21
-152.293738
 31
0.0
  0
LINE
  8
DETAIL
  6
CONTINUOUS
 62
     5
 10
101.925421
 20
-151.38543
 30
0.0
 11
112.803116
 21
-151.38543
 31
0.0
  0
LINE
  8
DETAIL
  6
CONTINUOUS
 62
     5
 10
101.925421
 20
-148.842592
 30
0.0
 11
112.803116
 21
-148.842592
 31
0.0
  0
LINE
  8
DETAIL
  6
CONTINUOUS
 62
     5
 10
112.803116
 20
-122.684727
 30
0.0
 11
101.925421
 21
-122.684727
 31
0.0
  0
LINE
  8
DETAIL
  6
CONTINUOUS
 62
     5
 10
112.803116
 20
-116.34552
 30
0.0
 11
101.925421
 21
-116.34552
 31
0.0
  0
LINE
  8
DETAIL
  6
CONTINUOUS
 62
     5
 10
101.925421
 20
-116.103528
 30
0.0
 11
112.803116
 21
-116.103528
 31
0.0
  0
LINE
  8
DETAIL
  6
CONTINUOUS
 62
     5
 10
101.925421
 20
-113.56069
 30
0.0
 11
112.803116
 21
-113.56069
 31
0.0
  0
LINE
  8
DETAIL
  6
CONTINUOUS
 62
     5
 10
5.438848
 20
-156.352957
 30
0.0
 11
5.438848
 21
-33.763928
 31
0.0
  0
LINE
  8
DETAIL
  6
CONTINUOUS
 62
     5
 10
7.981686
 20
-156.352957
 30
0.0
 11
7.981686
 21
-33.763801
 31
0.0
  0
LINE
  8
DETAIL
  6
CONTINUOUS
 62
     5
 10
18.859381
 20
-156.352957
 30
0.0
 11
18.859381
 21
-33.763258
 31
0.0
  0
LINE
  8
DETAIL
  6
CONTINUOUS
 62
     5
 10
21.402219
 20
-156.352957
 30
0.0
 11
21.402219
 21
-33.763131
 31
0.0
  0
LINE
  8
DETAIL
  6
CONTINUOUS
 62
     5
 10
32.279915
 20
-156.352957
 30
0.0
 11
32.279915
 21
-33.762589
 31
0.0
  0
LINE
  8
DETAIL
  6
CONTINUOUS
 62
     5
 10
34.822753
 20
-156.352957
 30
0.0
 11
34.822753
 21
-33.762462
 31
0.0
  0
LINE
  8
DETAIL
  6
CONTINUOUS
 62
     5
 10
45.700448
 20
-156.352957
 30
0.0
 11
45.700448
 21
-33.761919
 31
0.0
  0
LINE
  8
DETAIL
  6
CONTINUOUS
 62
     5
 10
48.243286
 20
-156.352957
 30
0.0
 11
48.243286
 21
-33.761792
 31
0.0
  0
LINE
  8
DETAIL
  6
CONTINUOUS
 62
     5
 10
59.120982
 20
-156.352957
 30
0.0
 11
59.120982
 21
-33.76125
 31
0.0
  0
LINE
  8
DETAIL
  6
CONTINUOUS
 62
     5
 10
61.66382
 20
-156.352957
 30
0.0
 11
61.66382
 21
-33.761123
 31
0.0
  0
LINE
  8
DETAIL
  6
CONTINUOUS
 62
     5
 10
72.541516
 20
-156.352957
 30
0.0
 11
72.541516
 21
-33.764383
 31
0.0
  0
LINE
  8
DETAIL
  6
CONTINUOUS
 62
     5
 10
75.084353
 20
-156.352957
 30
0.0
 11
75.084353
 21
-33.764003
 31
0.0
  0
LINE
  8
DETAIL
  6
CONTINUOUS
 62
     5
 10
85.962049
 20
-156.352957
 30
0.0
 11
85.962049
 21
-33.762375
 31
0.0
  0
LINE
  8
DETAIL
  6
CONTINUOUS
 62
     5
 10
88.504887
 20
-156.352957
 30
0.0
 11
88.504887
 21
-33.761994
 31
0.0
  0
LINE
  8
DETAIL
  6
CONTINUOUS
 62
     5
 10
99.382583
 20
-156.352957
 30
0.0
 11
99.382583
 21
-33.760366
 31
0.0
  0
LINE
  8
DETAIL
  6
CONTINUOUS
 62
     5
 10
101.925421
 20
-156.352957
 30
0.0
 11
101.925421
 21
-33.759986
 31
0.0
  0
LINE
  8
DETAIL
  6
CONTINUOUS
 62
     5
 10
112.803116
 20
-156.352957
 30
0.0
 11
112.803116
 21
-33.758358
 31
0.0
  0
LINE
  8
DETAIL
  6
CONTINUOUS
 62
     5
 10
115.345954
 20
-156.352957
 30
0.0
 11
115.345954
 21
-33.757977
 31
0.0
  0
LINE
  8
DETAIL
  6
CONTINUOUS
 62
     5
 10
126.22365
 20
-156.352957
 30
0.0
 11
126.22365
 21
-33.756349
 31
0.0
  0
LINE
  8
DETAIL
  6
CONTINUOUS
 62
     5
 10
128.766488
 20
-156.352957
 30
0.0
 11
128.766488
 21
-33.755969
 31
0.0
  0
LINE
  8
DETAIL
  6
CONTINUOUS
 62
     5
 10
139.644183
 20
-156.352957
 30
0.0
 11
139.644183
 21
-33.754341
 31
0.0
  0
LINE
  8
DETAIL
  6
CONTINUOUS
 62
     5
 10
142.187021
 20
-156.352957
 30
0.0
 11
142.187021
 21
-33.75396
 31
0.0
  0
LINE
  8
DETAIL
  6
CONTINUOUS
 62
     5
 10
153.064717
 20
-156.352957
 30
0.0
 11
153.064717
 21
-33.752332
 31
0.0
  0
LINE
  8
DETAIL
  6
CONTINUOUS
 62
     5
 10
155.607555
 20
-156.352957
 30
0.0
 11
155.607555
 21
-33.751952
 31
0.0
  0
LINE
  8
DETAIL
  6
CONTINUOUS
 62
     5
 10
166.48525
 20
-156.352957
 30
0.0
 11
166.48525
 21
-33.750324
 31
0.0
  0
LINE
  8
DETAIL
  6
CONTINUOUS
 62
     5
 10
169.028088
 20
-156.352957
 30
0.0
 11
169.028088
 21
-33.749943
 31
0.0
  0
LINE
  8
DETAIL
  6
CONTINUOUS
 62
     5
 10
179.905784
 20
-156.352957
 30
0.0
 11
179.905784
 21
-33.748315
 31
0.0
  0
LINE
  8
DETAIL
  6
CONTINUOUS
 62
     5
 10
182.448622
 20
-156.352957
 30
0.0
 11
182.448622
 21
-33.747935
 31
0.0
  0
LINE
  8
DETAIL
  6
CONTINUOUS
 62
     5
 10
-32.279915
 20
-54.903055
 30
0.0
 11
-21.402219
 21
-54.903055
 31
0.0
  0
LINE
  8
DETAIL
  6
CONTINUOUS
 62
     5
 10
-18.859381
 20
-54.903055
 30
0.0
 11
-7.981686
 21
-54.903055
 31
0.0
  0
LINE
  8
DETAIL
  6
CONTINUOUS
 62
     5
 10
-32.279915
 20
-54.357235
 30
0.0
 11
-21.402219
 21
-54.357235
 31
0.0
  0
LINE
  8
DETAIL
  6
CONTINUOUS
 62
     5
 10
-18.859381
 20
-54.357235
 30
0.0
 11
-7.981686
 21
-54.357235
 31
0.0
  0
LINE
  8
DETAIL
  6
CONTINUOUS
 62
     5
 10
-32.279915
 20
-52.955924
 30
0.0
 11
-21.402219
 21
-52.955924
 31
0.0
  0
LINE
  8
DETAIL
  6
CONTINUOUS
 62
     5
 10
-18.859381
 20
-52.955924
 30
0.0
 11
-7.981686
 21
-52.955924
 31
0.0
  0
LINE
  8
DETAIL
  6
CONTINUOUS
 62
     5
 10
-7.981686
 20
-52.784024
 30
0.0
 11
-18.859381
 21
-52.784024
 31
0.0
  0
LINE
  8
DETAIL
  6
CONTINUOUS
 62
     5
 10
-21.402219
 20
-52.784024
 30
0.0
 11
-32.279915
 21
-52.784024
 31
0.0
  0
LINE
  8
DETAIL
  6
CONTINUOUS
 62
     5
 10
-7.981686
 20
-42.602698
 30
0.0
 11
-18.859381
 21
-42.602698
 31
0.0
  0
LINE
  8
DETAIL
  6
CONTINUOUS
 62
     5
 10
-21.402219
 20
-42.602698
 30
0.0
 11
-32.279915
 21
-42.602698
 31
0.0
  0
LINE
  8
DETAIL
  6
CONTINUOUS
 62
     5
 10
-59.120982
 20
-54.903055
 30
0.0
 11
-48.243286
 21
-54.903055
 31
0.0
  0
LINE
  8
DETAIL
  6
CONTINUOUS
 62
     5
 10
-45.700448
 20
-54.903055
 30
0.0
 11
-34.822753
 21
-54.903055
 31
0.0
  0
LINE
  8
DETAIL
  6
CONTINUOUS
 62
     5
 10
-59.120982
 20
-54.357235
 30
0.0
 11
-48.243286
 21
-54.357235
 31
0.0
  0
LINE
  8
DETAIL
  6
CONTINUOUS
 62
     5
 10
-45.700448
 20
-54.357235
 30
0.0
 11
-34.822753
 21
-54.357235
 31
0.0
  0
LINE
  8
DETAIL
  6
CONTINUOUS
 62
     5
 10
-59.120982
 20
-52.955924
 30
0.0
 11
-48.243286
 21
-52.955924
 31
0.0
  0
LINE
  8
DETAIL
  6
CONTINUOUS
 62
     5
 10
-45.700448
 20
-52.955924
 30
0.0
 11
-34.822753
 21
-52.955924
 31
0.0
  0
LINE
  8
DETAIL
  6
CONTINUOUS
 62
     5
 10
-34.822753
 20
-52.784024
 30
0.0
 11
-45.700448
 21
-52.784024
 31
0.0
  0
LINE
  8
DETAIL
  6
CONTINUOUS
 62
     5
 10
-48.243286
 20
-52.784024
 30
0.0
 11
-59.120982
 21
-52.784024
 31
0.0
  0
LINE
  8
DETAIL
  6
CONTINUOUS
 62
     5
 10
-34.822753
 20
-42.602698
 30
0.0
 11
-45.700448
 21
-42.602698
 31
0.0
  0
LINE
  8
DETAIL
  6
CONTINUOUS
 62
     5
 10
-48.243286
 20
-42.602698
 30
0.0
 11
-59.120982
 21
-42.602698
 31
0.0
  0
LINE
  8
DETAIL
  6
CONTINUOUS
 62
     5
 10
-32.279915
 20
-98.220724
 30
0.0
 11
-21.402219
 21
-98.220724
 31
0.0
  0
LINE
  8
DETAIL
  6
CONTINUOUS
 62
     5
 10
-18.859381
 20
-98.220724
 30
0.0
 11
-7.981686
 21
-98.220724
 31
0.0
  0
LINE
  8
DETAIL
  6
CONTINUOUS
 62
     5
 10
-32.279915
 20
-87.0117
 30
0.0
 11
-21.402219
 21
-87.0117
 31
0.0
  0
LINE
  8
DETAIL
  6
CONTINUOUS
 62
     5
 10
-18.859381
 20
-87.0117
 30
0.0
 11
-7.981686
 21
-87.0117
 31
0.0
  0
LINE
  8
DETAIL
  6
CONTINUOUS
 62
     5
 10
-32.279915
 20
-80.138453
 30
0.0
 11
-21.402219
 21
-80.138453
 31
0.0
  0
LINE
  8
DETAIL
  6
CONTINUOUS
 62
     5
 10
-18.859381
 20
-80.138453
 30
0.0
 11
-7.981686
 21
-80.138453
 31
0.0
  0
LINE
  8
DETAIL
  6
CONTINUOUS
 62
     5
 10
-32.279915
 20
-65.305232
 30
0.0
 11
-21.402219
 21
-65.305232
 31
0.0
  0
LINE
  8
DETAIL
  6
CONTINUOUS
 62
     5
 10
-18.859381
 20
-65.305232
 30
0.0
 11
-7.981686
 21
-65.305232
 31
0.0
  0
LINE
  8
DETAIL
  6
CONTINUOUS
 62
     5
 10
-59.120982
 20
-98.220724
 30
0.0
 11
-48.243286
 21
-98.220724
 31
0.0
  0
LINE
  8
DETAIL
  6
CONTINUOUS
 62
     5
 10
-45.700448
 20
-98.220724
 30
0.0
 11
-34.822753
 21
-98.220724
 31
0.0
  0
LINE
  8
DETAIL
  6
CONTINUOUS
 62
     5
 10
-59.120982
 20
-87.0117
 30
0.0
 11
-48.243286
 21
-87.0117
 31
0.0
  0
LINE
  8
DETAIL
  6
CONTINUOUS
 62
     5
 10
-45.700448
 20
-87.0117
 30
0.0
 11
-34.822753
 21
-87.0117
 31
0.0
  0
LINE
  8
DETAIL
  6
CONTINUOUS
 62
     5
 10
-59.120982
 20
-80.138453
 30
0.0
 11
-48.243286
 21
-80.138453
 31
0.0
  0
LINE
  8
DETAIL
  6
CONTINUOUS
 62
     5
 10
-45.700448
 20
-80.138453
 30
0.0
 11
-34.822753
 21
-80.138453
 31
0.0
  0
LINE
  8
DETAIL
  6
CONTINUOUS
 62
     5
 10
-59.120982
 20
-65.305232
 30
0.0
 11
-48.243286
 21
-65.305232
 31
0.0
  0
LINE
  8
DETAIL
  6
CONTINUOUS
 62
     5
 10
-45.700448
 20
-65.305232
 30
0.0
 11
-34.822753
 21
-65.305232
 31
0.0
  0
LINE
  8
DETAIL
  6
CONTINUOUS
 62
     5
 10
-81.229545
 20
-55.424663
 30
0.0
 11
-81.229545
 21
-52.784024
 31
0.0
  0
LINE
  8
DETAIL
  6
CONTINUOUS
 62
     5
 10
-81.229545
 20
-55.424679
 30
0.0
 11
-85.962049
 21
-55.424679
 31
0.0
  0
LINE
  8
DETAIL
  6
CONTINUOUS
 62
     5
 10
-81.229545
 20
-54.903055
 30
0.0
 11
-75.084353
 21
-54.903055
 31
0.0
  0
LINE
  8
DETAIL
  6
CONTINUOUS
 62
     5
 10
-72.541516
 20
-54.903055
 30
0.0
 11
-61.66382
 21
-54.903055
 31
0.0
  0
LINE
  8
DETAIL
  6
CONTINUOUS
 62
     5
 10
-81.229545
 20
-54.357235
 30
0.0
 11
-75.084353
 21
-54.357235
 31
0.0
  0
LINE
  8
DETAIL
  6
CONTINUOUS
 62
     5
 10
-72.541516
 20
-54.357235
 30
0.0
 11
-61.66382
 21
-54.357235
 31
0.0
  0
LINE
  8
DETAIL
  6
CONTINUOUS
 62
     5
 10
-81.229545
 20
-52.955924
 30
0.0
 11
-75.084353
 21
-52.955924
 31
0.0
  0
LINE
  8
DETAIL
  6
CONTINUOUS
 62
     5
 10
-72.541516
 20
-52.955924
 30
0.0
 11
-61.66382
 21
-52.955924
 31
0.0
  0
LINE
  8
DETAIL
  6
CONTINUOUS
 62
     5
 10
-61.66382
 20
-52.784024
 30
0.0
 11
-72.541516
 21
-52.784024
 31
0.0
  0
LINE
  8
DETAIL
  6
CONTINUOUS
 62
     5
 10
-75.084353
 20
-52.784024
 30
0.0
 11
-81.229545
 21
-52.784024
 31
0.0
  0
LINE
  8
DETAIL
  6
CONTINUOUS
 62
     5
 10
-61.66382
 20
-42.602698
 30
0.0
 11
-72.541516
 21
-42.602698
 31
0.0
  0
LINE
  8
DETAIL
  6
CONTINUOUS
 62
     5
 10
-75.084353
 20
-42.602698
 30
0.0
 11
-85.962049
 21
-42.602698
 31
0.0
  0
LINE
  8
DETAIL
  6
CONTINUOUS
 62
     5
 10
-95.356423
 20
-55.424648
 30
0.0
 11
-95.356423
 21
-52.784024
 31
0.0
  0
LINE
  8
DETAIL
  6
CONTINUOUS
 62
     5
 10
-88.504887
 20
-55.424679
 30
0.0
 11
-95.356423
 21
-55.424679
 31
0.0
  0
LINE
  8
DETAIL
  6
CONTINUOUS
 62
     5
 10
-112.803116
 20
-54.903055
 30
0.0
 11
-101.925421
 21
-54.903055
 31
0.0
  0
LINE
  8
DETAIL
  6
CONTINUOUS
 62
     5
 10
-99.382583
 20
-54.903055
 30
0.0
 11
-95.356423
 21
-54.903055
 31
0.0
  0
LINE
  8
DETAIL
  6
CONTINUOUS
 62
     5
 10
-112.803116
 20
-54.357235
 30
0.0
 11
-101.925421
 21
-54.357235
 31
0.0
  0
LINE
  8
DETAIL
  6
CONTINUOUS
 62
     5
 10
-99.382583
 20
-54.357235
 30
0.0
 11
-95.356423
 21
-54.357235
 31
0.0
  0
LINE
  8
DETAIL
  6
CONTINUOUS
 62
     5
 10
-112.803116
 20
-52.955924
 30
0.0
 11
-101.925421
 21
-52.955924
 31
0.0
  0
LINE
  8
DETAIL
  6
CONTINUOUS
 62
     5
 10
-99.382583
 20
-52.955924
 30
0.0
 11
-95.356423
 21
-52.955924
 31
0.0
  0
LINE
  8
DETAIL
  6
CONTINUOUS
 62
     5
 10
-95.356423
 20
-52.784024
 30
0.0
 11
-99.382583
 21
-52.784024
 31
0.0
  0
LINE
  8
DETAIL
  6
CONTINUOUS
 62
     5
 10
-101.925421
 20
-52.784024
 30
0.0
 11
-112.803116
 21
-52.784024
 31
0.0
  0
LINE
  8
DETAIL
  6
CONTINUOUS
 62
     5
 10
-88.504887
 20
-42.602698
 30
0.0
 11
-99.382583
 21
-42.602698
 31
0.0
  0
LINE
  8
DETAIL
  6
CONTINUOUS
 62
     5
 10
-101.925421
 20
-42.602698
 30
0.0
 11
-112.803116
 21
-42.602698
 31
0.0
  0
LINE
  8
DETAIL
  6
CONTINUOUS
 62
     5
 10
-85.962049
 20
-98.220724
 30
0.0
 11
-75.084353
 21
-98.220724
 31
0.0
  0
LINE
  8
DETAIL
  6
CONTINUOUS
 62
     5
 10
-72.541516
 20
-98.220724
 30
0.0
 11
-61.66382
 21
-98.220724
 31
0.0
  0
LINE
  8
DETAIL
  6
CONTINUOUS
 62
     5
 10
-85.962049
 20
-87.0117
 30
0.0
 11
-75.084353
 21
-87.0117
 31
0.0
  0
LINE
  8
DETAIL
  6
CONTINUOUS
 62
     5
 10
-72.541516
 20
-87.0117
 30
0.0
 11
-61.66382
 21
-87.0117
 31
0.0
  0
LINE
  8
DETAIL
  6
CONTINUOUS
 62
     5
 10
-85.962049
 20
-80.138453
 30
0.0
 11
-75.084353
 21
-80.138453
 31
0.0
  0
LINE
  8
DETAIL
  6
CONTINUOUS
 62
     5
 10
-72.541516
 20
-80.138453
 30
0.0
 11
-61.66382
 21
-80.138453
 31
0.0
  0
LINE
  8
DETAIL
  6
CONTINUOUS
 62
     5
 10
-85.962049
 20
-65.305232
 30
0.0
 11
-75.084353
 21
-65.305232
 31
0.0
  0
LINE
  8
DETAIL
  6
CONTINUOUS
 62
     5
 10
-72.541516
 20
-65.305232
 30
0.0
 11
-61.66382
 21
-65.305232
 31
0.0
  0
LINE
  8
DETAIL
  6
CONTINUOUS
 62
     5
 10
-112.803116
 20
-98.220724
 30
0.0
 11
-101.925421
 21
-98.220724
 31
0.0
  0
LINE
  8
DETAIL
  6
CONTINUOUS
 62
     5
 10
-99.382583
 20
-98.220724
 30
0.0
 11
-88.504887
 21
-98.220724
 31
0.0
  0
LINE
  8
DETAIL
  6
CONTINUOUS
 62
     5
 10
-112.803116
 20
-87.0117
 30
0.0
 11
-101.925421
 21
-87.0117
 31
0.0
  0
LINE
  8
DETAIL
  6
CONTINUOUS
 62
     5
 10
-99.382583
 20
-87.0117
 30
0.0
 11
-88.504887
 21
-87.0117
 31
0.0
  0
LINE
  8
DETAIL
  6
CONTINUOUS
 62
     5
 10
-112.803116
 20
-80.138453
 30
0.0
 11
-101.925421
 21
-80.138453
 31
0.0
  0
LINE
  8
DETAIL
  6
CONTINUOUS
 62
     5
 10
-99.382583
 20
-80.138453
 30
0.0
 11
-88.504887
 21
-80.138453
 31
0.0
  0
LINE
  8
DETAIL
  6
CONTINUOUS
 62
     5
 10
-112.803116
 20
-65.305232
 30
0.0
 11
-101.925421
 21
-65.305232
 31
0.0
  0
LINE
  8
DETAIL
  6
CONTINUOUS
 62
     5
 10
-99.382583
 20
-65.305232
 30
0.0
 11
-88.504887
 21
-65.305232
 31
0.0
  0
LINE
  8
DETAIL
  6
CONTINUOUS
 62
     5
 10
-139.644183
 20
-54.903055
 30
0.0
 11
-128.766488
 21
-54.903055
 31
0.0
  0
LINE
  8
DETAIL
  6
CONTINUOUS
 62
     5
 10
-126.22365
 20
-54.903055
 30
0.0
 11
-115.345954
 21
-54.903055
 31
0.0
  0
LINE
  8
DETAIL
  6
CONTINUOUS
 62
     5
 10
-139.644183
 20
-54.357235
 30
0.0
 11
-128.766488
 21
-54.357235
 31
0.0
  0
LINE
  8
DETAIL
  6
CONTINUOUS
 62
     5
 10
-126.22365
 20
-54.357235
 30
0.0
 11
-115.345954
 21
-54.357235
 31
0.0
  0
LINE
  8
DETAIL
  6
CONTINUOUS
 62
     5
 10
-139.644183
 20
-52.955924
 30
0.0
 11
-128.766488
 21
-52.955924
 31
0.0
  0
LINE
  8
DETAIL
  6
CONTINUOUS
 62
     5
 10
-126.22365
 20
-52.955924
 30
0.0
 11
-115.345954
 21
-52.955924
 31
0.0
  0
LINE
  8
DETAIL
  6
CONTINUOUS
 62
     5
 10
-115.345954
 20
-52.784024
 30
0.0
 11
-126.22365
 21
-52.784024
 31
0.0
  0
LINE
  8
DETAIL
  6
CONTINUOUS
 62
     5
 10
-128.766488
 20
-52.784024
 30
0.0
 11
-139.644183
 21
-52.784024
 31
0.0
  0
LINE
  8
DETAIL
  6
CONTINUOUS
 62
     5
 10
-115.345954
 20
-42.602698
 30
0.0
 11
-126.22365
 21
-42.602698
 31
0.0
  0
LINE
  8
DETAIL
  6
CONTINUOUS
 62
     5
 10
-128.766488
 20
-42.602698
 30
0.0
 11
-139.644183
 21
-42.602698
 31
0.0
  0
LINE
  8
DETAIL
  6
CONTINUOUS
 62
     5
 10
-166.48525
 20
-54.903055
 30
0.0
 11
-155.607555
 21
-54.903055
 31
0.0
  0
LINE
  8
DETAIL
  6
CONTINUOUS
 62
     5
 10
-153.064717
 20
-54.903055
 30
0.0
 11
-142.187021
 21
-54.903055
 31
0.0
  0
LINE
  8
DETAIL
  6
CONTINUOUS
 62
     5
 10
-166.48525
 20
-54.357235
 30
0.0
 11
-155.607555
 21
-54.357235
 31
0.0
  0
LINE
  8
DETAIL
  6
CONTINUOUS
 62
     5
 10
-153.064717
 20
-54.357235
 30
0.0
 11
-142.187021
 21
-54.357235
 31
0.0
  0
LINE
  8
DETAIL
  6
CONTINUOUS
 62
     5
 10
-166.48525
 20
-52.955924
 30
0.0
 11
-155.607555
 21
-52.955924
 31
0.0
  0
LINE
  8
DETAIL
  6
CONTINUOUS
 62
     5
 10
-153.064717
 20
-52.955924
 30
0.0
 11
-142.187021
 21
-52.955924
 31
0.0
  0
LINE
  8
DETAIL
  6
CONTINUOUS
 62
     5
 10
-142.187021
 20
-52.784024
 30
0.0
 11
-153.064717
 21
-52.784024
 31
0.0
  0
LINE
  8
DETAIL
  6
CONTINUOUS
 62
     5
 10
-155.607555
 20
-52.784024
 30
0.0
 11
-166.48525
 21
-52.784024
 31
0.0
  0
LINE
  8
DETAIL
  6
CONTINUOUS
 62
     5
 10
-142.187021
 20
-42.602698
 30
0.0
 11
-153.064717
 21
-42.602698
 31
0.0
  0
LINE
  8
DETAIL
  6
CONTINUOUS
 62
     5
 10
-155.607555
 20
-42.602698
 30
0.0
 11
-166.48525
 21
-42.602698
 31
0.0
  0
LINE
  8
DETAIL
  6
CONTINUOUS
 62
     5
 10
-139.644183
 20
-98.220724
 30
0.0
 11
-128.766488
 21
-98.220724
 31
0.0
  0
LINE
  8
DETAIL
  6
CONTINUOUS
 62
     5
 10
-126.22365
 20
-98.220724
 30
0.0
 11
-115.345954
 21
-98.220724
 31
0.0
  0
LINE
  8
DETAIL
  6
CONTINUOUS
 62
     5
 10
-139.644183
 20
-87.0117
 30
0.0
 11
-128.766488
 21
-87.0117
 31
0.0
  0
LINE
  8
DETAIL
  6
CONTINUOUS
 62
     5
 10
-126.22365
 20
-87.0117
 30
0.0
 11
-115.345954
 21
-87.0117
 31
0.0
  0
LINE
  8
DETAIL
  6
CONTINUOUS
 62
     5
 10
-139.644183
 20
-80.138453
 30
0.0
 11
-128.766488
 21
-80.138453
 31
0.0
  0
LINE
  8
DETAIL
  6
CONTINUOUS
 62
     5
 10
-126.22365
 20
-80.138453
 30
0.0
 11
-115.345954
 21
-80.138453
 31
0.0
  0
LINE
  8
DETAIL
  6
CONTINUOUS
 62
     5
 10
-139.644183
 20
-65.305232
 30
0.0
 11
-128.766488
 21
-65.305232
 31
0.0
  0
LINE
  8
DETAIL
  6
CONTINUOUS
 62
     5
 10
-126.22365
 20
-65.305232
 30
0.0
 11
-115.345954
 21
-65.305232
 31
0.0
  0
LINE
  8
DETAIL
  6
CONTINUOUS
 62
     5
 10
-166.48525
 20
-98.220724
 30
0.0
 11
-155.607555
 21
-98.220724
 31
0.0
  0
LINE
  8
DETAIL
  6
CONTINUOUS
 62
     5
 10
-153.064717
 20
-98.220724
 30
0.0
 11
-142.187021
 21
-98.220724
 31
0.0
  0
LINE
  8
DETAIL
  6
CONTINUOUS
 62
     5
 10
-166.48525
 20
-87.0117
 30
0.0
 11
-155.607555
 21
-87.0117
 31
0.0
  0
LINE
  8
DETAIL
  6
CONTINUOUS
 62
     5
 10
-153.064717
 20
-87.0117
 30
0.0
 11
-142.187021
 21
-87.0117
 31
0.0
  0
LINE
  8
DETAIL
  6
CONTINUOUS
 62
     5
 10
-166.48525
 20
-80.138453
 30
0.0
 11
-155.607555
 21
-80.138453
 31
0.0
  0
LINE
  8
DETAIL
  6
CONTINUOUS
 62
     5
 10
-153.064717
 20
-80.138453
 30
0.0
 11
-142.187021
 21
-80.138453
 31
0.0
  0
LINE
  8
DETAIL
  6
CONTINUOUS
 62
     5
 10
-166.48525
 20
-65.305232
 30
0.0
 11
-155.607555
 21
-65.305232
 31
0.0
  0
LINE
  8
DETAIL
  6
CONTINUOUS
 62
     5
 10
-153.064717
 20
-65.305232
 30
0.0
 11
-142.187021
 21
-65.305232
 31
0.0
  0
LINE
  8
DETAIL
  6
CONTINUOUS
 62
     5
 10
-170.228873
 20
-52.784024
 30
0.0
 11
-170.228873
 21
-52.955924
 31
0.0
  0
LINE
  8
DETAIL
  6
CONTINUOUS
 62
     5
 10
-179.905784
 20
-54.903055
 30
0.0
 11
-169.028088
 21
-54.903055
 31
0.0
  0
LINE
  8
DETAIL
  6
CONTINUOUS
 62
     5
 10
-179.905784
 20
-54.357235
 30
0.0
 11
-169.028088
 21
-54.357235
 31
0.0
  0
LINE
  8
DETAIL
  6
CONTINUOUS
 62
     5
 10
-179.905784
 20
-52.955924
 30
0.0
 11
-169.028088
 21
-52.955924
 31
0.0
  0
LINE
  8
DETAIL
  6
CONTINUOUS
 62
     5
 10
-169.028088
 20
-52.784024
 30
0.0
 11
-179.905784
 21
-52.784024
 31
0.0
  0
LINE
  8
DETAIL
  6
CONTINUOUS
 62
     5
 10
-169.028088
 20
-42.602698
 30
0.0
 11
-179.905784
 21
-42.602698
 31
0.0
  0
LINE
  8
DETAIL
  6
CONTINUOUS
 62
     5
 10
-179.905784
 20
-98.220724
 30
0.0
 11
-169.028088
 21
-98.220724
 31
0.0
  0
LINE
  8
DETAIL
  6
CONTINUOUS
 62
     5
 10
-179.905784
 20
-87.0117
 30
0.0
 11
-169.028088
 21
-87.0117
 31
0.0
  0
LINE
  8
DETAIL
  6
CONTINUOUS
 62
     5
 10
-179.905784
 20
-80.138453
 30
0.0
 11
-169.028088
 21
-80.138453
 31
0.0
  0
LINE
  8
DETAIL
  6
CONTINUOUS
 62
     5
 10
-179.905784
 20
-65.305232
 30
0.0
 11
-169.028088
 21
-65.305232
 31
0.0
  0
LINE
  8
DETAIL
  6
CONTINUOUS
 62
     5
 10
-7.981686
 20
-122.684727
 30
0.0
 11
-18.859381
 21
-122.684727
 31
0.0
  0
LINE
  8
DETAIL
  6
CONTINUOUS
 62
     5
 10
-21.402219
 20
-122.684727
 30
0.0
 11
-32.279915
 21
-122.684727
 31
0.0
  0
LINE
  8
DETAIL
  6
CONTINUOUS
 62
     5
 10
-7.981686
 20
-116.34552
 30
0.0
 11
-18.859381
 21
-116.34552
 31
0.0
  0
LINE
  8
DETAIL
  6
CONTINUOUS
 62
     5
 10
-21.402219
 20
-116.34552
 30
0.0
 11
-32.279915
 21
-116.34552
 31
0.0
  0
LINE
  8
DETAIL
  6
CONTINUOUS
 62
     5
 10
-32.279915
 20
-116.103528
 30
0.0
 11
-21.402219
 21
-116.103528
 31
0.0
  0
LINE
  8
DETAIL
  6
CONTINUOUS
 62
     5
 10
-18.859381
 20
-116.103528
 30
0.0
 11
-7.981686
 21
-116.103528
 31
0.0
  0
LINE
  8
DETAIL
  6
CONTINUOUS
 62
     5
 10
-32.279915
 20
-113.56069
 30
0.0
 11
-21.402219
 21
-113.56069
 31
0.0
  0
LINE
  8
DETAIL
  6
CONTINUOUS
 62
     5
 10
-18.859381
 20
-113.56069
 30
0.0
 11
-7.981686
 21
-113.56069
 31
0.0
  0
LINE
  8
DETAIL
  6
CONTINUOUS
 62
     5
 10
-34.822753
 20
-122.684727
 30
0.0
 11
-45.700448
 21
-122.684727
 31
0.0
  0
LINE
  8
DETAIL
  6
CONTINUOUS
 62
     5
 10
-48.243286
 20
-122.684727
 30
0.0
 11
-59.120982
 21
-122.684727
 31
0.0
  0
LINE
  8
DETAIL
  6
CONTINUOUS
 62
     5
 10
-34.822753
 20
-116.34552
 30
0.0
 11
-45.700448
 21
-116.34552
 31
0.0
  0
LINE
  8
DETAIL
  6
CONTINUOUS
 62
     5
 10
-48.243286
 20
-116.34552
 30
0.0
 11
-59.120982
 21
-116.34552
 31
0.0
  0
LINE
  8
DETAIL
  6
CONTINUOUS
 62
     5
 10
-59.120982
 20
-116.103528
 30
0.0
 11
-48.243286
 21
-116.103528
 31
0.0
  0
LINE
  8
DETAIL
  6
CONTINUOUS
 62
     5
 10
-45.700448
 20
-116.103528
 30
0.0
 11
-34.822753
 21
-116.103528
 31
0.0
  0
LINE
  8
DETAIL
  6
CONTINUOUS
 62
     5
 10
-59.120982
 20
-113.56069
 30
0.0
 11
-48.243286
 21
-113.56069
 31
0.0
  0
LINE
  8
DETAIL
  6
CONTINUOUS
 62
     5
 10
-45.700448
 20
-113.56069
 30
0.0
 11
-34.822753
 21
-113.56069
 31
0.0
  0
LINE
  8
DETAIL
  6
CONTINUOUS
 62
     5
 10
-32.279915
 20
-154.836576
 30
0.0
 11
-21.402219
 21
-154.836576
 31
0.0
  0
LINE
  8
DETAIL
  6
CONTINUOUS
 62
     5
 10
-18.859381
 20
-154.836576
 30
0.0
 11
-7.981686
 21
-154.836576
 31
0.0
  0
LINE
  8
DETAIL
  6
CONTINUOUS
 62
     5
 10
-32.279915
 20
-152.293738
 30
0.0
 11
-21.402219
 21
-152.293738
 31
0.0
  0
LINE
  8
DETAIL
  6
CONTINUOUS
 62
     5
 10
-18.859381
 20
-152.293738
 30
0.0
 11
-7.981686
 21
-152.293738
 31
0.0
  0
LINE
  8
DETAIL
  6
CONTINUOUS
 62
     5
 10
-32.279915
 20
-151.38543
 30
0.0
 11
-21.402219
 21
-151.38543
 31
0.0
  0
LINE
  8
DETAIL
  6
CONTINUOUS
 62
     5
 10
-18.859381
 20
-151.38543
 30
0.0
 11
-7.981686
 21
-151.38543
 31
0.0
  0
LINE
  8
DETAIL
  6
CONTINUOUS
 62
     5
 10
-32.279915
 20
-148.842592
 30
0.0
 11
-21.402219
 21
-148.842592
 31
0.0
  0
LINE
  8
DETAIL
  6
CONTINUOUS
 62
     5
 10
-18.859381
 20
-148.842592
 30
0.0
 11
-7.981686
 21
-148.842592
 31
0.0
  0
ARC
  8
DETAIL
  6
CONTINUOUS
 62
     5
 10
-20.1308
 20
-156.352957
 30
0.0
 40
1.271419
 50
180.0
 51
0.0
  0
ARC
  8
DETAIL
  6
CONTINUOUS
 62
     5
 10
-6.710267
 20
-156.352957
 30
0.0
 40
1.271419
 50
180.0
 51
0.0
  0
LINE
  8
DETAIL
  6
CONTINUOUS
 62
     5
 10
-59.120982
 20
-154.836576
 30
0.0
 11
-48.243286
 21
-154.836576
 31
0.0
  0
LINE
  8
DETAIL
  6
CONTINUOUS
 62
     5
 10
-45.700448
 20
-154.836576
 30
0.0
 11
-34.822753
 21
-154.836576
 31
0.0
  0
LINE
  8
DETAIL
  6
CONTINUOUS
 62
     5
 10
-59.120982
 20
-152.293738
 30
0.0
 11
-48.243286
 21
-152.293738
 31
0.0
  0
LINE
  8
DETAIL
  6
CONTINUOUS
 62
     5
 10
-45.700448
 20
-152.293738
 30
0.0
 11
-34.822753
 21
-152.293738
 31
0.0
  0
LINE
  8
DETAIL
  6
CONTINUOUS
 62
     5
 10
-59.120982
 20
-151.38543
 30
0.0
 11
-48.243286
 21
-151.38543
 31
0.0
  0
LINE
  8
DETAIL
  6
CONTINUOUS
 62
     5
 10
-45.700448
 20
-151.38543
 30
0.0
 11
-34.822753
 21
-151.38543
 31
0.0
  0
LINE
  8
DETAIL
  6
CONTINUOUS
 62
     5
 10
-59.120982
 20
-148.842592
 30
0.0
 11
-48.243286
 21
-148.842592
 31
0.0
  0
LINE
  8
DETAIL
  6
CONTINUOUS
 62
     5
 10
-45.700448
 20
-148.842592
 30
0.0
 11
-34.822753
 21
-148.842592
 31
0.0
  0
ARC
  8
DETAIL
  6
CONTINUOUS
 62
     5
 10
-46.971867
 20
-156.352957
 30
0.0
 40
1.271419
 50
180.0
 51
0.0
  0
ARC
  8
DETAIL
  6
CONTINUOUS
 62
     5
 10
-33.551334
 20
-156.352957
 30
0.0
 40
1.271419
 50
180.0
 51
0.0
  0
LINE
  8
DETAIL
  6
CONTINUOUS
 62
     5
 10
-61.66382
 20
-122.684727
 30
0.0
 11
-72.541516
 21
-122.684727
 31
0.0
  0
LINE
  8
DETAIL
  6
CONTINUOUS
 62
     5
 10
-75.084353
 20
-122.684727
 30
0.0
 11
-85.962049
 21
-122.684727
 31
0.0
  0
LINE
  8
DETAIL
  6
CONTINUOUS
 62
     5
 10
-61.66382
 20
-116.34552
 30
0.0
 11
-72.541516
 21
-116.34552
 31
0.0
  0
LINE
  8
DETAIL
  6
CONTINUOUS
 62
     5
 10
-75.084353
 20
-116.34552
 30
0.0
 11
-85.962049
 21
-116.34552
 31
0.0
  0
LINE
  8
DETAIL
  6
CONTINUOUS
 62
     5
 10
-85.962049
 20
-116.103528
 30
0.0
 11
-75.084353
 21
-116.103528
 31
0.0
  0
LINE
  8
DETAIL
  6
CONTINUOUS
 62
     5
 10
-72.541516
 20
-116.103528
 30
0.0
 11
-61.66382
 21
-116.103528
 31
0.0
  0
LINE
  8
DETAIL
  6
CONTINUOUS
 62
     5
 10
-85.962049
 20
-113.56069
 30
0.0
 11
-75.084353
 21
-113.56069
 31
0.0
  0
LINE
  8
DETAIL
  6
CONTINUOUS
 62
     5
 10
-72.541516
 20
-113.56069
 30
0.0
 11
-61.66382
 21
-113.56069
 31
0.0
  0
LINE
  8
DETAIL
  6
CONTINUOUS
 62
     5
 10
-88.504887
 20
-122.684727
 30
0.0
 11
-99.382583
 21
-122.684727
 31
0.0
  0
LINE
  8
DETAIL
  6
CONTINUOUS
 62
     5
 10
-101.925421
 20
-122.684727
 30
0.0
 11
-112.803116
 21
-122.684727
 31
0.0
  0
LINE
  8
DETAIL
  6
CONTINUOUS
 62
     5
 10
-88.504887
 20
-116.34552
 30
0.0
 11
-99.382583
 21
-116.34552
 31
0.0
  0
LINE
  8
DETAIL
  6
CONTINUOUS
 62
     5
 10
-101.925421
 20
-116.34552
 30
0.0
 11
-112.803116
 21
-116.34552
 31
0.0
  0
LINE
  8
DETAIL
  6
CONTINUOUS
 62
     5
 10
-112.803116
 20
-116.103528
 30
0.0
 11
-101.925421
 21
-116.103528
 31
0.0
  0
LINE
  8
DETAIL
  6
CONTINUOUS
 62
     5
 10
-99.382583
 20
-116.103528
 30
0.0
 11
-88.504887
 21
-116.103528
 31
0.0
  0
LINE
  8
DETAIL
  6
CONTINUOUS
 62
     5
 10
-112.803116
 20
-113.56069
 30
0.0
 11
-101.925421
 21
-113.56069
 31
0.0
  0
LINE
  8
DETAIL
  6
CONTINUOUS
 62
     5
 10
-99.382583
 20
-113.56069
 30
0.0
 11
-88.504887
 21
-113.56069
 31
0.0
  0
LINE
  8
DETAIL
  6
CONTINUOUS
 62
     5
 10
-85.962049
 20
-154.836576
 30
0.0
 11
-75.084353
 21
-154.836576
 31
0.0
  0
LINE
  8
DETAIL
  6
CONTINUOUS
 62
     5
 10
-72.541516
 20
-154.836576
 30
0.0
 11
-61.66382
 21
-154.836576
 31
0.0
  0
LINE
  8
DETAIL
  6
CONTINUOUS
 62
     5
 10
-85.962049
 20
-152.293738
 30
0.0
 11
-75.084353
 21
-152.293738
 31
0.0
  0
LINE
  8
DETAIL
  6
CONTINUOUS
 62
     5
 10
-72.541516
 20
-152.293738
 30
0.0
 11
-61.66382
 21
-152.293738
 31
0.0
  0
LINE
  8
DETAIL
  6
CONTINUOUS
 62
     5
 10
-85.962049
 20
-151.38543
 30
0.0
 11
-75.084353
 21
-151.38543
 31
0.0
  0
LINE
  8
DETAIL
  6
CONTINUOUS
 62
     5
 10
-72.541516
 20
-151.38543
 30
0.0
 11
-61.66382
 21
-151.38543
 31
0.0
  0
LINE
  8
DETAIL
  6
CONTINUOUS
 62
     5
 10
-85.962049
 20
-148.842592
 30
0.0
 11
-75.084353
 21
-148.842592
 31
0.0
  0
LINE
  8
DETAIL
  6
CONTINUOUS
 62
     5
 10
-72.541516
 20
-148.842592
 30
0.0
 11
-61.66382
 21
-148.842592
 31
0.0
  0
ARC
  8
DETAIL
  6
CONTINUOUS
 62
     5
 10
-73.812935
 20
-156.352957
 30
0.0
 40
1.271419
 50
180.0
 51
0.0
  0
LINE
  8
DETAIL
  6
CONTINUOUS
 62
     5
 10
-112.803116
 20
-154.836576
 30
0.0
 11
-101.925421
 21
-154.836576
 31
0.0
  0
LINE
  8
DETAIL
  6
CONTINUOUS
 62
     5
 10
-99.382583
 20
-154.836576
 30
0.0
 11
-88.504887
 21
-154.836576
 31
0.0
  0
LINE
  8
DETAIL
  6
CONTINUOUS
 62
     5
 10
-112.803116
 20
-152.293738
 30
0.0
 11
-101.925421
 21
-152.293738
 31
0.0
  0
LINE
  8
DETAIL
  6
CONTINUOUS
 62
     5
 10
-99.382583
 20
-152.293738
 30
0.0
 11
-88.504887
 21
-152.293738
 31
0.0
  0
LINE
  8
DETAIL
  6
CONTINUOUS
 62
     5
 10
-112.803116
 20
-151.38543
 30
0.0
 11
-101.925421
 21
-151.38543
 31
0.0
  0
LINE
  8
DETAIL
  6
CONTINUOUS
 62
     5
 10
-99.382583
 20
-151.38543
 30
0.0
 11
-88.504887
 21
-151.38543
 31
0.0
  0
LINE
  8
DETAIL
  6
CONTINUOUS
 62
     5
 10
-112.803116
 20
-148.842592
 30
0.0
 11
-101.925421
 21
-148.842592
 31
0.0
  0
LINE
  8
DETAIL
  6
CONTINUOUS
 62
     5
 10
-99.382583
 20
-148.842592
 30
0.0
 11
-88.504887
 21
-148.842592
 31
0.0
  0
ARC
  8
DETAIL
  6
CONTINUOUS
 62
     5
 10
-100.654002
 20
-156.352957
 30
0.0
 40
1.271419
 50
180.0
 51
0.0
  0
ARC
  8
DETAIL
  6
CONTINUOUS
 62
     5
 10
-87.233468
 20
-156.352957
 30
0.0
 40
1.271419
 50
180.0
 51
0.0
  0
ARC
  8
DETAIL
  6
CONTINUOUS
 62
     5
 10
-60.392401
 20
-156.352957
 30
0.0
 40
1.271419
 50
180.0
 51
0.0
  0
LINE
  8
DETAIL
  6
CONTINUOUS
 62
     5
 10
-115.345954
 20
-122.684727
 30
0.0
 11
-126.22365
 21
-122.684727
 31
0.0
  0
LINE
  8
DETAIL
  6
CONTINUOUS
 62
     5
 10
-128.766488
 20
-122.684727
 30
0.0
 11
-139.644183
 21
-122.684727
 31
0.0
  0
LINE
  8
DETAIL
  6
CONTINUOUS
 62
     5
 10
-115.345954
 20
-116.34552
 30
0.0
 11
-126.22365
 21
-116.34552
 31
0.0
  0
LINE
  8
DETAIL
  6
CONTINUOUS
 62
     5
 10
-128.766488
 20
-116.34552
 30
0.0
 11
-139.644183
 21
-116.34552
 31
0.0
  0
LINE
  8
DETAIL
  6
CONTINUOUS
 62
     5
 10
-139.644183
 20
-116.103528
 30
0.0
 11
-128.766488
 21
-116.103528
 31
0.0
  0
LINE
  8
DETAIL
  6
CONTINUOUS
 62
     5
 10
-126.22365
 20
-116.103528
 30
0.0
 11
-115.345954
 21
-116.103528
 31
0.0
  0
LINE
  8
DETAIL
  6
CONTINUOUS
 62
     5
 10
-139.644183
 20
-113.56069
 30
0.0
 11
-128.766488
 21
-113.56069
 31
0.0
  0
LINE
  8
DETAIL
  6
CONTINUOUS
 62
     5
 10
-126.22365
 20
-113.56069
 30
0.0
 11
-115.345954
 21
-113.56069
 31
0.0
  0
LINE
  8
DETAIL
  6
CONTINUOUS
 62
     5
 10
-142.187021
 20
-122.684727
 30
0.0
 11
-153.064717
 21
-122.684727
 31
0.0
  0
LINE
  8
DETAIL
  6
CONTINUOUS
 62
     5
 10
-155.607555
 20
-122.684727
 30
0.0
 11
-166.48525
 21
-122.684727
 31
0.0
  0
LINE
  8
DETAIL
  6
CONTINUOUS
 62
     5
 10
-142.187021
 20
-116.34552
 30
0.0
 11
-153.064717
 21
-116.34552
 31
0.0
  0
LINE
  8
DETAIL
  6
CONTINUOUS
 62
     5
 10
-155.607555
 20
-116.34552
 30
0.0
 11
-166.48525
 21
-116.34552
 31
0.0
  0
LINE
  8
DETAIL
  6
CONTINUOUS
 62
     5
 10
-166.48525
 20
-116.103528
 30
0.0
 11
-155.607555
 21
-116.103528
 31
0.0
  0
LINE
  8
DETAIL
  6
CONTINUOUS
 62
     5
 10
-153.064717
 20
-116.103528
 30
0.0
 11
-142.187021
 21
-116.103528
 31
0.0
  0
LINE
  8
DETAIL
  6
CONTINUOUS
 62
     5
 10
-166.48525
 20
-113.56069
 30
0.0
 11
-155.607555
 21
-113.56069
 31
0.0
  0
LINE
  8
DETAIL
  6
CONTINUOUS
 62
     5
 10
-153.064717
 20
-113.56069
 30
0.0
 11
-142.187021
 21
-113.56069
 31
0.0
  0
LINE
  8
DETAIL
  6
CONTINUOUS
 62
     5
 10
-139.644183
 20
-154.836576
 30
0.0
 11
-128.766488
 21
-154.836576
 31
0.0
  0
LINE
  8
DETAIL
  6
CONTINUOUS
 62
     5
 10
-126.22365
 20
-154.836576
 30
0.0
 11
-115.345954
 21
-154.836576
 31
0.0
  0
LINE
  8
DETAIL
  6
CONTINUOUS
 62
     5
 10
-139.644183
 20
-152.293738
 30
0.0
 11
-128.766488
 21
-152.293738
 31
0.0
  0
LINE
  8
DETAIL
  6
CONTINUOUS
 62
     5
 10
-126.22365
 20
-152.293738
 30
0.0
 11
-115.345954
 21
-152.293738
 31
0.0
  0
LINE
  8
DETAIL
  6
CONTINUOUS
 62
     5
 10
-139.644183
 20
-151.38543
 30
0.0
 11
-128.766488
 21
-151.38543
 31
0.0
  0
LINE
  8
DETAIL
  6
CONTINUOUS
 62
     5
 10
-126.22365
 20
-151.38543
 30
0.0
 11
-115.345954
 21
-151.38543
 31
0.0
  0
LINE
  8
DETAIL
  6
CONTINUOUS
 62
     5
 10
-139.644183
 20
-148.842592
 30
0.0
 11
-128.766488
 21
-148.842592
 31
0.0
  0
LINE
  8
DETAIL
  6
CONTINUOUS
 62
     5
 10
-126.22365
 20
-148.842592
 30
0.0
 11
-115.345954
 21
-148.842592
 31
0.0
  0
ARC
  8
DETAIL
  6
CONTINUOUS
 62
     5
 10
-127.495069
 20
-156.352957
 30
0.0
 40
1.271419
 50
180.0
 51
0.0
  0
LINE
  8
DETAIL
  6
CONTINUOUS
 62
     5
 10
-166.48525
 20
-154.836576
 30
0.0
 11
-155.607555
 21
-154.836576
 31
0.0
  0
LINE
  8
DETAIL
  6
CONTINUOUS
 62
     5
 10
-153.064717
 20
-154.836576
 30
0.0
 11
-142.187021
 21
-154.836576
 31
0.0
  0
LINE
  8
DETAIL
  6
CONTINUOUS
 62
     5
 10
-166.48525
 20
-152.293738
 30
0.0
 11
-155.607555
 21
-152.293738
 31
0.0
  0
LINE
  8
DETAIL
  6
CONTINUOUS
 62
     5
 10
-153.064717
 20
-152.293738
 30
0.0
 11
-142.187021
 21
-152.293738
 31
0.0
  0
LINE
  8
DETAIL
  6
CONTINUOUS
 62
     5
 10
-166.48525
 20
-151.38543
 30
0.0
 11
-155.607555
 21
-151.38543
 31
0.0
  0
LINE
  8
DETAIL
  6
CONTINUOUS
 62
     5
 10
-153.064717
 20
-151.38543
 30
0.0
 11
-142.187021
 21
-151.38543
 31
0.0
  0
LINE
  8
DETAIL
  6
CONTINUOUS
 62
     5
 10
-166.48525
 20
-148.842592
 30
0.0
 11
-155.607555
 21
-148.842592
 31
0.0
  0
LINE
  8
DETAIL
  6
CONTINUOUS
 62
     5
 10
-153.064717
 20
-148.842592
 30
0.0
 11
-142.187021
 21
-148.842592
 31
0.0
  0
ARC
  8
DETAIL
  6
CONTINUOUS
 62
     5
 10
-154.336136
 20
-156.352957
 30
0.0
 40
1.271419
 50
180.0
 51
0.0
  0
ARC
  8
DETAIL
  6
CONTINUOUS
 62
     5
 10
-140.915602
 20
-156.352957
 30
0.0
 40
1.271419
 50
180.0
 51
0.0
  0
LINE
  8
DETAIL
  6
CONTINUOUS
 62
     5
 10
-169.028088
 20
-122.684727
 30
0.0
 11
-179.905784
 21
-122.684727
 31
0.0
  0
LINE
  8
DETAIL
  6
CONTINUOUS
 62
     5
 10
-169.028088
 20
-116.34552
 30
0.0
 11
-179.905784
 21
-116.34552
 31
0.0
  0
LINE
  8
DETAIL
  6
CONTINUOUS
 62
     5
 10
-179.905784
 20
-116.103528
 30
0.0
 11
-169.028088
 21
-116.103528
 31
0.0
  0
LINE
  8
DETAIL
  6
CONTINUOUS
 62
     5
 10
-179.905784
 20
-113.56069
 30
0.0
 11
-169.028088
 21
-113.56069
 31
0.0
  0
LINE
  8
DETAIL
  6
CONTINUOUS
 62
     5
 10
-179.905784
 20
-154.836576
 30
0.0
 11
-169.028088
 21
-154.836576
 31
0.0
  0
LINE
  8
DETAIL
  6
CONTINUOUS
 62
     5
 10
-179.905784
 20
-152.293738
 30
0.0
 11
-169.028088
 21
-152.293738
 31
0.0
  0
LINE
  8
DETAIL
  6
CONTINUOUS
 62
     5
 10
-179.905784
 20
-151.38543
 30
0.0
 11
-169.028088
 21
-151.38543
 31
0.0
  0
LINE
  8
DETAIL
  6
CONTINUOUS
 62
     5
 10
-179.905784
 20
-148.842592
 30
0.0
 11
-169.028088
 21
-148.842592
 31
0.0
  0
ARC
  8
DETAIL
  6
CONTINUOUS
 62
     5
 10
-181.177203
 20
-156.352957
 30
0.0
 40
1.271419
 50
180.0
 51
0.0
  0
ARC
  8
DETAIL
  6
CONTINUOUS
 62
     5
 10
-167.756669
 20
-156.352957
 30
0.0
 40
1.271419
 50
180.0
 51
0.0
  0
ARC
  8
DETAIL
  6
CONTINUOUS
 62
     5
 10
-114.074535
 20
-156.352957
 30
0.0
 40
1.271419
 50
180.0
 51
0.0
  0
LINE
  8
DETAIL
  6
CONTINUOUS
 62
     5
 10
-182.448622
 20
-156.352957
 30
0.0
 11
-182.448622
 21
-33.747935
 31
0.0
  0
LINE
  8
DETAIL
  6
CONTINUOUS
 62
     5
 10
-179.905784
 20
-156.352957
 30
0.0
 11
-179.905784
 21
-33.748315
 31
0.0
  0
LINE
  8
DETAIL
  6
CONTINUOUS
 62
     5
 10
-169.028088
 20
-156.352957
 30
0.0
 11
-169.028088
 21
-33.749943
 31
0.0
  0
LINE
  8
DETAIL
  6
CONTINUOUS
 62
     5
 10
-166.48525
 20
-156.352957
 30
0.0
 11
-166.48525
 21
-33.750324
 31
0.0
  0
LINE
  8
DETAIL
  6
CONTINUOUS
 62
     5
 10
-155.607555
 20
-156.352957
 30
0.0
 11
-155.607555
 21
-33.751952
 31
0.0
  0
LINE
  8
DETAIL
  6
CONTINUOUS
 62
     5
 10
-153.064717
 20
-156.352957
 30
0.0
 11
-153.064717
 21
-33.752332
 31
0.0
  0
LINE
  8
DETAIL
  6
CONTINUOUS
 62
     5
 10
-142.187021
 20
-156.352957
 30
0.0
 11
-142.187021
 21
-33.75396
 31
0.0
  0
LINE
  8
DETAIL
  6
CONTINUOUS
 62
     5
 10
-139.644183
 20
-156.352957
 30
0.0
 11
-139.644183
 21
-33.754341
 31
0.0
  0
LINE
  8
DETAIL
  6
CONTINUOUS
 62
     5
 10
-128.766488
 20
-156.352957
 30
0.0
 11
-128.766488
 21
-33.757775
 31
0.0
  0
LINE
  8
DETAIL
  6
CONTINUOUS
 62
     5
 10
-126.22365
 20
-156.352957
 30
0.0
 11
-126.22365
 21
-33.757902
 31
0.0
  0
LINE
  8
DETAIL
  6
CONTINUOUS
 62
     5
 10
-115.345954
 20
-156.352957
 30
0.0
 11
-115.345954
 21
-33.758445
 31
0.0
  0
LINE
  8
DETAIL
  6
CONTINUOUS
 62
     5
 10
-112.803116
 20
-156.352957
 30
0.0
 11
-112.803116
 21
-33.758572
 31
0.0
  0
LINE
  8
DETAIL
  6
CONTINUOUS
 62
     5
 10
-101.925421
 20
-156.352957
 30
0.0
 11
-101.925421
 21
-33.759114
 31
0.0
  0
LINE
  8
DETAIL
  6
CONTINUOUS
 62
     5
 10
-99.382583
 20
-156.352957
 30
0.0
 11
-99.382583
 21
-33.759241
 31
0.0
  0
LINE
  8
DETAIL
  6
CONTINUOUS
 62
     5
 10
-88.504887
 20
-156.352957
 30
0.0
 11
-88.504887
 21
-33.759784
 31
0.0
  0
LINE
  8
DETAIL
  6
CONTINUOUS
 62
     5
 10
-85.962049
 20
-156.352957
 30
0.0
 11
-85.962049
 21
-33.759911
 31
0.0
  0
LINE
  8
DETAIL
  6
CONTINUOUS
 62
     5
 10
-75.084353
 20
-156.352957
 30
0.0
 11
-75.084353
 21
-33.760453
 31
0.0
  0
LINE
  8
DETAIL
  6
CONTINUOUS
 62
     5
 10
-72.541516
 20
-156.352957
 30
0.0
 11
-72.541516
 21
-33.76058
 31
0.0
  0
LINE
  8
DETAIL
  6
CONTINUOUS
 62
     5
 10
-61.66382
 20
-156.352957
 30
0.0
 11
-61.66382
 21
-33.761123
 31
0.0
  0
LINE
  8
DETAIL
  6
CONTINUOUS
 62
     5
 10
-59.120982
 20
-156.352957
 30
0.0
 11
-59.120982
 21
-33.76125
 31
0.0
  0
LINE
  8
DETAIL
  6
CONTINUOUS
 62
     5
 10
-48.243286
 20
-156.352957
 30
0.0
 11
-48.243286
 21
-33.761792
 31
0.0
  0
LINE
  8
DETAIL
  6
CONTINUOUS
 62
     5
 10
-45.700448
 20
-156.352957
 30
0.0
 11
-45.700448
 21
-33.761919
 31
0.0
  0
LINE
  8
DETAIL
  6
CONTINUOUS
 62
     5
 10
-34.822753
 20
-156.352957
 30
0.0
 11
-34.822753
 21
-33.762462
 31
0.0
  0
LINE
  8
DETAIL
  6
CONTINUOUS
 62
     5
 10
-32.279915
 20
-156.352957
 30
0.0
 11
-32.279915
 21
-33.762589
 31
0.0
  0
LINE
  8
DETAIL
  6
CONTINUOUS
 62
     5
 10
-21.402219
 20
-156.352957
 30
0.0
 11
-21.402219
 21
-33.763131
 31
0.0
  0
LINE
  8
DETAIL
  6
CONTINUOUS
 62
     5
 10
-18.859381
 20
-156.352957
 30
0.0
 11
-18.859381
 21
-33.763258
 31
0.0
  0
LINE
  8
DETAIL
  6
CONTINUOUS
 62
     5
 10
-7.981686
 20
-156.352957
 30
0.0
 11
-7.981686
 21
-33.763801
 31
0.0
  0
LINE
  8
DETAIL
  6
CONTINUOUS
 62
     5
 10
-5.438848
 20
-156.352957
 30
0.0
 11
-5.438848
 21
-33.763928
 31
0.0
  0
LINE
  8
DETAIL
  6
CONTINUOUS
 62
     5
 10
-5.438848
 20
-154.836576
 30
0.0
 11
5.438848
 21
-154.836576
 31
0.0
  0
LINE
  8
DETAIL
  6
CONTINUOUS
 62
     5
 10
-5.438848
 20
-152.293738
 30
0.0
 11
5.438848
 21
-152.293738
 31
0.0
  0
LINE
  8
DETAIL
  6
CONTINUOUS
 62
     5
 10
-5.438848
 20
-151.38543
 30
0.0
 11
5.438848
 21
-151.38543
 31
0.0
  0
LINE
  8
DETAIL
  6
CONTINUOUS
 62
     5
 10
-5.438848
 20
-148.842592
 30
0.0
 11
5.438848
 21
-148.842592
 31
0.0
  0
LINE
  8
DETAIL
  6
CONTINUOUS
 62
     5
 10
5.438848
 20
-122.684727
 30
0.0
 11
-5.438848
 21
-122.684727
 31
0.0
  0
LINE
  8
DETAIL
  6
CONTINUOUS
 62
     5
 10
5.438848
 20
-116.34552
 30
0.0
 11
-5.438848
 21
-116.34552
 31
0.0
  0
LINE
  8
DETAIL
  6
CONTINUOUS
 62
     5
 10
-5.438848
 20
-116.103528
 30
0.0
 11
5.438848
 21
-116.103528
 31
0.0
  0
LINE
  8
DETAIL
  6
CONTINUOUS
 62
     5
 10
-5.438848
 20
-113.56069
 30
0.0
 11
5.438848
 21
-113.56069
 31
0.0
  0
LINE
  8
DETAIL
  6
CONTINUOUS
 62
     5
 10
-5.438848
 20
-98.220724
 30
0.0
 11
5.438848
 21
-98.220724
 31
0.0
  0
LINE
  8
DETAIL
  6
CONTINUOUS
 62
     5
 10
-5.438848
 20
-87.0117
 30
0.0
 11
5.438848
 21
-87.0117
 31
0.0
  0
LINE
  8
DETAIL
  6
CONTINUOUS
 62
     5
 10
-5.438848
 20
-80.138453
 30
0.0
 11
5.438848
 21
-80.138453
 31
0.0
  0
LINE
  8
DETAIL
  6
CONTINUOUS
 62
     5
 10
-5.438848
 20
-65.305232
 30
0.0
 11
5.438848
 21
-65.305232
 31
0.0
  0
LINE
  8
DETAIL
  6
CONTINUOUS
 62
     5
 10
-5.438848
 20
-54.903055
 30
0.0
 11
5.438848
 21
-54.903055
 31
0.0
  0
LINE
  8
DETAIL
  6
CONTINUOUS
 62
     5
 10
-5.438848
 20
-54.357235
 30
0.0
 11
5.438848
 21
-54.357235
 31
0.0
  0
LINE
  8
DETAIL
  6
CONTINUOUS
 62
     5
 10
-5.438848
 20
-52.955924
 30
0.0
 11
5.438848
 21
-52.955924
 31
0.0
  0
LINE
  8
DETAIL
  6
CONTINUOUS
 62
     5
 10
5.438848
 20
-52.784024
 30
0.0
 11
-5.438848
 21
-52.784024
 31
0.0
  0
LINE
  8
DETAIL
  6
CONTINUOUS
 62
     5
 10
5.438848
 20
-42.602698
 30
0.0
 11
-5.438848
 21
-42.602698
 31
0.0
  0
LINE
  8
DETAIL
  6
CONTINUOUS
 62
     5
 39
50.0
 10
182.448622
 20
-47.509994
 30
0.0
 11
182.448622
 21
-28.0
 31
0.0
  0
LINE
  8
DETAIL
  6
CONTINUOUS
 62
     5
 39
50.0
 10
182.448622
 20
-28.0
 30
0.0
 11
249.0
 21
-28.0
 31
0.0
  0
LINE
  8
DETAIL
  6
CONTINUOUS
 62
     5
 39
50.0
 10
-182.448622
 20
-33.747935
 30
0.0
 11
182.448622
 21
-33.747935
 31
0.0
  0
LINE
  8
DETAIL
  6
CONTINUOUS
 62
     5
 39
50.0
 10
-182.448622
 20
-47.509994
 30
0.0
 11
-182.448622
 21
-28.0
 31
0.0
  0
LINE
  8
DETAIL
  6
CONTINUOUS
 62
     5
 39
50.0
 10
182.233964
 20
-39.210293
 30
0.0
 11
248.184849
 21
-39.210293
 31
0.0
  0
LINE
  8
DETAIL
  6
CONTINUOUS
 62
     5
 39
50.0
 10
247.755533
 20
-39.210293
 30
0.0
 11
182.233964
 21
-39.210293
 31
0.0
  0
LINE
  8
DETAIL
  6
CONTINUOUS
 62
     5
 39
50.0
 10
-182.66328
 20
-39.082532
 30
0.0
 11
-248.03526
 21
-39.082532
 31
0.0
  0
LINE
  8
NOTE
  6
CONTINUOUS
 62
     4
 10
-55.915408
 20
-20.0
 30
0.0
 11
-55.915408
 21
20.0
 31
0.0
  0
LINE
  8
NOTE
  6
CONTINUOUS
 62
     4
 10
-75.915408
 20
0.0
 30
0.0
 11
-35.915408
 21
0.0
 31
0.0
  0
LINE
  8
NOTE
  6
CONTINUOUS
 62
     4
 10
-31.500685
 20
31.684717
 30
0.0
 11
-55.915408
 21
0.0
 31
0.0
  0
LINE
  8
NOTE
  6
CONTINUOUS
 62
     4
 10
-55.915408
 20
0.0
 30
0.0
 11
-18.929279
 21
15.232408
 31
0.0
  0
LINE
  8
NOTE
  6
CONTINUOUS
 62
     4
 39
50.0
 10
340.820195
 20
287.023054
 30
0.0
 11
-55.915408
 21
0.0
 31
0.0
  0
ENDSEC
  0
EOF
