  0
SECTION
  2
HEADER
  9
$ACADVER
  1
AC1009
  9
$INSBASE
 10
0.0
 20
0.0
 30
0.0
  9
$EXTMIN
 10
-956.67570404088656
 20
-422.0123173692408
 30
-0.0015257624927045
  9
$EXTMAX
 10
447.29462759254238
 20
414.64234180124731
 30
50.001525995323327
  9
$LIMMIN
 10
-2970.0
 20
-2100.0
  9
$LIMMAX
 10
2970.0
 20
2100.0
  9
$ORTHOMODE
 70
     1
  9
$REGENMODE
 70
     1
  9
$FILLMODE
 70
     1
  9
$QTEXTMODE
 70
     0
  9
$MIRRTEXT
 70
     0
  9
$DRAGMODE
 70
     2
  9
$LTSCALE
 40
20.0
  9
$OSMODE
 70
    47
  9
$ATTMODE
 70
     1
  9
$TEXTSIZE
 40
64.0
  9
$TRACEWID
 40
0.05
  9
$TEXTSTYLE
  7
STANDARD
  9
$CLAYER
  8
SIZE
  9
$CELTYPE
  6
CONTINUOUS
  9
$CECOLOR
 62
    30
  9
$DIMSCALE
 40
1.0
  9
$DIMASZ
 40
40.0
  9
$DIMEXO
 40
20.0
  9
$DIMDLI
 40
200.0
  9
$DIMRND
 40
0.0
  9
$DIMDLE
 40
0.0
  9
$DIMEXE
 40
20.0
  9
$DIMTP
 40
0.0
  9
$DIMTM
 40
0.0
  9
$DIMTXT
 40
64.0
  9
$DIMCEN
 40
0.09
  9
$DIMTSZ
 40
0.0
  9
$DIMTOL
 70
     0
  9
$DIMLIM
 70
     0
  9
$DIMTIH
 70
     0
  9
$DIMTOH
 70
     0
  9
$DIMSE1
 70
     0
  9
$DIMSE2
 70
     0
  9
$DIMTAD
 70
     1
  9
$DIMZIN
 70
     8
  9
$DIMBLK
  1
NONE
  9
$DIMASO
 70
     1
  9
$DIMSHO
 70
     0
  9
$DIMPOST
  1

  9
$DIMAPOST
  1

  9
$DIMALT
 70
     0
  9
$DIMALTD
 70
     2
  9
$DIMALTF
 40
25.399999999999999
  9
$DIMLFAC
 40
1.0
  9
$DIMTOFL
 70
     1
  9
$DIMTVP
 40
0.0
  9
$DIMTIX
 70
     1
  9
$DIMSOXD
 70
     0
  9
$DIMSAH
 70
     0
  9
$DIMBLK1
  1
NONE
  9
$DIMBLK2
  1
ORIGIN
  9
$DIMSTYLE
  2
STANDARD
  9
$DIMCLRD
 70
   256
  9
$DIMCLRE
 70
   256
  9
$DIMCLRT
 70
   256
  9
$DIMTFAC
 40
1.0
  9
$DIMGAP
 40
25.0
  9
$LUNITS
 70
     2
  9
$LUPREC
 70
     4
  9
$SKETCHINC
 40
0.1
  9
$FILLETRAD
 40
5.0
  9
$AUNITS
 70
     1
  9
$AUPREC
 70
     3
  9
$MENU
  1
ACAD
  9
$ELEVATION
 40
0.0
  9
$PELEVATION
 40
0.0
  9
$THICKNESS
 40
50.0
  9
$LIMCHECK
 70
     0
  9
$BLIPMODE
 70
     0
  9
$CHAMFERA
 40
0.0
  9
$CHAMFERB
 40
0.0
  9
$SKPOLY
 70
     0
  9
$TDCREATE
 40
2453019.6230103709
  9
$TDUPDATE
 40
2455068.6439314238
  9
$TDINDWG
 40
0.3870610648
  9
$TDUSRTIMER
 40
0.3870608796
  9
$USRTIMER
 70
     1
  9
$ANGBASE
 50
0.0
  9
$ANGDIR
 70
     0
  9
$PDMODE
 70
     3
  9
$PDSIZE
 40
-2.0
  9
$PLINEWID
 40
0.0
  9
$COORDS
 70
     0
  9
$SPLFRAME
 70
     0
  9
$SPLINETYPE
 70
     6
  9
$SPLINESEGS
 70
     8
  9
$ATTDIA
 70
     0
  9
$ATTREQ
 70
     1
  9
$HANDLING
 70
     1
  9
$HANDSEED
  5
563
  9
$SURFTAB1
 70
     6
  9
$SURFTAB2
 70
     6
  9
$SURFTYPE
 70
     6
  9
$SURFU
 70
     6
  9
$SURFV
 70
     6
  9
$UCSNAME
  2

  9
$UCSORG
 10
0.0
 20
0.0
 30
0.0
  9
$UCSXDIR
 10
1.0
 20
0.0
 30
0.0
  9
$UCSYDIR
 10
0.0
 20
1.0
 30
0.0
  9
$PUCSNAME
  2

  9
$PUCSORG
 10
0.0
 20
0.0
 30
0.0
  9
$PUCSXDIR
 10
1.0
 20
0.0
 30
0.0
  9
$PUCSYDIR
 10
0.0
 20
1.0
 30
0.0
  9
$USERI1
 70
     0
  9
$USERI2
 70
     0
  9
$USERI3
 70
     0
  9
$USERI4
 70
     0
  9
$USERI5
 70
     0
  9
$USERR1
 40
20.0
  9
$USERR2
 40
0.0
  9
$USERR3
 40
0.0
  9
$USERR4
 40
0.0
  9
$USERR5
 40
0.0
  9
$WORLDVIEW
 70
     1
  9
$SHADEDGE
 70
     3
  9
$SHADEDIF
 70
    70
  9
$TILEMODE
 70
     1
  9
$MAXACTVP
 70
    48
  9
$PLIMCHECK
 70
     0
  9
$PEXTMIN
 10
-1.0000000000000000E+020
 20
-1.0000000000000000E+020
 30
-1.0000000000000000E+020
  9
$PEXTMAX
 10
1.0000000000000000E+020
 20
1.0000000000000000E+020
 30
1.0000000000000000E+020
  9
$PLIMMIN
 10
0.0
 20
0.0
  9
$PLIMMAX
 10
12.0
 20
9.0
  9
$UNITMODE
 70
     0
  9
$VISRETAIN
 70
     0
  9
$PLINEGEN
 70
     0
  9
$PSLTSCALE
 70
     0
  0
ENDSEC
  0
SECTION
  2
TABLES
  0
TABLE
  2
VPORT
 70
     1
  0
VPORT
  2
*ACTIVE
 70
     0
 10
0.0
 20
0.0
 11
1.0
 21
1.0
 12
-239.16470835641229
 22
3.4908760964881358
 13
0.0
 23
0.0
 14
1.0
 24
1.0
 15
0.0
 25
0.0
 16
0.0
 26
0.0
 36
1.0
 17
0.0
 27
0.0
 37
0.0
 40
1286.0388128459369
 41
1.2318059299191371
 42
50.0
 43
0.0
 44
0.0
 50
0.0
 51
0.0
 71
     0
 72
  1000
 73
     1
 74
     0
 75
     0
 76
     0
 77
     0
 78
     0
  0
ENDTAB
  0
TABLE
  2
LTYPE
 70
     2
  0
LTYPE
  2
CONTINUOUS
 70
     0
  3
実線
 72
    65
 73
     0
 40
0.0
  0
LTYPE
  2
DASHDOT
 70
     0
  3
____ _ ____ _ ____ _ ____ _ ____ _ ____ _ ____
 72
    65
 73
     4
 40
5.5
 49
4.0
 49
-0.6
 49
0.3
 49
-0.6
  0
ENDTAB
  0
TABLE
  2
LAYER
 70
    13
  0
LAYER
  2
0
 70
     0
 62
     7
  6
CONTINUOUS
  0
LAYER
  2
SIZE
 70
     0
 62
    30
  6
CONTINUOUS
  0
LAYER
  2
ARRANGE
 70
     0
 62
     1
  6
CONTINUOUS
  0
LAYER
  2
BASIS
 70
     0
 62
     6
  6
DASHDOT
  0
LAYER
  2
OUTLINE
 70
     0
 62
     3
  6
CONTINUOUS
  0
LAYER
  2
DETAIL
 70
     0
 62
     5
  6
CONTINUOUS
  0
LAYER
  2
DEFPOINTS
 70
     0
 62
     7
  6
CONTINUOUS
  0
LAYER
  2
ETC
 70
     0
 62
    61
  6
CONTINUOUS
  0
LAYER
  2
FIX
 70
     0
 62
    11
  6
CONTINUOUS
  0
LAYER
  2
NOTE
 70
     0
 62
     4
  6
CONTINUOUS
  0
LAYER
  2
SERVICESPACE
 70
     0
 62
     2
  6
DASHDOT
  0
LAYER
  2
SYMBOLLINE
 70
     0
 62
    15
  6
CONTINUOUS
  0
LAYER
  2
ARRENGE
 70
     0
 62
     1
  6
CONTINUOUS
  0
ENDTAB
  0
TABLE
  2
STYLE
 70
     2
  0
STYLE
  2
STANDARD
 70
     0
 40
64.0
 41
0.9
 50
0.0
 71
     0
 42
64.0
  3
SIMPLEX.shx
  4
BIGFONT.shx
  0
STYLE
  2
ANNOTATIVE
 70
     0
 40
0.0
 41
1.0
 50
0.0
 71
     0
 42
0.2
  3
txt
  4

  0
ENDTAB
  0
TABLE
  2
VIEW
 70
     1
  0
VIEW
  2
ALL
 70
     0
 40
4282.6198079999967
 10
0.0
 20
41.309903999999989
 41
5940.0
 11
0.0
 21
0.0
 31
1.0
 12
0.0
 22
0.0
 32
0.0
 42
50.0
 43
0.0
 44
0.0
 50
0.0
 71
     0
  0
ENDTAB
  0
TABLE
  2
UCS
 70
     0
  0
ENDTAB
  0
TABLE
  2
APPID
 70
     6
  0
APPID
  2
ACAD
 70
     0
  0
APPID
  2
ACADANNOTATIVE
 70
     0
  0
APPID
  2
ACAD_MLEADERVER
 70
     0
  0
APPID
  2
AUTOCAD_POSTSCRIPT_FIGURE
 70
     0
  0
APPID
  2
CONTENTBLOCKDESCRIPTION
 70
     0
  0
APPID
  2
CONTENTBLOCKICON
 70
     0
  0
ENDTAB
  0
TABLE
  2
DIMSTYLE
 70
     2
  0
DIMSTYLE
  2
STANDARD
 70
     0
  3

  4

  5

  6

  7

 40
1.0
 41
0.18
 42
0.0625
 43
0.38
 44
0.18
 45
0.0
 46
0.0
 47
0.0
 48
0.0
140
0.18
141
0.09
142
0.0
143
25.399999999999999
144
1.0
145
0.0
146
1.0
147
0.09
 71
     0
 72
     0
 73
     1
 74
     1
 75
     0
 76
     0
 77
     0
 78
     0
170
     0
171
     2
172
     0
173
     0
174
     0
175
     0
176
     7
177
     7
178
     7
  0
DIMSTYLE
  2
ANNOTATIVE
 70
     0
  3

  4

  5

  6

  7

 40
1.0
 41
0.18
 42
0.0625
 43
0.38
 44
0.18
 45
0.0
 46
0.0
 47
0.0
 48
0.0
140
0.18
141
0.09
142
0.0
143
25.399999999999999
144
1.0
145
0.0
146
1.0
147
0.09
 71
     0
 72
     0
 73
     1
 74
     1
 75
     0
 76
     0
 77
     0
 78
     0
170
     0
171
     2
172
     0
173
     0
174
     0
175
     0
176
     0
177
     0
178
     0
  0
ENDTAB
  0
ENDSEC
  0
SECTION
  2
BLOCKS
  0
BLOCK
  8
0
  2
$MODEL_SPACE
 70
     0
 10
0.0
 20
0.0
 30
0.0
  3
$MODEL_SPACE
  1

  0
ENDBLK
  5
504
  8
0
  0
BLOCK
 67
     1
  8
0
  2
$PAPER_SPACE
 70
     0
 10
0.0
 20
0.0
 30
0.0
  3
$PAPER_SPACE
  1

  0
ENDBLK
  5
500
 67
     1
  8
0
  0
BLOCK
  8
0
  2
DOT1
 70
     0
 10
0.0
 20
0.0
 30
0.0
  3
DOT1
  1

  0
CIRCLE
  5
3B2
  8
SIZE
  6
CONTINUOUS
 62
     7
 10
0.0
 20
0.0
 30
0.0
 40
3.0
  0
ENDBLK
  5
3B3
  8
0
  0
BLOCK
  8
0
  2
_ORIGIN
 70
     0
 10
0.0
 20
0.0
 30
0.0
  3
_ORIGIN
  1

  0
CIRCLE
  5
3B6
  8
0
  6
CONTINUOUS
 62
     7
 10
0.0
 20
0.0
 30
0.0
 40
0.5
  0
LINE
  5
3B7
  8
0
  6
CONTINUOUS
 62
     7
 10
0.0
 20
0.0
 30
0.0
 11
-1.0
 21
0.0
 31
0.0
  0
ENDBLK
  5
3B8
  8
0
  0
BLOCK
  8
0
 62
    30
  2
_NONE
 70
     0
 10
0.0
 20
0.0
 30
0.0
  3
_NONE
  1

  0
ENDBLK
  5
3BB
  8
0
 62
    30
  0
BLOCK
  8
0
 62
    30
  2
_OPEN30
 70
     0
 10
0.0
 20
0.0
 30
0.0
  3
_OPEN30
  1

  0
LINE
  5
3BE
  8
0
  6
BYBLOCK
 62
     0
 10
-1.0
 20
0.26794919
 30
0.0
 11
0.0
 21
0.0
 31
0.0
  0
LINE
  5
3BF
  8
0
  6
BYBLOCK
 62
     0
 10
0.0
 20
0.0
 30
0.0
 11
-1.0
 21
-0.26794919
 31
0.0
  0
LINE
  5
3C0
  8
0
  6
BYBLOCK
 62
     0
 10
0.0
 20
0.0
 30
0.0
 11
-1.0
 21
0.0
 31
0.0
  0
ENDBLK
  5
3C1
  8
0
 62
    30
  0
BLOCK
  8
0
 62
     1
  2
配置点
 70
     0
 10
0.0
 20
0.0
 30
0.0
  3
配置点
  1

  0
LINE
  5
43E
  8
ARRENGE
 62
     1
 10
189.77681747763211
 20
149.03934829407481
 30
0.0
 11
218.06108872509409
 21
177.3236195415368
 31
0.0
  0
LINE
  5
43F
  8
ARRENGE
 62
     1
 10
189.77681747763211
 20
177.3236195415368
 30
0.0
 11
218.06108872509409
 21
149.03934829407481
 31
0.0
  0
CIRCLE
  5
440
  8
ARRENGE
 62
     1
 10
203.91895310136309
 20
163.18148391780579
 30
0.0
 40
40.0
  0
ENDBLK
  5
442
  8
0
 62
     1
  0
ENDSEC
  0
SECTION
  2
ENTITIES
  0
LINE
  5
3C2
  8
BASIS
  6
DASHDOT
 62
     6
 39
50.0
 10
90.887010000000004
 20
0.0
 30
0.0
 11
-152.08586199999999
 21
0.0
 31
0.0
  0
LINE
  5
3C4
  8
DETAIL
  6
CONTINUOUS
 62
     5
 39
50.0
 10
0.0
 20
105.0
 30
0.0
 11
0.0
 21
-105.0
 31
0.0
  0
LINE
  5
3C5
  8
DETAIL
  6
CONTINUOUS
 62
     5
 39
50.0
 10
0.0
 20
-70.0
 30
0.0
 11
-60.0
 21
-70.0
 31
0.0
  0
LINE
  5
3C6
  8
DETAIL
  6
CONTINUOUS
 62
     5
 39
50.0
 10
-60.0
 20
-70.0
 30
0.0
 11
-60.0
 21
35.0
 31
0.0
  0
LINE
  5
3C7
  8
DETAIL
  6
CONTINUOUS
 62
     5
 39
50.0
 10
-60.0
 20
70.0
 30
0.0
 11
0.0
 21
70.0
 31
0.0
  0
LINE
  5
3C8
  8
DETAIL
  6
CONTINUOUS
 62
     5
 39
50.0
 10
-60.0
 20
31.5
 30
0.0
 11
-67.0
 21
31.5
 31
0.0
  0
LINE
  5
3C9
  8
DETAIL
  6
CONTINUOUS
 62
     5
 39
50.0
 10
-72.0
 20
26.5
 30
0.0
 11
-72.0
 21
-26.5
 31
0.0
  0
LINE
  5
3CA
  8
DETAIL
  6
CONTINUOUS
 62
     5
 39
50.0
 10
-67.0
 20
-31.5
 30
0.0
 11
-60.0
 21
-31.5
 31
0.0
  0
ARC
  5
3CB
  8
DETAIL
  6
CONTINUOUS
 62
     5
 39
50.0
 10
-67.0
 20
26.5
 30
0.0
 40
5.0
 50
90.0
 51
180.0
  0
ARC
  5
3CC
  8
DETAIL
  6
CONTINUOUS
 62
     5
 39
50.0
 10
-67.0
 20
-26.5
 30
0.0
 40
5.0
 50
180.0
 51
270.0
  0
LINE
  5
3CD
  8
DETAIL
  6
CONTINUOUS
 62
     5
 39
50.0
 10
-60.0
 20
65.0
 30
0.0
 11
0.0
 21
65.0
 31
0.0
  0
LINE
  5
3CE
  8
DETAIL
  6
CONTINUOUS
 62
     5
 39
50.0
 10
-60.0
 20
35.0
 30
0.0
 11
-48.0
 21
35.0
 31
0.0
  0
LINE
  5
3CF
  8
DETAIL
  6
CONTINUOUS
 62
     5
 39
50.0
 10
-31.258268000000001
 20
37.952019
 30
0.0
 11
-31.258268000000001
 21
46.952018999999993
 31
0.0
  0
LINE
  5
3D0
  8
DETAIL
  6
CONTINUOUS
 62
     5
 39
50.0
 10
-48.0
 20
35.0
 30
0.0
 11
-31.258268000000001
 21
37.952019
 31
0.0
  0
LINE
  5
3D1
  8
DETAIL
  6
CONTINUOUS
 62
     5
 39
50.0
 10
-48.0
 20
43.978225999999999
 30
0.0
 11
-31.258268000000001
 21
46.930244999999992
 31
0.0
  0
LINE
  5
3D2
  8
DETAIL
  6
CONTINUOUS
 62
     5
 39
50.0
 10
-48.0
 20
43.978225999999999
 30
0.0
 11
-60.0
 21
43.978225999999999
 31
0.0
  0
LINE
  5
3D3
  8
DETAIL
  6
CONTINUOUS
 62
     5
 39
50.0
 10
-48.0
 20
43.978225999999999
 30
0.0
 11
-48.0
 21
35.0
 31
0.0
  0
LINE
  5
3D4
  8
DETAIL
  6
CONTINUOUS
 62
     5
 39
50.0
 10
-58.0
 20
43.978225999999999
 30
0.0
 11
-58.0
 21
35.0
 31
0.0
  0
LINE
  5
3D5
  8
DETAIL
  6
CONTINUOUS
 62
     5
 39
50.0
 10
-60.0
 20
43.978225999999999
 30
0.0
 11
-60.0
 21
70.0
 31
0.0
  0
LINE
  5
3D6
  8
OUTLINE
  6
CONTINUOUS
 62
     3
 39
50.0
 10
0.0
 20
105.0
 30
0.0
 11
0.0
 21
-105.0
 31
0.0
  0
LINE
  5
3D7
  8
OUTLINE
  6
CONTINUOUS
 62
     3
 39
50.0
 10
0.0
 20
-70.0
 30
0.0
 11
-60.0
 21
-70.0
 31
0.0
  0
LINE
  5
3D8
  8
OUTLINE
  6
CONTINUOUS
 62
     3
 39
50.0
 10
-60.0
 20
-70.0
 30
0.0
 11
-60.0
 21
35.0
 31
0.0
  0
LINE
  5
3D9
  8
OUTLINE
  6
CONTINUOUS
 62
     3
 39
50.0
 10
-72.0
 20
26.5
 30
0.0
 11
-72.0
 21
-26.5
 31
0.0
  0
ARC
  5
3DA
  8
OUTLINE
  6
CONTINUOUS
 62
     3
 39
50.0
 10
-67.0
 20
-26.5
 30
0.0
 40
5.0
 50
180.0
 51
270.0
  0
LINE
  5
3DB
  8
OUTLINE
  6
CONTINUOUS
 62
     3
 39
50.0
 10
-67.0
 20
-31.5
 30
0.0
 11
-60.0
 21
-31.5
 31
0.0
  0
ARC
  5
3DC
  8
OUTLINE
  6
CONTINUOUS
 62
     3
 39
50.0
 10
-67.0
 20
26.5
 30
0.0
 40
5.0
 50
90.0
 51
180.0
  0
LINE
  5
3DD
  8
OUTLINE
  6
CONTINUOUS
 62
     3
 39
50.0
 10
-60.0
 20
31.5
 30
0.0
 11
-67.0
 21
31.5
 31
0.0
  0
LINE
  5
3DE
  8
OUTLINE
  6
CONTINUOUS
 62
     3
 39
50.0
 10
-60.0
 20
70.0
 30
0.0
 11
0.0
 21
70.0
 31
0.0
  0
LINE
  5
3DF
  8
OUTLINE
  6
CONTINUOUS
 62
     3
 39
50.0
 10
-60.0
 20
43.978225999999999
 30
0.0
 11
-60.0
 21
70.0
 31
0.0
  0
LINE
  5
3E0
  8
OUTLINE
  6
CONTINUOUS
 62
     3
 39
50.0
 10
-48.0
 20
43.978225999999999
 30
0.0
 11
-31.258268000000001
 21
46.930244999999992
 31
0.0
  0
LINE
  5
3E1
  8
OUTLINE
  6
CONTINUOUS
 62
     3
 39
50.0
 10
-31.258268000000001
 20
37.952019
 30
0.0
 11
-31.258268000000001
 21
46.952018999999993
 31
0.0
  0
LINE
  5
3E2
  8
OUTLINE
  6
CONTINUOUS
 62
     3
 39
50.0
 10
-48.0
 20
35.0
 30
0.0
 11
-31.258268000000001
 21
37.952019
 31
0.0
  0
LINE
  5
3E3
  8
OUTLINE
  6
CONTINUOUS
 62
     3
 39
50.0
 10
-48.0
 20
43.978225999999999
 30
0.0
 11
-60.0
 21
43.978225999999999
 31
0.0
  0
LINE
  5
3E4
  8
OUTLINE
  6
CONTINUOUS
 62
     3
 39
50.0
 10
-60.0
 20
35.0
 30
0.0
 11
-48.0
 21
35.0
 31
0.0
  0
ARC
  5
3E5
  8
FIX
  6
CONTINUOUS
 62
    11
 39
50.0
 10
0.0
 20
0.0
 30
0.0
 40
2.0
 50
180.0
 51
0.0
  0
ARC
  5
3E6
  8
FIX
  6
CONTINUOUS
 62
    11
 39
50.0
 10
0.0
 20
6.0
 30
0.0
 40
2.0
 50
0.0
 51
180.0
  0
LINE
  5
3E7
  8
FIX
  6
CONTINUOUS
 62
    11
 39
50.0
 10
-2.0
 20
6.0
 30
0.0
 11
-2.0
 21
0.0
 31
0.0
  0
LINE
  5
3E8
  8
FIX
  6
CONTINUOUS
 62
    11
 39
50.0
 10
2.0
 20
6.0
 30
0.0
 11
2.0
 21
0.0
 31
0.0
  0
LINE
  5
3E9
  8
NOTE
  6
CONTINUOUS
 62
     4
 10
0.0
 20
-20.0
 30
0.0
 11
0.0
 21
20.0
 31
0.0
  0
LINE
  5
3EA
  8
NOTE
  6
CONTINUOUS
 62
     4
 10
20.0
 20
0.0
 30
0.0
 11
-20.0
 21
0.0
 31
0.0
  0
LINE
  5
3EB
  8
NOTE
  6
CONTINUOUS
 62
     4
 39
50.0
 10
0.0
 20
0.0
 30
0.0
 11
0.0
 21
6.0
 31
0.0
  0
LINE
  5
3EC
  8
NOTE
  6
CONTINUOUS
 62
     4
 10
0.0
 20
-14.0
 30
0.0
 11
0.0
 21
26.0
 31
0.0
  0
LINE
  5
3ED
  8
NOTE
  6
CONTINUOUS
 62
     4
 10
20.0
 20
6.0
 30
0.0
 11
-20.0
 21
6.0
 31
0.0
  0
LINE
  5
3EE
  8
SIZE
  6
CONTINUOUS
 62
    30
 10
-80.0
 20
-70.0
 30
0.0
 11
-410.74616628056719
 21
-70.0
 31
0.0
  0
LINE
  5
3EF
  8
SIZE
  6
CONTINUOUS
 62
    30
 10
-80.0
 20
70.0
 30
0.0
 11
-409.27545189604803
 21
70.0
 31
0.0
  0
LINE
  5
3F0
  8
SIZE
  6
CONTINUOUS
 62
    30
 10
-387.2348834090169
 20
58.0
 30
0.0
 11
-387.2348834090169
 21
-58.0
 31
0.0
  0
LINE
  5
3F1
  8
SIZE
  6
CONTINUOUS
 62
    30
 10
-387.2348834090169
 20
-70.0
 30
0.0
 11
-387.2348834090169
 21
-333.44971499999991
 31
0.0
  0
CIRCLE
  5
3F2
  8
SIZE
  6
CONTINUOUS
 62
    30
 10
-387.2348834090169
 20
70.0
 30
0.0
 40
6.0
  0
LINE
  5
3F3
  8
SIZE
  6
CONTINUOUS
 62
    30
 10
-387.2348834090169
 20
70.0
 30
0.0
 11
-387.2348834090169
 21
58.0
 31
0.0
  0
CIRCLE
  5
3F4
  8
SIZE
  6
CONTINUOUS
 62
    30
 10
-387.2348834090169
 20
-70.0
 30
0.0
 40
6.0
  0
LINE
  5
3F5
  8
SIZE
  6
CONTINUOUS
 62
    30
 10
-387.2348834090169
 20
-70.0
 30
0.0
 11
-387.2348834090169
 21
-58.0
 31
0.0
  0
TEXT
  5
3F6
  8
SIZE
  6
CONTINUOUS
 62
    30
 10
-412.2348834090169
 20
-322.71257157142861
 30
0.0
 40
64.0
  1
φ140
 50
90.0
 41
0.9
 72
     1
 11
-412.2348834090169
 21
-213.82114300000001
 31
0.0
  0
LINE
  5
3F7
  8
SIZE
  6
CONTINUOUS
 62
    30
 10
-60.0
 20
-90.0
 30
0.0
 11
-60.0
 21
-285.00448848238278
 31
0.0
  0
LINE
  5
3F8
  8
SIZE
  6
CONTINUOUS
 62
    30
 10
-72.0
 20
-264.65865385193632
 30
0.0
 11
-247.49676068648469
 21
-264.65865385193632
 31
0.0
  0
LINE
  5
3F9
  8
SIZE
  6
CONTINUOUS
 62
    30
 10
0.0
 20
-264.65865385193632
 30
0.0
 11
-60.0
 21
-264.65865385193632
 31
0.0
  0
CIRCLE
  5
3FA
  8
SIZE
  6
CONTINUOUS
 62
    30
 10
0.0
 20
-264.65865385193632
 30
0.0
 40
6.0
  0
CIRCLE
  5
3FB
  8
SIZE
  6
CONTINUOUS
 62
    30
 10
-60.0
 20
-264.65865385193632
 30
0.0
 40
6.0
  0
LINE
  5
3FC
  8
SIZE
  6
CONTINUOUS
 62
    30
 10
-60.0
 20
-264.65865385193632
 30
0.0
 11
-72.0
 21
-264.65865385193632
 31
0.0
  0
TEXT
  5
3FD
  8
SIZE
  6
CONTINUOUS
 62
    30
 10
-221.023885629962
 20
-239.65865385193609
 30
0.0
 40
64.0
  1
60
 41
0.9
 72
     1
 11
-174.39531420139051
 21
-239.65865385193609
 31
0.0
  0
LINE
  5
3FE
  8
SIZE
  6
CONTINUOUS
 62
    30
 10
0.0
 20
-125.0
 30
0.0
 11
0.0
 21
-420.25362409247958
 31
0.0
  0
LINE
  5
3FF
  8
SIZE
  6
CONTINUOUS
 62
    30
 10
-72.0
 20
-46.5
 30
0.0
 11
-72.0
 21
-420.25362409247958
 31
0.0
  0
LINE
  5
400
  8
SIZE
  6
CONTINUOUS
 62
    30
 10
-12.0
 20
-398.42980785193618
 30
0.0
 11
-65.0
 21
-398.42980785193618
 31
0.0
  0
LINE
  5
401
  8
SIZE
  6
CONTINUOUS
 62
    30
 10
-77.0
 20
-398.42980785193618
 30
0.0
 11
-246.02604630196581
 21
-398.42980785193618
 31
0.0
  0
CIRCLE
  5
402
  8
SIZE
  6
CONTINUOUS
 62
    30
 10
0.0
 20
-398.42980785193618
 30
0.0
 40
6.0
  0
LINE
  5
403
  8
SIZE
  6
CONTINUOUS
 62
    30
 10
0.0
 20
-398.42980785193618
 30
0.0
 11
-12.0
 21
-398.42980785193618
 31
0.0
  0
CIRCLE
  5
404
  8
SIZE
  6
CONTINUOUS
 62
    30
 10
-72.0
 20
-398.42980785193618
 30
0.0
 40
6.0
  0
LINE
  5
405
  8
SIZE
  6
CONTINUOUS
 62
    30
 10
-77.0
 20
-398.42980785193618
 30
0.0
 11
-65.0
 21
-398.42980785193618
 31
0.0
  0
TEXT
  5
406
  8
SIZE
  6
CONTINUOUS
 62
    30
 10
-216.6117384426089
 20
-373.42980785193618
 30
0.0
 40
64.0
  1
72
 41
0.9
 72
     1
 11
-169.98316701403741
 21
-373.42980785193618
 31
0.0
  0
TEXT
  5
407
  8
NOTE
  6
CONTINUOUS
 62
     4
 10
-949.83296399999995
 20
131.20128099999991
 30
0.0
 40
64.0
  1
2ヶ所×4×10取付用長穴
 41
0.9
  0
LINE
  5
408
  8
NOTE
  6
CONTINUOUS
 62
     4
 39
50.0
 10
0.0
 20
6.0
 30
0.0
 11
-125.454346
 21
116.80816899999991
 31
0.0
  0
LINE
  5
409
  8
NOTE
  6
CONTINUOUS
 62
     4
 39
50.0
 10
-125.454346
 20
116.80816899999991
 30
0.0
 11
-956.37026000000003
 21
116.80816899999991
 31
0.0
  0
LINE
  5
40A
  8
NOTE
  6
CONTINUOUS
 62
     4
 10
-21.751380000000001
 20
39.568995999999991
 30
0.0
 11
0.0
 21
6.0
 31
0.0
  0
LINE
  5
40B
  8
NOTE
  6
CONTINUOUS
 62
     4
 10
0.0
 20
6.0
 30
0.0
 11
-35.621746000000002
 21
24.195913000000001
 31
0.0
  0
LINE
  5
40C
  8
SIZE
  6
CONTINUOUS
 62
    30
 10
-40.0
 20
6.0
 30
0.0
 11
-225.542914
 21
6.0
 31
0.0
  0
LINE
  5
40D
  8
SIZE
  6
CONTINUOUS
 62
    30
 10
-20.0
 20
0.0
 30
0.0
 11
-225.542914
 21
0.0
 31
0.0
  0
LINE
  5
40E
  8
SIZE
  6
CONTINUOUS
 62
    30
 10
-205.542914
 20
18.0
 30
0.0
 11
-205.542914
 21
30.0
 31
0.0
  0
LINE
  5
40F
  8
SIZE
  6
CONTINUOUS
 62
    30
 10
-205.542914
 20
-12.0
 30
0.0
 11
-205.542914
 21
-58.609195913226813
 31
0.0
  0
LINE
  5
410
  8
SIZE
  6
CONTINUOUS
 62
    30
 10
-205.542914
 20
6.0
 30
0.0
 11
-205.542914
 21
0.0
 31
0.0
  0
CIRCLE
  5
411
  8
SIZE
  6
CONTINUOUS
 62
    30
 10
-205.542914
 20
6.0
 30
0.0
 40
6.0
  0
LINE
  5
412
  8
SIZE
  6
CONTINUOUS
 62
    30
 10
-205.542914
 20
6.0
 30
0.0
 11
-205.542914
 21
18.0
 31
0.0
  0
CIRCLE
  5
413
  8
SIZE
  6
CONTINUOUS
 62
    30
 10
-205.542914
 20
0.0
 30
0.0
 40
6.0
  0
LINE
  5
414
  8
SIZE
  6
CONTINUOUS
 62
    30
 10
-205.542914
 20
0.0
 30
0.0
 11
-205.542914
 21
-12.0
 31
0.0
  0
TEXT
  5
415
  8
SIZE
  6
CONTINUOUS
 62
    30
 10
-230.542914
 20
-49.788599642894951
 30
0.0
 40
64.0
  1
6
 50
90.0
 41
0.9
 72
     1
 11
-230.542914
 21
-31.960028214323529
 31
0.0
  0
LINE
  5
416
  8
NOTE
  6
CONTINUOUS
 62
     4
 10
-60.0
 20
50.0
 30
0.0
 11
-60.0
 21
90.0
 31
0.0
  0
LINE
  5
417
  8
NOTE
  6
CONTINUOUS
 62
     4
 10
-40.0
 20
70.0
 30
0.0
 11
-80.0
 21
70.0
 31
0.0
  0
TEXT
  5
418
  8
NOTE
  6
CONTINUOUS
 62
     4
 10
-214.29607100000001
 20
243.56359900000001
 30
0.0
 40
64.0
  1
EL
 41
0.9
  0
LINE
  5
419
  8
NOTE
  6
CONTINUOUS
 62
     4
 10
-65.510223999999994
 20
109.6186499999999
 30
0.0
 11
-60.0
 21
70.0
 31
0.0
  0
LINE
  5
41A
  8
NOTE
  6
CONTINUOUS
 62
     4
 10
-60.0
 20
70.0
 30
0.0
 11
-84.581319999999977
 21
101.555645
 31
0.0
  0
LINE
  5
41B
  8
NOTE
  6
CONTINUOUS
 62
     4
 39
50.0
 10
-128.43808799999999
 20
223.66779999999989
 30
0.0
 11
-219.47355200000001
 21
223.66779999999989
 31
0.0
  0
LINE
  5
41C
  8
NOTE
  6
CONTINUOUS
 62
     4
 39
50.0
 10
-128.43808799999999
 20
223.66779999999989
 30
0.0
 11
-60.0
 21
70.0
 31
0.0
  0
LINE
  5
41D
  8
DETAIL
  6
CONTINUOUS
 62
     5
 39
50.0
 10
0.0
 20
105.0
 30
0.0
 11
0.0
 21
-105.0
 31
0.0
  0
LINE
  5
41E
  8
DETAIL
  6
CONTINUOUS
 62
     5
 39
50.0
 10
0.0
 20
105.0
 30
0.0
 11
27.730746000000011
 21
105.0
 31
0.0
  0
LINE
  5
41F
  8
DETAIL
  6
CONTINUOUS
 62
     5
 39
50.0
 10
0.0
 20
-105.0
 30
0.0
 11
21.972770000000001
 21
-105.0
 31
0.0
  0
ARC
  5
420
  8
DETAIL
  6
CONTINUOUS
 62
     5
 39
50.0
 10
-517.70000000000005
 20
15.619999999999999
 30
0.0
 40
556.91909099999987
 50
347.90769599999987
 51
8.7941380000000002
  0
ARC
  5
421
  8
DETAIL
  6
CONTINUOUS
 62
     5
 39
50.0
 10
27.730746000000011
 20
100.0
 30
0.0
 40
5.0
 50
8.7941380000000002
 51
90.0
  0
ARC
  5
422
  8
DETAIL
  6
CONTINUOUS
 62
     5
 39
50.0
 10
21.972770000000001
 20
-100.0
 30
0.0
 40
5.0
 50
270.0
 51
347.90769599999987
  0
ARC
  5
423
  8
OUTLINE
  6
CONTINUOUS
 62
     3
 39
50.0
 10
-517.70000000000005
 20
15.619999999999999
 30
0.0
 40
556.91909099999987
 50
347.90769599999987
 51
8.7941380000000002
  0
LINE
  5
424
  8
OUTLINE
  6
CONTINUOUS
 62
     3
 39
50.0
 10
0.0
 20
105.0
 30
0.0
 11
0.0
 21
-105.0
 31
0.0
  0
ARC
  5
425
  8
OUTLINE
  6
CONTINUOUS
 62
     3
 39
50.0
 10
21.972770000000001
 20
-100.0
 30
0.0
 40
5.0
 50
270.0
 51
347.90769599999987
  0
LINE
  5
426
  8
OUTLINE
  6
CONTINUOUS
 62
     3
 39
50.0
 10
0.0
 20
-105.0
 30
0.0
 11
21.972770000000001
 21
-105.0
 31
0.0
  0
ARC
  5
427
  8
OUTLINE
  6
CONTINUOUS
 62
     3
 39
50.0
 10
27.730746000000011
 20
100.0
 30
0.0
 40
5.0
 50
8.7941380000000002
 51
90.0
  0
LINE
  5
428
  8
OUTLINE
  6
CONTINUOUS
 62
     3
 39
50.0
 10
0.0
 20
105.0
 30
0.0
 11
27.730746000000011
 21
105.0
 31
0.0
  0
LINE
  5
429
  8
SIZE
  6
CONTINUOUS
 62
    30
 10
39.0
 20
-20.0
 30
0.0
 11
39.0
 21
-421.72372392097208
 31
0.0
  0
LINE
  5
42A
  8
SIZE
  6
CONTINUOUS
 62
    30
 10
-12.0
 20
-398.42980785193618
 30
0.0
 11
-24.0
 21
-398.42980785193618
 31
0.0
  0
LINE
  5
42B
  8
SIZE
  6
CONTINUOUS
 62
    30
 10
51.0
 20
-398.42980785193618
 30
0.0
 11
203.514286
 21
-398.42980785193618
 31
0.0
  0
LINE
  5
42C
  8
SIZE
  6
CONTINUOUS
 62
    30
 10
0.0
 20
-398.42980785193618
 30
0.0
 11
39.0
 21
-398.42980785193618
 31
0.0
  0
CIRCLE
  5
42D
  8
SIZE
  6
CONTINUOUS
 62
    30
 10
0.0
 20
-398.42980785193618
 30
0.0
 40
6.0
  0
LINE
  5
42E
  8
SIZE
  6
CONTINUOUS
 62
    30
 10
0.0
 20
-398.42980785193618
 30
0.0
 11
-12.0
 21
-398.42980785193618
 31
0.0
  0
CIRCLE
  5
42F
  8
SIZE
  6
CONTINUOUS
 62
    30
 10
39.0
 20
-398.42980785193618
 30
0.0
 40
6.0
  0
LINE
  5
430
  8
SIZE
  6
CONTINUOUS
 62
    30
 10
39.0
 20
-398.42980785193618
 30
0.0
 11
51.0
 21
-398.42980785193618
 31
0.0
  0
TEXT
  5
431
  8
SIZE
  6
CONTINUOUS
 62
    30
 10
88.000000142857047
 20
-373.42980785193618
 30
0.0
 40
64.0
  1
39
 41
0.9
 72
     1
 11
133.2571429999999
 21
-373.42980785193618
 31
0.0
  0
TEXT
  5
433
  8
ETC
  6
CONTINUOUS
 62
    61
 10
214.40058194479681
 20
245.70135948603351
 30
0.0
 40
40.0
  1
V-12P6
 41
0.9
  0
TEXT
  5
434
  8
ETC
  6
CONTINUOUS
 62
    61
 10
102.179640034258
 20
364.54634986350891
 30
0.0
 40
50.0
  1
V-12P6_5
 41
0.9
  0
TEXT
  5
435
  8
ETC
  6
CONTINUOUS
 62
    61
 10
97.766778034257939
 20
297.75893386350901
 30
0.0
 40
50.0
  1
換気扇
 41
0.9
  0
TEXT
  5
436
  8
SIZE
  6
CONTINUOUS
 62
    30
 10
209.89263431784039
 20
-103.61320575944291
 30
0.0
 40
64.0
  1
□210
 50
90.0
 41
0.9
 72
     1
 11
209.89263431784039
 21
1.438222811985695
 31
0.0
  0
CIRCLE
  5
437
  8
SIZE
  6
CONTINUOUS
 62
    30
 39
50.0
 10
233.4271617210577
 20
104.9999999999997
 30
0.0
 40
6.0
  0
CIRCLE
  5
438
  8
SIZE
  6
CONTINUOUS
 62
    30
 39
50.0
 10
233.4271617210577
 20
-105.0
 30
0.0
 40
6.0
  0
LINE
  5
439
  8
SIZE
  6
CONTINUOUS
 10
47.730746000000003
 20
104.9999999999997
 30
0.0
 11
253.4271617210579
 21
104.9999999999997
 31
0.0
  0
LINE
  5
43A
  8
SIZE
  6
CONTINUOUS
 10
41.972769999999983
 20
-105.0
 30
0.0
 11
253.4271617210579
 21
-105.0
 31
0.0
  0
LINE
  5
43B
  8
SIZE
  6
CONTINUOUS
 10
233.4271617210577
 20
104.9999999999997
 30
0.0
 11
233.4271617210577
 21
-105.0
 31
0.0
  0
INSERT
  5
449
  8
SIZE
  6
CONTINUOUS
 62
    30
  2
配置点
 10
-203.91895310136309
 20
-163.18148391780579
 30
0.0
  0
ENDSEC
  0
EOF
