  0
SECTION
  2
HEADER
  9
$ACADVER
  1
AC1009
  9
$INSBASE
 10
0.0
 20
0.0
 30
0.0
  9
$EXTMIN
 10
-1035.076888214189
 20
-397.65928999714021
 30
-0.0015257624927045
  9
$EXTMAX
 10
517.99164915921938
 20
434.18885061306531
 30
50.001525995323327
  9
$LIMMIN
 10
-2970.0
 20
-2100.0
  9
$LIMMAX
 10
2970.0
 20
2100.0
  9
$ORTHOMODE
 70
     1
  9
$REGENMODE
 70
     1
  9
$FILLMODE
 70
     1
  9
$QTEXTMODE
 70
     0
  9
$MIRRTEXT
 70
     0
  9
$DRAGMODE
 70
     2
  9
$LTSCALE
 40
20.0
  9
$OSMODE
 70
    47
  9
$ATTMODE
 70
     1
  9
$TEXTSIZE
 40
64.0
  9
$TRACEWID
 40
0.05
  9
$TEXTSTYLE
  7
STANDARD
  9
$CLAYER
  8
OUTLINE
  9
$CELTYPE
  6
CONTINUOUS
  9
$CECOLOR
 62
     3
  9
$DIMSCALE
 40
1.0
  9
$DIMASZ
 40
12.0
  9
$DIMEXO
 40
20.0
  9
$DIMDLI
 40
200.0
  9
$DIMRND
 40
0.0
  9
$DIMDLE
 40
0.0
  9
$DIMEXE
 40
20.0
  9
$DIMTP
 40
0.0
  9
$DIMTM
 40
0.0
  9
$DIMTXT
 40
64.0
  9
$DIMCEN
 40
0.09
  9
$DIMTSZ
 40
0.0
  9
$DIMTOL
 70
     0
  9
$DIMLIM
 70
     0
  9
$DIMTIH
 70
     0
  9
$DIMTOH
 70
     0
  9
$DIMSE1
 70
     0
  9
$DIMSE2
 70
     0
  9
$DIMTAD
 70
     1
  9
$DIMZIN
 70
     8
  9
$DIMBLK
  1
DOT1
  9
$DIMASO
 70
     1
  9
$DIMSHO
 70
     0
  9
$DIMPOST
  1

  9
$DIMAPOST
  1

  9
$DIMALT
 70
     0
  9
$DIMALTD
 70
     2
  9
$DIMALTF
 40
25.399999999999999
  9
$DIMLFAC
 40
1.0
  9
$DIMTOFL
 70
     1
  9
$DIMTVP
 40
0.0
  9
$DIMTIX
 70
     1
  9
$DIMSOXD
 70
     0
  9
$DIMSAH
 70
     1
  9
$DIMBLK1
  1
ORIGIN
  9
$DIMBLK2
  1
ORIGIN
  9
$DIMSTYLE
  2
STANDARD
  9
$DIMCLRD
 70
     7
  9
$DIMCLRE
 70
     7
  9
$DIMCLRT
 70
     7
  9
$DIMTFAC
 40
1.0
  9
$DIMGAP
 40
25.0
  9
$LUNITS
 70
     2
  9
$LUPREC
 70
     4
  9
$SKETCHINC
 40
0.1
  9
$FILLETRAD
 40
10.0
  9
$AUNITS
 70
     1
  9
$AUPREC
 70
     3
  9
$MENU
  1
ACAD
  9
$ELEVATION
 40
0.0
  9
$PELEVATION
 40
0.0
  9
$THICKNESS
 40
50.0
  9
$LIMCHECK
 70
     0
  9
$BLIPMODE
 70
     0
  9
$CHAMFERA
 40
0.0
  9
$CHAMFERB
 40
0.0
  9
$SKPOLY
 70
     0
  9
$TDCREATE
 40
2453019.6230103709
  9
$TDUPDATE
 40
2455065.5655319798
  9
$TDINDWG
 40
0.3842431134
  9
$TDUSRTIMER
 40
0.3842427662
  9
$USRTIMER
 70
     1
  9
$ANGBASE
 50
0.0
  9
$ANGDIR
 70
     0
  9
$PDMODE
 70
     3
  9
$PDSIZE
 40
-2.0
  9
$PLINEWID
 40
0.0
  9
$COORDS
 70
     0
  9
$SPLFRAME
 70
     0
  9
$SPLINETYPE
 70
     6
  9
$SPLINESEGS
 70
     8
  9
$ATTDIA
 70
     0
  9
$ATTREQ
 70
     1
  9
$HANDLING
 70
     1
  9
$HANDSEED
  5
60B
  9
$SURFTAB1
 70
     6
  9
$SURFTAB2
 70
     6
  9
$SURFTYPE
 70
     6
  9
$SURFU
 70
     6
  9
$SURFV
 70
     6
  9
$UCSNAME
  2

  9
$UCSORG
 10
0.0
 20
0.0
 30
0.0
  9
$UCSXDIR
 10
1.0
 20
0.0
 30
0.0
  9
$UCSYDIR
 10
0.0
 20
1.0
 30
0.0
  9
$PUCSNAME
  2

  9
$PUCSORG
 10
0.0
 20
0.0
 30
0.0
  9
$PUCSXDIR
 10
1.0
 20
0.0
 30
0.0
  9
$PUCSYDIR
 10
0.0
 20
1.0
 30
0.0
  9
$USERI1
 70
     0
  9
$USERI2
 70
     0
  9
$USERI3
 70
     0
  9
$USERI4
 70
     0
  9
$USERI5
 70
     0
  9
$USERR1
 40
20.0
  9
$USERR2
 40
0.0
  9
$USERR3
 40
0.0
  9
$USERR4
 40
0.0
  9
$USERR5
 40
0.0
  9
$WORLDVIEW
 70
     1
  9
$SHADEDGE
 70
     3
  9
$SHADEDIF
 70
    70
  9
$TILEMODE
 70
     1
  9
$MAXACTVP
 70
    48
  9
$PLIMCHECK
 70
     0
  9
$PEXTMIN
 10
-1.0000000000000000E+020
 20
-1.0000000000000000E+020
 30
-1.0000000000000000E+020
  9
$PEXTMAX
 10
1.0000000000000000E+020
 20
1.0000000000000000E+020
 30
1.0000000000000000E+020
  9
$PLIMMIN
 10
0.0
 20
0.0
  9
$PLIMMAX
 10
12.0
 20
9.0
  9
$UNITMODE
 70
     0
  9
$VISRETAIN
 70
     0
  9
$PLINEGEN
 70
     0
  9
$PSLTSCALE
 70
     0
  0
ENDSEC
  0
SECTION
  2
TABLES
  0
TABLE
  2
VPORT
 70
     1
  0
VPORT
  2
*ACTIVE
 70
     0
 10
0.0
 20
0.0
 11
1.0
 21
1.0
 12
-192.90168927761809
 22
-25.672594155380921
 13
0.0
 23
0.0
 14
1.0
 24
1.0
 15
0.0
 25
0.0
 16
0.0
 26
0.0
 36
1.0
 17
0.0
 27
0.0
 37
0.0
 40
1408.9338886184589
 41
1.2435374149659859
 42
50.0
 43
0.0
 44
0.0
 50
0.0
 51
0.0
 71
     0
 72
  1000
 73
     1
 74
     0
 75
     0
 76
     0
 77
     0
 78
     0
  0
ENDTAB
  0
TABLE
  2
LTYPE
 70
     2
  0
LTYPE
  2
CONTINUOUS
 70
     0
  3
実線
 72
    65
 73
     0
 40
0.0
  0
LTYPE
  2
DASHDOT
 70
     0
  3
____ _ ____ _ ____ _ ____ _ ____ _ ____ _ ____
 72
    65
 73
     4
 40
5.5
 49
4.0
 49
-0.6
 49
0.3
 49
-0.6
  0
ENDTAB
  0
TABLE
  2
LAYER
 70
    12
  0
LAYER
  2
0
 70
     0
 62
     7
  6
CONTINUOUS
  0
LAYER
  2
OUTLINE
 70
     0
 62
     3
  6
CONTINUOUS
  0
LAYER
  2
DETAIL
 70
     0
 62
     5
  6
CONTINUOUS
  0
LAYER
  2
BASIS
 70
     0
 62
     6
  6
DASHDOT
  0
LAYER
  2
SIZE
 70
     0
 62
    30
  6
CONTINUOUS
  0
LAYER
  2
ARRANGE
 70
     0
 62
     1
  6
CONTINUOUS
  0
LAYER
  2
DEFPOINTS
 70
     0
 62
     7
  6
CONTINUOUS
  0
LAYER
  2
ETC
 70
     0
 62
    61
  6
CONTINUOUS
  0
LAYER
  2
FIX
 70
     0
 62
    11
  6
CONTINUOUS
  0
LAYER
  2
NOTE
 70
     0
 62
     4
  6
CONTINUOUS
  0
LAYER
  2
SERVICESPACE
 70
     0
 62
     2
  6
DASHDOT
  0
LAYER
  2
SYMBOLLINE
 70
     0
 62
    15
  6
CONTINUOUS
  0
ENDTAB
  0
TABLE
  2
STYLE
 70
     2
  0
STYLE
  2
STANDARD
 70
     0
 40
64.0
 41
0.9
 50
0.0
 71
     0
 42
64.0
  3
SIMPLEX.shx
  4
BIGFONT.shx
  0
STYLE
  2
ANNOTATIVE
 70
     0
 40
0.0
 41
1.0
 50
0.0
 71
     0
 42
0.2
  3
txt
  4

  0
ENDTAB
  0
TABLE
  2
VIEW
 70
     1
  0
VIEW
  2
ALL
 70
     0
 40
4282.6198079999967
 10
0.0
 20
41.309903999999989
 41
5940.0
 11
0.0
 21
0.0
 31
1.0
 12
0.0
 22
0.0
 32
0.0
 42
50.0
 43
0.0
 44
0.0
 50
0.0
 71
     0
  0
ENDTAB
  0
TABLE
  2
UCS
 70
     0
  0
ENDTAB
  0
TABLE
  2
APPID
 70
     4
  0
APPID
  2
ACAD
 70
     0
  0
APPID
  2
ACADANNOTATIVE
 70
     0
  0
APPID
  2
ACAD_MLEADERVER
 70
     0
  0
APPID
  2
AUTOCAD_POSTSCRIPT_FIGURE
 70
     0
  0
ENDTAB
  0
TABLE
  2
DIMSTYLE
 70
     2
  0
DIMSTYLE
  2
STANDARD
 70
     0
  3

  4

  5

  6

  7

 40
1.0
 41
0.18
 42
0.0625
 43
0.38
 44
0.18
 45
0.0
 46
0.0
 47
0.0
 48
0.0
140
0.18
141
0.09
142
0.0
143
25.399999999999999
144
1.0
145
0.0
146
1.0
147
0.09
 71
     0
 72
     0
 73
     1
 74
     1
 75
     0
 76
     0
 77
     0
 78
     0
170
     0
171
     2
172
     0
173
     0
174
     0
175
     0
176
     7
177
     7
178
     7
  0
DIMSTYLE
  2
ANNOTATIVE
 70
     0
  3

  4

  5

  6

  7

 40
1.0
 41
0.18
 42
0.0625
 43
0.38
 44
0.18
 45
0.0
 46
0.0
 47
0.0
 48
0.0
140
0.18
141
0.09
142
0.0
143
25.399999999999999
144
1.0
145
0.0
146
1.0
147
0.09
 71
     0
 72
     0
 73
     1
 74
     1
 75
     0
 76
     0
 77
     0
 78
     0
170
     0
171
     2
172
     0
173
     0
174
     0
175
     0
176
     0
177
     0
178
     0
  0
ENDTAB
  0
ENDSEC
  0
SECTION
  2
BLOCKS
  0
BLOCK
  8
0
  2
$MODEL_SPACE
 70
     0
 10
0.0
 20
0.0
 30
0.0
  3
$MODEL_SPACE
  1

  0
ENDBLK
  5
5B3
  8
0
  0
BLOCK
 67
     1
  8
0
  2
$PAPER_SPACE
 70
     0
 10
0.0
 20
0.0
 30
0.0
  3
$PAPER_SPACE
  1

  0
ENDBLK
  5
5AF
 67
     1
  8
0
  0
BLOCK
  8
0
  2
DOT1
 70
     0
 10
0.0
 20
0.0
 30
0.0
  3
DOT1
  1

  0
CIRCLE
  5
451
  8
SIZE
  6
CONTINUOUS
 62
     7
 10
0.0
 20
0.0
 30
0.0
 40
3.0
  0
ENDBLK
  5
452
  8
0
  0
BLOCK
  8
0
  2
_ORIGIN
 70
     0
 10
0.0
 20
0.0
 30
0.0
  3
_ORIGIN
  1

  0
CIRCLE
  5
455
  8
0
  6
CONTINUOUS
 62
     7
 10
0.0
 20
0.0
 30
0.0
 40
0.5
  0
LINE
  5
456
  8
0
  6
CONTINUOUS
 62
     7
 10
0.0
 20
0.0
 30
0.0
 11
-1.0
 21
0.0
 31
0.0
  0
ENDBLK
  5
457
  8
0
  0
BLOCK
  8
0
 62
     4
  2
_NONE
 70
     0
 10
0.0
 20
0.0
 30
0.0
  3
_NONE
  1

  0
ENDBLK
  5
45A
  8
0
 62
     4
  0
BLOCK
  8
0
 62
     4
  2
_OPEN30
 70
     0
 10
0.0
 20
0.0
 30
0.0
  3
_OPEN30
  1

  0
LINE
  5
45D
  8
0
  6
BYBLOCK
 62
     0
 10
-1.0
 20
0.26794919
 30
0.0
 11
0.0
 21
0.0
 31
0.0
  0
LINE
  5
45E
  8
0
  6
BYBLOCK
 62
     0
 10
0.0
 20
0.0
 30
0.0
 11
-1.0
 21
-0.26794919
 31
0.0
  0
LINE
  5
45F
  8
0
  6
BYBLOCK
 62
     0
 10
0.0
 20
0.0
 30
0.0
 11
-1.0
 21
0.0
 31
0.0
  0
ENDBLK
  5
460
  8
0
 62
     4
  0
ENDSEC
  0
SECTION
  2
ENTITIES
  0
LINE
  5
461
  8
BASIS
  6
DASHDOT
 62
     6
 39
50.0
 10
0.0
 20
138.35705218252721
 30
0.0
 11
0.0
 21
-129.92572100000001
 31
0.0
  0
POINT
  5
462
  8
ARRANGE
  6
CONTINUOUS
 62
     1
 10
0.0
 20
0.0
 30
0.0
 39
50.0
  0
CIRCLE
  5
463
  8
ARRANGE
  6
CONTINUOUS
 62
     1
 39
50.0
 10
0.0
 20
0.0
 30
0.0
 40
40.0
  0
LINE
  5
464
  8
DETAIL
  6
CONTINUOUS
 62
     5
 39
50.0
 10
95.0
 20
-105.0
 30
0.0
 11
-95.0
 21
-105.0
 31
0.0
  0
LINE
  5
465
  8
DETAIL
  6
CONTINUOUS
 62
     5
 39
50.0
 10
-105.0
 20
-95.0
 30
0.0
 11
-105.0
 21
95.0
 31
0.0
  0
LINE
  5
466
  8
DETAIL
  6
CONTINUOUS
 62
     5
 39
50.0
 10
-95.0
 20
105.0
 30
0.0
 11
95.0
 21
105.0
 31
0.0
  0
LINE
  5
467
  8
DETAIL
  6
CONTINUOUS
 62
     5
 39
50.0
 10
105.0
 20
95.0
 30
0.0
 11
105.0
 21
-95.0
 31
0.0
  0
ARC
  5
468
  8
DETAIL
  6
CONTINUOUS
 62
     5
 39
50.0
 10
95.0
 20
95.0
 30
0.0
 40
10.0
 50
0.0
 51
90.0
  0
ARC
  5
469
  8
DETAIL
  6
CONTINUOUS
 62
     5
 39
50.0
 10
-95.0
 20
95.0
 30
0.0
 40
10.0
 50
90.0
 51
180.0
  0
ARC
  5
46A
  8
DETAIL
  6
CONTINUOUS
 62
     5
 39
50.0
 10
-95.0
 20
-95.0
 30
0.0
 40
10.0
 50
180.0
 51
270.0
  0
ARC
  5
46B
  8
DETAIL
  6
CONTINUOUS
 62
     5
 39
50.0
 10
95.0
 20
-95.0
 30
0.0
 40
10.0
 50
270.0
 51
0.0
  0
LINE
  5
46C
  8
BASIS
  6
DASHDOT
 62
     6
 39
50.0
 10
150.90963915406971
 20
0.0
 30
0.0
 11
-147.0709582983053
 21
0.0
 31
0.0
  0
ARC
  5
46D
  8
FIX
  6
CONTINUOUS
 62
    11
 39
50.0
 10
95.0
 20
6.0
 30
0.0
 40
2.0
 50
0.0
 51
180.0
  0
ARC
  5
46E
  8
FIX
  6
CONTINUOUS
 62
    11
 39
50.0
 10
95.0
 20
0.0
 30
0.0
 40
2.0
 50
180.0
 51
0.0
  0
LINE
  5
46F
  8
FIX
  6
CONTINUOUS
 62
    11
 39
50.0
 10
93.0
 20
6.0
 30
0.0
 11
93.0
 21
0.0
 31
0.0
  0
LINE
  5
470
  8
FIX
  6
CONTINUOUS
 62
    11
 39
50.0
 10
97.0
 20
6.0
 30
0.0
 11
97.0
 21
0.0
 31
0.0
  0
LINE
  5
471
  8
NOTE
  6
CONTINUOUS
 62
     4
 39
50.0
 10
95.0
 20
-2.0
 30
0.0
 11
95.0
 21
0.0
 31
0.0
  0
LINE
  5
472
  8
NOTE
  6
CONTINUOUS
 62
     4
 10
95.0
 20
-20.0
 30
0.0
 11
95.0
 21
20.0
 31
0.0
  0
LINE
  5
473
  8
NOTE
  6
CONTINUOUS
 62
     4
 10
115.0
 20
0.0
 30
0.0
 11
75.0
 21
0.0
 31
0.0
  0
LINE
  5
474
  8
NOTE
  6
CONTINUOUS
 62
     4
 39
50.0
 10
95.0
 20
0.0
 30
0.0
 11
95.0
 21
6.0
 31
0.0
  0
LINE
  5
475
  8
NOTE
  6
CONTINUOUS
 62
     4
 10
95.0
 20
-14.0
 30
0.0
 11
95.0
 21
26.0
 31
0.0
  0
LINE
  5
476
  8
NOTE
  6
CONTINUOUS
 62
     4
 10
115.0
 20
6.0
 30
0.0
 11
75.0
 21
6.0
 31
0.0
  0
LINE
  5
477
  8
NOTE
  6
CONTINUOUS
 62
     4
 39
50.0
 10
-95.0
 20
0.0
 30
0.0
 11
-95.0
 21
6.0
 31
0.0
  0
LINE
  5
478
  8
NOTE
  6
CONTINUOUS
 62
     4
 39
50.0
 10
-95.0
 20
0.0
 30
0.0
 11
-109.9799949999999
 21
0.0
 31
0.0
  0
LINE
  5
479
  8
NOTE
  6
CONTINUOUS
 62
     4
 39
50.0
 10
-95.0
 20
-2.0
 30
0.0
 11
-95.0
 21
0.0
 31
0.0
  0
ARC
  5
47A
  8
FIX
  6
CONTINUOUS
 62
    11
 39
50.0
 10
-95.0
 20
0.0
 30
0.0
 40
2.0
 50
180.0
 51
0.0
  0
ARC
  5
47B
  8
FIX
  6
CONTINUOUS
 62
    11
 39
50.0
 10
-95.0
 20
6.0
 30
0.0
 40
2.0
 50
0.0
 51
180.0
  0
LINE
  5
47C
  8
FIX
  6
CONTINUOUS
 62
    11
 39
50.0
 10
-93.0
 20
6.0
 30
0.0
 11
-93.0
 21
0.0
 31
0.0
  0
LINE
  5
47D
  8
FIX
  6
CONTINUOUS
 62
    11
 39
50.0
 10
-97.0
 20
6.0
 30
0.0
 11
-97.0
 21
0.0
 31
0.0
  0
LINE
  5
47E
  8
NOTE
  6
CONTINUOUS
 62
     4
 10
-95.0
 20
-14.0
 30
0.0
 11
-95.0
 21
26.0
 31
0.0
  0
LINE
  5
47F
  8
NOTE
  6
CONTINUOUS
 62
     4
 10
-75.0
 20
6.0
 30
0.0
 11
-115.0
 21
6.0
 31
0.0
  0
LINE
  5
480
  8
NOTE
  6
CONTINUOUS
 62
     4
 10
-95.0
 20
-20.0
 30
0.0
 11
-95.0
 21
20.0
 31
0.0
  0
LINE
  5
481
  8
NOTE
  6
CONTINUOUS
 62
     4
 10
-75.0
 20
0.0
 30
0.0
 11
-115.0
 21
0.0
 31
0.0
  0
LINE
  5
482
  8
OUTLINE
  6
CONTINUOUS
 62
     3
 39
50.0
 10
-95.0
 20
105.0
 30
0.0
 11
95.0
 21
105.0
 31
0.0
  0
LINE
  5
483
  8
OUTLINE
  6
CONTINUOUS
 62
     3
 39
50.0
 10
105.0
 20
95.0
 30
0.0
 11
105.0
 21
-95.0
 31
0.0
  0
ARC
  5
484
  8
OUTLINE
  6
CONTINUOUS
 62
     3
 39
50.0
 10
95.0
 20
95.0
 30
0.0
 40
10.0
 50
0.0
 51
90.0
  0
LINE
  5
485
  8
OUTLINE
  6
CONTINUOUS
 62
     3
 39
50.0
 10
-105.0
 20
-95.0
 30
0.0
 11
-105.0
 21
95.0
 31
0.0
  0
ARC
  5
486
  8
OUTLINE
  6
CONTINUOUS
 62
     3
 39
50.0
 10
-95.0
 20
95.0
 30
0.0
 40
10.0
 50
90.0
 51
180.0
  0
LINE
  5
487
  8
OUTLINE
  6
CONTINUOUS
 62
     3
 39
50.0
 10
95.0
 20
-105.0
 30
0.0
 11
-95.0
 21
-105.0
 31
0.0
  0
ARC
  5
488
  8
OUTLINE
  6
CONTINUOUS
 62
     3
 39
50.0
 10
-95.0
 20
-95.0
 30
0.0
 40
10.0
 50
180.0
 51
270.0
  0
ARC
  5
489
  8
OUTLINE
  6
CONTINUOUS
 62
     3
 39
50.0
 10
95.0
 20
-95.0
 30
0.0
 40
10.0
 50
270.0
 51
0.0
  0
LINE
  5
48A
  8
SIZE
  6
CONTINUOUS
 62
    30
 10
95.0
 20
-20.0
 30
0.0
 11
95.0
 21
-255.33233599999991
 31
0.0
  0
LINE
  5
48B
  8
SIZE
  6
CONTINUOUS
 62
    30
 10
-95.0
 20
-20.0
 30
0.0
 11
-95.0
 21
-255.33233599999991
 31
0.0
  0
LINE
  5
48C
  8
SIZE
  6
CONTINUOUS
 62
    30
 10
83.0
 20
-235.332336
 30
0.0
 11
-83.0
 21
-235.332336
 31
0.0
  0
CIRCLE
  5
48D
  8
SIZE
  6
CONTINUOUS
 62
    30
 10
95.0
 20
-235.332336
 30
0.0
 40
6.0
  0
LINE
  5
48E
  8
SIZE
  6
CONTINUOUS
 62
    30
 10
95.0
 20
-235.332336
 30
0.0
 11
83.0
 21
-235.332336
 31
0.0
  0
CIRCLE
  5
48F
  8
SIZE
  6
CONTINUOUS
 62
    30
 10
-95.0
 20
-235.332336
 30
0.0
 40
6.0
  0
LINE
  5
490
  8
SIZE
  6
CONTINUOUS
 62
    30
 10
-95.0
 20
-235.332336
 30
0.0
 11
-83.0
 21
-235.332336
 31
0.0
  0
TEXT
  5
491
  8
SIZE
  6
CONTINUOUS
 62
    30
 10
-68.571428571428569
 20
-210.332336
 30
0.0
 40
64.0
  1
190
 41
0.9
 72
     1
 11
0.0
 21
-210.332336
 31
0.0
  0
LINE
  5
492
  8
SIZE
  6
CONTINUOUS
 62
    30
 10
105.0
 20
-115.0
 30
0.0
 11
105.0
 21
-397.34896800000001
 31
0.0
  0
LINE
  5
493
  8
SIZE
  6
CONTINUOUS
 62
    30
 10
-105.0
 20
-115.0
 30
0.0
 11
-105.0
 21
-397.34896800000001
 31
0.0
  0
LINE
  5
494
  8
SIZE
  6
CONTINUOUS
 62
    30
 10
105.0
 20
-377.34896800000001
 30
0.0
 11
-105.0
 21
-377.34896800000001
 31
0.0
  0
CIRCLE
  5
495
  8
SIZE
  6
CONTINUOUS
 62
    30
 10
105.0
 20
-377.34896800000001
 30
0.0
 40
6.0
  0
CIRCLE
  5
496
  8
SIZE
  6
CONTINUOUS
 62
    30
 10
-105.0
 20
-377.34896800000001
 30
0.0
 40
6.0
  0
TEXT
  5
497
  8
SIZE
  6
CONTINUOUS
 62
    30
 10
-105.0514285714286
 20
-352.34896800000001
 30
0.0
 40
64.0
  1
□210
 41
0.9
 72
     1
 11
0.0
 21
-352.34896800000001
 31
0.0
  0
LINE
  5
498
  8
SIZE
  6
CONTINUOUS
 62
    30
 10
-115.0
 20
0.0
 30
0.0
 11
-249.9782549999999
 21
0.0
 31
0.0
  0
LINE
  5
499
  8
SIZE
  6
CONTINUOUS
 62
    30
 10
-115.0
 20
6.0
 30
0.0
 11
-249.9782549999999
 21
6.0
 31
0.0
  0
LINE
  5
49A
  8
SIZE
  6
CONTINUOUS
 62
    30
 10
-229.9782549999999
 20
18.0
 30
0.0
 11
-229.9782549999999
 21
30.0
 31
0.0
  0
LINE
  5
49B
  8
SIZE
  6
CONTINUOUS
 62
    30
 10
-229.9782549999999
 20
-12.0
 30
0.0
 11
-229.9782549999999
 21
-109.657143
 31
0.0
  0
LINE
  5
49C
  8
SIZE
  6
CONTINUOUS
 62
    30
 10
-229.9782549999999
 20
6.0
 30
0.0
 11
-229.9782549999999
 21
0.0
 31
0.0
  0
CIRCLE
  5
49D
  8
SIZE
  6
CONTINUOUS
 62
    30
 10
-229.9782549999999
 20
6.0
 30
0.0
 40
6.0
  0
LINE
  5
49E
  8
SIZE
  6
CONTINUOUS
 62
    30
 10
-229.9782549999999
 20
6.0
 30
0.0
 11
-229.9782549999999
 21
18.0
 31
0.0
  0
CIRCLE
  5
49F
  8
SIZE
  6
CONTINUOUS
 62
    30
 10
-229.9782549999999
 20
0.0
 30
0.0
 40
6.0
  0
LINE
  5
4A0
  8
SIZE
  6
CONTINUOUS
 62
    30
 10
-229.9782549999999
 20
0.0
 30
0.0
 11
-229.9782549999999
 21
-12.0
 31
0.0
  0
TEXT
  5
4A1
  8
SIZE
  6
CONTINUOUS
 62
    30
 10
-254.9782549999999
 20
-84.657142428571419
 30
0.0
 40
64.0
  1
6
 50
90.0
 41
0.9
 72
     1
 11
-254.9782549999999
 21
-66.828570999999997
 31
0.0
  0
LINE
  5
4A2
  8
NOTE
  6
CONTINUOUS
 62
     4
 10
-111.4801109999997
 20
42.447302999999991
 30
0.0
 11
-95.0
 21
6.0
 31
0.0
  0
LINE
  5
4A3
  8
NOTE
  6
CONTINUOUS
 62
     4
 10
-95.0
 20
6.0
 30
0.0
 11
-127.495847
 21
29.324235000000002
 31
0.0
  0
TEXT
  5
4A4
  8
NOTE
  6
CONTINUOUS
 62
     4
 10
-1026.442244999999
 20
150.574015
 30
0.0
 40
64.0
  1
2ヶ所×4×10取付用長穴
 41
0.9
  0
LINE
  5
4A5
  8
NOTE
  6
CONTINUOUS
 62
     4
 39
50.0
 10
-95.0
 20
6.0
 30
0.0
 11
-194.1407189999999
 21
128.79038600000001
 31
0.0
  0
LINE
  5
4A6
  8
NOTE
  6
CONTINUOUS
 62
     4
 39
50.0
 10
-194.1407189999999
 20
128.79038600000001
 30
0.0
 11
-1034.7923209999999
 21
128.79038600000001
 31
0.0
  0
ARC
  5
4A7
  8
DETAIL
  6
CONTINUOUS
 62
     5
 10
107.28104399999999
 20
-42.562059999999981
 30
0.0
 40
0.394841
 50
183.93255999999991
 51
258.81831599999992
  0
ARC
  5
4A8
  8
DETAIL
  6
CONTINUOUS
 62
     5
 10
107.28104399999999
 20
-44.534320999999991
 30
0.0
 40
0.394841
 50
101.1816839999999
 51
176.06744
  0
ARC
  5
4A9
  8
DETAIL
  6
CONTINUOUS
 62
     5
 10
107.841354
 20
-43.477781
 30
0.0
 40
0.394841
 50
0.0
 51
78.818316000000024
  0
ARC
  5
4AA
  8
DETAIL
  6
CONTINUOUS
 62
     5
 10
107.841354
 20
-43.618600000000001
 30
0.0
 40
0.394841
 50
281.1816839999999
 51
0.0
  0
ARC
  5
4AB
  8
DETAIL
  6
CONTINUOUS
 62
     5
 10
105.4075709999999
 20
-48.945087999999998
 30
0.0
 40
0.394841
 50
271.14999999999998
 51
336.59996999999993
  0
ARC
  5
4AC
  8
DETAIL
  6
CONTINUOUS
 62
     5
 10
92.936094999999995
 20
-43.548190999999989
 30
0.0
 40
13.98396299999999
 50
3.9325599999999992
 51
23.40002999999998
  0
ARC
  5
4AD
  8
DETAIL
  6
CONTINUOUS
 62
     5
 10
92.936094999999995
 20
-43.548190999999989
 30
0.0
 40
13.98396299999999
 50
336.59996999999993
 51
356.06743999999992
  0
LINE
  5
4AE
  8
DETAIL
  6
CONTINUOUS
 62
     5
 10
107.91792199999971
 20
-44.005946000000002
 30
0.0
 11
107.204476
 21
-44.146974999999991
 31
0.0
  0
LINE
  5
4AF
  8
DETAIL
  6
CONTINUOUS
 62
     5
 10
107.204476
 20
-42.949406000000003
 30
0.0
 11
107.91792199999971
 21
-43.090434999999999
 31
0.0
  0
LINE
  5
4B0
  8
DETAIL
  6
CONTINUOUS
 62
     5
 10
108.23619599999979
 20
-43.477781
 30
0.0
 11
108.23619599999979
 21
-43.618600000000001
 31
0.0
  0
LINE
  5
4B1
  8
DETAIL
  6
CONTINUOUS
 62
     5
 10
105.41549599999991
 20
-49.339849999999991
 30
0.0
 11
105.0
 21
-49.348191
 31
0.0
  0
CIRCLE
  5
4B2
  8
DETAIL
  6
CONTINUOUS
 62
     5
 39
50.0
 10
0.0
 20
0.0
 30
0.0
 40
70.0
  0
LINE
  5
4B3
  8
SIZE
  6
CONTINUOUS
 62
    30
 10
375.77201965255369
 20
-242.37689040390009
 30
0.0
 11
68.90905882866879
 21
-44.447064910818227
 31
0.0
  0
LINE
  5
4B4
  8
SIZE
  6
CONTINUOUS
 62
    30
 10
-68.90905882866879
 20
44.447064910818227
 30
0.0
 11
-78.993311839632483
 21
50.95151348707202
 31
0.0
  0
TEXT
  5
4B5
  8
SIZE
  6
CONTINUOUS
 62
    30
 10
197.28519078215879
 20
-97.501585591962296
 30
0.0
 40
64.0
  1
φ140
 50
327.17752663886552
 41
0.9
 72
     1
 11
288.7925451410016
 21
-156.52486332686701
 31
0.0
  0
LINE
  5
4B6
  8
SIZE
  6
CONTINUOUS
 62
    30
 10
-58.824805817705112
 20
37.942616334564441
 30
0.0
 11
58.824805817705112
 21
-37.942616334564441
 31
0.0
  0
CIRCLE
  5
4B7
  8
SIZE
  6
CONTINUOUS
 62
    30
 10
-58.824805817705112
 20
37.942616334564441
 30
0.0
 40
6.0
  0
LINE
  5
4B8
  8
SIZE
  6
CONTINUOUS
 62
    30
 10
-58.824805817705112
 20
37.942616334564441
 30
0.0
 11
-68.90905882866879
 21
44.447064910818227
 31
0.0
  0
CIRCLE
  5
4B9
  8
SIZE
  6
CONTINUOUS
 62
    30
 10
58.824805817705112
 20
-37.942616334564441
 30
0.0
 40
6.0
  0
LINE
  5
4BA
  8
SIZE
  6
CONTINUOUS
 62
    30
 10
58.824805817705112
 20
-37.942616334564441
 30
0.0
 11
68.90905882866879
 21
-44.447064910818227
 31
0.0
  0
LINE
  5
4BB
  8
DETAIL
  6
CONTINUOUS
 62
     5
 10
-87.044123999999982
 20
64.388234999999995
 30
0.0
 11
-85.304124000000016
 21
64.388234999999995
 31
0.0
  0
LINE
  5
4BC
  8
DETAIL
  6
CONTINUOUS
 62
     5
 10
-78.651182999999975
 20
77.694118000000003
 30
0.0
 11
-86.327652999999998
 21
77.694118000000003
 31
0.0
  0
LINE
  5
4BD
  8
DETAIL
  6
CONTINUOUS
 62
     5
 10
-86.327652999999998
 20
82.811764999999994
 30
0.0
 11
-78.651182999999975
 21
82.811764999999994
 31
0.0
  0
LINE
  5
4BE
  8
DETAIL
  6
CONTINUOUS
 62
     5
 10
-85.304124000000016
 20
86.905881999999963
 30
0.0
 11
-87.044123999999982
 21
86.905881999999963
 31
0.0
  0
LINE
  5
4BF
  8
DETAIL
  6
CONTINUOUS
 62
     5
 10
-62.274712000000001
 20
91.0
 30
0.0
 11
-62.274712000000001
 21
60.294117999999997
 31
0.0
  0
LINE
  5
4C0
  8
DETAIL
  6
CONTINUOUS
 62
     5
 10
-64.219418000000005
 20
70.529411999999994
 30
0.0
 11
-64.219418000000005
 21
60.294117999999997
 31
0.0
  0
LINE
  5
4C1
  8
DETAIL
  6
CONTINUOUS
 62
     5
 10
-68.518241000000003
 20
70.529411999999994
 30
0.0
 11
-68.518241000000003
 21
60.294117999999997
 31
0.0
  0
LINE
  5
4C2
  8
DETAIL
  6
CONTINUOUS
 62
     5
 10
-74.045299999999983
 20
62.955293999999988
 30
0.0
 11
-74.045299999999983
 21
88.338824000000002
 31
0.0
  0
LINE
  5
4C3
  8
DETAIL
  6
CONTINUOUS
 62
     5
 10
-76.604123999999999
 20
91.0
 30
0.0
 11
-76.604123999999999
 21
60.294117999999997
 31
0.0
  0
LINE
  5
4C4
  8
DETAIL
  6
CONTINUOUS
 62
     5
 10
-78.548829999999981
 20
70.529411999999994
 30
0.0
 11
-78.548829999999981
 21
60.294117999999997
 31
0.0
  0
LINE
  5
4C5
  8
DETAIL
  6
CONTINUOUS
 62
     5
 10
-82.84765299999998
 20
70.529411999999994
 30
0.0
 11
-82.84765299999998
 21
60.294117999999997
 31
0.0
  0
LINE
  5
4C6
  8
DETAIL
  6
CONTINUOUS
 62
     5
 10
-62.274712000000001
 20
60.294117999999997
 30
0.0
 11
-70.155888000000004
 21
60.294117999999997
 31
0.0
  0
LINE
  5
4C7
  8
DETAIL
  6
CONTINUOUS
 62
     5
 10
-64.321770999999998
 20
62.341176000000011
 30
0.0
 11
-70.155888000000004
 21
62.341176000000011
 31
0.0
  0
LINE
  5
4C8
  8
DETAIL
  6
CONTINUOUS
 62
     5
 10
-70.155888000000004
 20
63.876470999999981
 30
0.0
 11
-64.321770999999998
 21
63.876470999999981
 31
0.0
  0
LINE
  5
4C9
  8
DETAIL
  6
CONTINUOUS
 62
     5
 10
-64.321770999999998
 20
63.876470999999981
 30
0.0
 11
-64.321770999999998
 21
62.341176000000011
 31
0.0
  0
LINE
  5
4CA
  8
DETAIL
  6
CONTINUOUS
 62
     5
 10
-76.604123999999999
 20
60.294117999999997
 30
0.0
 11
-84.485299999999981
 21
60.294117999999997
 31
0.0
  0
LINE
  5
4CB
  8
DETAIL
  6
CONTINUOUS
 62
     5
 10
-70.155888000000004
 20
63.569412
 30
0.0
 11
-70.974711999999997
 21
64.388234999999995
 31
0.0
  0
LINE
  5
4CC
  8
DETAIL
  6
CONTINUOUS
 62
     5
 10
-74.045299999999983
 20
62.955293999999988
 30
0.0
 11
-72.714712000000006
 21
62.955293999999988
 31
0.0
  0
LINE
  5
4CD
  8
DETAIL
  6
CONTINUOUS
 62
     5
 10
-72.714712000000006
 20
64.388234999999995
 30
0.0
 11
-70.974711999999997
 21
64.388234999999995
 31
0.0
  0
LINE
  5
4CE
  8
DETAIL
  6
CONTINUOUS
 62
     5
 10
-70.155888000000004
 20
60.294117999999997
 30
0.0
 11
-70.155888000000004
 21
63.876470999999981
 31
0.0
  0
LINE
  5
4CF
  8
DETAIL
  6
CONTINUOUS
 62
     5
 10
-72.714712000000006
 20
62.955293999999988
 30
0.0
 11
-72.714712000000006
 21
64.388234999999995
 31
0.0
  0
LINE
  5
4D0
  8
DETAIL
  6
CONTINUOUS
 62
     5
 10
-84.485299999999981
 20
63.569412
 30
0.0
 11
-85.304124000000016
 21
64.388234999999995
 31
0.0
  0
LINE
  5
4D1
  8
DETAIL
  6
CONTINUOUS
 62
     5
 10
-78.651182999999975
 20
62.341176000000011
 30
0.0
 11
-84.485299999999981
 21
62.341176000000011
 31
0.0
  0
LINE
  5
4D2
  8
DETAIL
  6
CONTINUOUS
 62
     5
 10
-84.485299999999981
 20
63.876470999999981
 30
0.0
 11
-78.651182999999975
 21
63.876470999999981
 31
0.0
  0
LINE
  5
4D3
  8
DETAIL
  6
CONTINUOUS
 62
     5
 10
-78.651182999999975
 20
63.876470999999981
 30
0.0
 11
-78.651182999999975
 21
62.341176000000011
 31
0.0
  0
LINE
  5
4D4
  8
DETAIL
  6
CONTINUOUS
 62
     5
 10
-84.485299999999981
 20
60.294117999999997
 30
0.0
 11
-84.485299999999981
 21
63.876470999999981
 31
0.0
  0
LINE
  5
4D5
  8
DETAIL
  6
CONTINUOUS
 62
     5
 10
-64.321770999999998
 20
77.694118000000003
 30
0.0
 11
-71.998240999999979
 21
77.694118000000003
 31
0.0
  0
LINE
  5
4D6
  8
DETAIL
  6
CONTINUOUS
 62
     5
 10
-71.998240999999979
 20
82.811764999999994
 30
0.0
 11
-64.321770999999998
 21
82.811764999999994
 31
0.0
  0
LINE
  5
4D7
  8
DETAIL
  6
CONTINUOUS
 62
     5
 10
-70.155888000000004
 20
91.0
 30
0.0
 11
-60.432358999999991
 21
91.0
 31
0.0
  0
LINE
  5
4D8
  8
DETAIL
  6
CONTINUOUS
 62
     5
 10
-64.321770999999998
 20
82.811764999999994
 30
0.0
 11
-64.321770999999998
 21
77.694118000000003
 31
0.0
  0
LINE
  5
4D9
  8
DETAIL
  6
CONTINUOUS
 62
     5
 10
-68.516979000000006
 20
70.529411999999994
 30
0.0
 11
-64.220680000000002
 21
70.529411999999994
 31
0.0
  0
LINE
  5
4DA
  8
DETAIL
  6
CONTINUOUS
 62
     5
 10
-62.274712000000001
 20
89.157646999999983
 30
0.0
 11
-60.432358999999991
 21
89.157646999999983
 31
0.0
  0
LINE
  5
4DB
  8
DETAIL
  6
CONTINUOUS
 62
     5
 10
-60.432358999999991
 20
89.157646999999983
 30
0.0
 11
-60.432358999999991
 21
91.0
 31
0.0
  0
LINE
  5
4DC
  8
DETAIL
  6
CONTINUOUS
 62
     5
 10
-71.998240999999979
 20
77.694118000000003
 30
0.0
 11
-71.998240999999979
 21
82.811764999999994
 31
0.0
  0
LINE
  5
4DD
  8
DETAIL
  6
CONTINUOUS
 62
     5
 10
-78.651182999999975
 20
82.811764999999994
 30
0.0
 11
-78.651182999999975
 21
77.694118000000003
 31
0.0
  0
LINE
  5
4DE
  8
DETAIL
  6
CONTINUOUS
 62
     5
 10
-82.846390999999969
 20
70.529411999999994
 30
0.0
 11
-78.550092000000006
 21
70.529411999999994
 31
0.0
  0
LINE
  5
4DF
  8
DETAIL
  6
CONTINUOUS
 62
     5
 10
-84.485299999999981
 20
91.0
 30
0.0
 11
-74.761770999999982
 21
91.0
 31
0.0
  0
LINE
  5
4E0
  8
DETAIL
  6
CONTINUOUS
 62
     5
 10
-70.155888000000004
 20
91.0
 30
0.0
 11
-70.155888000000004
 21
87.724706000000026
 31
0.0
  0
LINE
  5
4E1
  8
DETAIL
  6
CONTINUOUS
 62
     5
 10
-72.714712000000006
 20
86.905881999999963
 30
0.0
 11
-72.714712000000006
 21
88.338824000000002
 31
0.0
  0
LINE
  5
4E2
  8
DETAIL
  6
CONTINUOUS
 62
     5
 10
-74.761770999999982
 20
89.157646999999983
 30
0.0
 11
-74.761770999999982
 21
91.0
 31
0.0
  0
LINE
  5
4E3
  8
DETAIL
  6
CONTINUOUS
 62
     5
 10
-70.974711999999997
 20
86.905881999999963
 30
0.0
 11
-72.714712000000006
 21
86.905881999999963
 31
0.0
  0
LINE
  5
4E4
  8
DETAIL
  6
CONTINUOUS
 62
     5
 10
-74.045299999999983
 20
88.338824000000002
 30
0.0
 11
-72.714712000000006
 21
88.338824000000002
 31
0.0
  0
LINE
  5
4E5
  8
DETAIL
  6
CONTINUOUS
 62
     5
 10
-76.604123999999999
 20
89.157646999999983
 30
0.0
 11
-74.761770999999982
 21
89.157646999999983
 31
0.0
  0
LINE
  5
4E6
  8
DETAIL
  6
CONTINUOUS
 62
     5
 10
-70.974711999999997
 20
86.905881999999963
 30
0.0
 11
-70.155888000000004
 21
87.724706000000026
 31
0.0
  0
LINE
  5
4E7
  8
DETAIL
  6
CONTINUOUS
 62
     5
 10
-84.485299999999981
 20
91.0
 30
0.0
 11
-84.485299999999981
 21
87.724706000000026
 31
0.0
  0
LINE
  5
4E8
  8
DETAIL
  6
CONTINUOUS
 62
     5
 10
-85.304124000000016
 20
86.905881999999963
 30
0.0
 11
-84.485299999999981
 21
87.724706000000026
 31
0.0
  0
LINE
  5
4E9
  8
DETAIL
  6
CONTINUOUS
 62
     5
 10
-88.374712000000017
 20
62.955293999999988
 30
0.0
 11
-88.374712000000017
 21
88.338824000000002
 31
0.0
  0
LINE
  5
4EA
  8
DETAIL
  6
CONTINUOUS
 62
     5
 10
-88.374712000000017
 20
62.955293999999988
 30
0.0
 11
-87.044123999999982
 21
62.955293999999988
 31
0.0
  0
LINE
  5
4EB
  8
DETAIL
  6
CONTINUOUS
 62
     5
 10
-87.044123999999982
 20
62.955293999999988
 30
0.0
 11
-87.044123999999982
 21
64.388234999999995
 31
0.0
  0
LINE
  5
4EC
  8
DETAIL
  6
CONTINUOUS
 62
     5
 10
-86.327652999999998
 20
77.694118000000003
 30
0.0
 11
-86.327652999999998
 21
82.811764999999994
 31
0.0
  0
LINE
  5
4ED
  8
DETAIL
  6
CONTINUOUS
 62
     5
 10
-88.374712000000017
 20
88.338824000000002
 30
0.0
 11
-87.044123999999982
 21
88.338824000000002
 31
0.0
  0
LINE
  5
4EE
  8
DETAIL
  6
CONTINUOUS
 62
     5
 10
-87.044123999999982
 20
86.905881999999963
 30
0.0
 11
-87.044123999999982
 21
88.338824000000002
 31
0.0
  0
LINE
  5
4EF
  8
NOTE
  6
CONTINUOUS
 62
     4
 10
-103.793879
 20
102.203591
 30
0.0
 11
-73.881495999999999
 21
75.647058999999985
 31
0.0
  0
LINE
  5
4F0
  8
NOTE
  6
CONTINUOUS
 62
     4
 10
-73.881495999999999
 20
75.647058999999985
 30
0.0
 11
-86.508112999999994
 21
113.60188100000001
 31
0.0
  0
TEXT
  5
4F1
  8
NOTE
  6
CONTINUOUS
 62
     4
 10
-308.87971499999992
 20
321.20911599999988
 30
0.0
 40
64.0
  1
EL
 41
0.9
  0
LINE
  5
4F2
  8
NOTE
  6
CONTINUOUS
 62
     4
 39
50.0
 10
-310.69000899999992
 20
290.44966299999999
 30
0.0
 11
-216.5545819999999
 21
290.44966299999999
 31
0.0
  0
LINE
  5
4F3
  8
NOTE
  6
CONTINUOUS
 62
     4
 39
50.0
 10
-216.5545819999999
 20
290.44966299999999
 30
0.0
 11
-74.045299999999983
 21
76.139442999999986
 31
0.0
  0
LINE
  5
4F4
  8
NOTE
  6
CONTINUOUS
 62
     4
 10
-74.045299999999983
 20
55.647058999999992
 30
0.0
 11
-74.045299999999983
 21
95.647058999999985
 31
0.0
  0
LINE
  5
4F5
  8
NOTE
  6
CONTINUOUS
 62
     4
 10
-94.045299999999983
 20
75.647058999999985
 30
0.0
 11
-54.045299999999997
 21
75.647058999999985
 31
0.0
  0
TEXT
  5
4F6
  8
ETC
  6
CONTINUOUS
 62
    61
 10
148.19721779487301
 20
191.3058590601822
 30
0.0
 40
40.0
  1
V-12PASD6
 41
0.9
  0
TEXT
  5
4F7
  8
ETC
  6
CONTINUOUS
 62
    61
 10
148.19721779487301
 20
250.59499228026141
 30
0.0
 40
40.0
  1
V-12PALD6
 41
0.9
  0
TEXT
  5
4F8
  8
ETC
  6
CONTINUOUS
 62
    61
 10
44.233166035593847
 20
384.1743965071048
 30
0.0
 40
50.0
  1
V-12PALD6_3
 41
0.9
  0
TEXT
  5
4F9
  8
ETC
  6
CONTINUOUS
 62
    61
 10
39.820304035593892
 20
313.76855151735077
 30
0.0
 40
50.0
  1
換気扇
 41
0.9
  0
CIRCLE
  5
4FA
  8
DETAIL
  6
CONTINUOUS
 62
     5
 39
50.0
 10
0.0
 20
0.0
 30
0.0
 40
31.5
  0
CIRCLE
  5
4FC
  8
OUTLINE
  6
CONTINUOUS
 62
     3
 39
50.0
 10
0.0
 20
0.0
 30
0.0
 40
70.0
  0
ENDSEC
  0
EOF
