  0
SECTION
  2
HEADER
  9
$ACADVER
  1
AC1009
  9
$DWGCODEPAGE
  3
dos932
  9
$INSBASE
 10
0.0
 20
0.0
 30
0.0
  9
$EXTMIN
 10
-631.28813041989815
 20
-326.20238073426663
 30
-0.0015258207003583
  9
$EXTMAX
 10
818.90717685328127
 20
768.72254240876282
 30
0.0000000349246037
  9
$LIMMIN
 10
-2970.0
 20
-2100.0
  9
$LIMMAX
 10
2970.0
 20
2100.0
  9
$ORTHOMODE
 70
     1
  9
$REGENMODE
 70
     1
  9
$FILLMODE
 70
     1
  9
$QTEXTMODE
 70
     0
  9
$MIRRTEXT
 70
     0
  9
$LTSCALE
 40
20.0
  9
$ATTMODE
 70
     1
  9
$TEXTSIZE
 40
64.0
  9
$TRACEWID
 40
0.05
  9
$TEXTSTYLE
  7
STANDARD
  9
$CLAYER
  8
SIZE
  9
$CELTYPE
  6
CONTINUOUS
  9
$CECOLOR
 62
     7
  9
$DIMSCALE
 40
1.0
  9
$DIMASZ
 40
12.0
  9
$DIMEXO
 40
20.0
  9
$DIMDLI
 40
200.0
  9
$DIMRND
 40
0.0
  9
$DIMDLE
 40
0.0
  9
$DIMEXE
 40
20.0
  9
$DIMTP
 40
0.0
  9
$DIMTM
 40
0.0
  9
$DIMTXT
 40
64.0
  9
$DIMCEN
 40
0.09
  9
$DIMTSZ
 40
0.0
  9
$DIMTOL
 70
     0
  9
$DIMLIM
 70
     0
  9
$DIMTIH
 70
     0
  9
$DIMTOH
 70
     0
  9
$DIMSE1
 70
     0
  9
$DIMSE2
 70
     0
  9
$DIMTAD
 70
     1
  9
$DIMZIN
 70
     8
  9
$DIMBLK
  1

  9
$DIMASO
 70
     1
  9
$DIMSHO
 70
     0
  9
$DIMPOST
  1

  9
$DIMAPOST
  1

  9
$DIMALT
 70
     0
  9
$DIMALTD
 70
     2
  9
$DIMALTF
 40
25.399999999999999
  9
$DIMLFAC
 40
1.0
  9
$DIMTOFL
 70
     1
  9
$DIMTVP
 40
0.0
  9
$DIMTIX
 70
     1
  9
$DIMSOXD
 70
     0
  9
$DIMSAH
 70
     0
  9
$DIMBLK1
  1

  9
$DIMBLK2
  1

  9
$DIMSTYLE
  2
STANDARD
  9
$DIMCLRD
 70
     7
  9
$DIMCLRE
 70
     7
  9
$DIMCLRT
 70
     7
  9
$DIMTFAC
 40
1.0
  9
$DIMGAP
 40
25.0
  9
$LUNITS
 70
     2
  9
$LUPREC
 70
     4
  9
$SKETCHINC
 40
0.1
  9
$FILLETRAD
 40
3.0
  9
$AUNITS
 70
     1
  9
$AUPREC
 70
     3
  9
$MENU
  1
ACAD
  9
$ELEVATION
 40
0.0
  9
$PELEVATION
 40
0.0
  9
$THICKNESS
 40
0.0
  9
$LIMCHECK
 70
     0
  9
$CHAMFERA
 40
0.0
  9
$CHAMFERB
 40
0.0
  9
$SKPOLY
 70
     0
  9
$TDCREATE
 40
2453019.623009259
  9
$TDUPDATE
 40
2459356.663059722
  9
$TDINDWG
 40
1.7237196875
  9
$TDUSRTIMER
 40
1.7237196875
  9
$USRTIMER
 70
     1
  9
$ANGBASE
 50
0.0
  9
$ANGDIR
 70
     0
  9
$PDMODE
 70
     3
  9
$PDSIZE
 40
-2.0
  9
$PLINEWID
 40
0.0
  9
$SPLFRAME
 70
     0
  9
$SPLINETYPE
 70
     6
  9
$SPLINESEGS
 70
     8
  9
$SURFTAB1
 70
     6
  9
$SURFTAB2
 70
     6
  9
$SURFTYPE
 70
     6
  9
$SURFU
 70
     6
  9
$SURFV
 70
     6
  9
$UCSNAME
  2

  9
$UCSORG
 10
0.0
 20
0.0
 30
0.0
  9
$UCSXDIR
 10
1.0
 20
0.0
 30
0.0
  9
$UCSYDIR
 10
0.0
 20
1.0
 30
0.0
  9
$PUCSNAME
  2

  9
$PUCSORG
 10
0.0
 20
0.0
 30
0.0
  9
$PUCSXDIR
 10
1.0
 20
0.0
 30
0.0
  9
$PUCSYDIR
 10
0.0
 20
1.0
 30
0.0
  9
$USERI1
 70
     0
  9
$USERI2
 70
     0
  9
$USERI3
 70
     0
  9
$USERI4
 70
     0
  9
$USERI5
 70
     0
  9
$USERR1
 40
20.0
  9
$USERR2
 40
0.0
  9
$USERR3
 40
0.0
  9
$USERR4
 40
0.0
  9
$USERR5
 40
0.0
  9
$WORLDVIEW
 70
     1
  9
$SHADEDGE
 70
     3
  9
$SHADEDIF
 70
    70
  9
$TILEMODE
 70
     1
  9
$MAXACTVP
 70
    48
  9
$PINSBASE
 10
0.0
 20
0.0
 30
0.0
  9
$PLIMCHECK
 70
     0
  9
$PEXTMIN
 10
-100000000000000000000.0
 20
-100000000000000000000.0
 30
-100000000000000000000.0
  9
$PEXTMAX
 10
100000000000000000000.0
 20
100000000000000000000.0
 30
100000000000000000000.0
  9
$PLIMMIN
 10
0.0
 20
0.0
  9
$PLIMMAX
 10
12.0
 20
9.0
  9
$UNITMODE
 70
     0
  9
$VISRETAIN
 70
     0
  9
$PLINEGEN
 70
     0
  9
$PSLTSCALE
 70
     0
  9
$TREEDEPTH
 70
  3020
  9
$ATTDIA
 70
     0
  9
$ATTREQ
 70
     1
  9
$BLIPMODE
 70
     1
  9
$COORDS
 70
     1
  9
$DRAGMODE
 70
     2
  9
$OSMODE
 70
     0
  9
$HANDLING
 70
     0
  9
$HANDSEED
  5
2FC
  0
ENDSEC
  0
SECTION
  2
TABLES
  0
TABLE
  2
LTYPE
 70
     2
  0
LTYPE
  2
CONTINUOUS
 70
     0
  3
実線
 72
    65
 73
     0
 40
0.0
  0
LTYPE
  2
DASHDOT
 70
     0
  3
____ _ ____ _ ____ _ ____ _ ____ _ ____ _ ____
 72
    65
 73
     4
 40
5.5
 49
4.0
 49
-0.6
 49
0.3
 49
-0.6
  0
ENDTAB
  0
TABLE
  2
LAYER
 70
    12
  0
LAYER
  2
SIZE
 70
     0
 62
    30
  6
CONTINUOUS
  0
LAYER
  2
BASIS
 70
     0
 62
     6
  6
DASHDOT
  0
LAYER
  2
OUTLINE
 70
     0
 62
     3
  6
CONTINUOUS
  0
LAYER
  2
DETAIL
 70
     0
 62
     5
  6
CONTINUOUS
  0
LAYER
  2
ARRANGE
 70
     0
 62
     1
  6
CONTINUOUS
  0
LAYER
  2
ETC
 70
     0
 62
    61
  6
CONTINUOUS
  0
LAYER
  2
FIX
 70
     0
 62
    11
  6
CONTINUOUS
  0
LAYER
  2
NOTE
 70
     0
 62
     4
  6
CONTINUOUS
  0
LAYER
  2
0
 70
    64
 62
     7
  6
CONTINUOUS
  0
LAYER
  2
DEFPOINTS
 70
    64
 62
     7
  6
CONTINUOUS
  0
LAYER
  2
SERVICESPACE
 70
    64
 62
     2
  6
DASHDOT
  0
LAYER
  2
SYMBOLLINE
 70
    64
 62
    15
  6
CONTINUOUS
  0
ENDTAB
  0
TABLE
  2
STYLE
 70
     1
  0
STYLE
  2
STANDARD
 70
     0
 40
64.0
 41
0.9
 50
0.0
 71
     0
 42
64.0
  3
SIMPLEX.shx
  4
BIGFONT.shx
  0
ENDTAB
  0
TABLE
  2
APPID
 70
    20
  0
APPID
  2
ACAD
 70
     0
  0
APPID
  2
ACADANNOTATIVE
 70
     0
  0
APPID
  2
AUTOCAD_POSTSCRIPT_FIGURE
 70
     0
  0
APPID
  2
ACAD_EXEMPT_FROM_CAD_STANDARDS
 70
     0
  0
APPID
  2
ACAD_PSEXT
 70
     0
  0
APPID
  2
ACAUTHENVIRON
 70
     0
  0
APPID
  2
GENIUS_GENOENT_13
 70
     0
  0
APPID
  2
GENIUS_GENCFG_13
 70
     0
  0
APPID
  2
GENIUS_GENCFG0_13
 70
     0
  0
APPID
  2
GENIUS_GENCFG1_13
 70
     0
  0
APPID
  2
GENIUS_GENCFG2_13
 70
     0
  0
APPID
  2
GENIUS_GENCFG3_13
 70
     0
  0
APPID
  2
GENIUS_GENCFG4_13
 70
     0
  0
APPID
  2
GENIUS_GEVCFG0_13
 70
     0
  0
APPID
  2
CONTENTBLOCKICON
 70
     0
  0
APPID
  2
CONTENTBLOCKDESCRIPTION
 70
     0
  0
APPID
  2
ACAD_NAV_VCDISPLAY
 70
     0
  0
APPID
  2
ACAD_MLEADERVER
 70
     0
  0
APPID
  2
ACDBDYNAMICBLOCKTRUENAME
 70
     0
  0
APPID
  2
ACDBDYNAMICBLOCKGUID
 70
     0
  0
ENDTAB
  0
TABLE
  2
DIMSTYLE
 70
     1
  0
DIMSTYLE
  2
STANDARD
 70
     0
  3

  4

  5

  6

  7

 40
1.0
 41
12.0
 42
20.0
 43
200.0
 44
20.0
 45
0.0
 46
0.0
 47
0.0
 48
0.0
140
64.0
141
0.09
142
0.0
143
25.399999999999999
144
1.0
145
0.0
146
1.0
147
25.0
 71
     0
 72
     0
 73
     0
 74
     0
 75
     0
 76
     0
 77
     1
 78
     8
170
     0
171
     2
172
     1
173
     0
174
     1
175
     0
176
     7
177
     7
178
     7
  0
ENDTAB
  0
TABLE
  2
VIEW
 70
     1
  0
VIEW
  2
ALL
 70
     0
 40
4282.6198079999986
 10
0.0
 20
41.309904000000003
 41
5940.0
 11
0.0
 21
0.0
 31
1.0
 12
0.0
 22
0.0
 32
0.0
 42
50.0
 43
0.0
 44
0.0
 50
0.0
 71
     0
  0
ENDTAB
  0
TABLE
  2
UCS
 70
     0
  0
ENDTAB
  0
TABLE
  2
VPORT
 70
     1
  0
VPORT
  2
*ACTIVE
 70
     0
 10
0.0
 20
0.0
 11
1.0
 21
1.0
 12
93.809523216691588
 22
221.2600808372481
 13
0.0
 23
0.0
 14
1.0
 24
1.0
 15
0.0
 25
0.0
 16
0.0
 26
0.0
 36
1.0
 17
0.0
 27
0.0
 37
0.0
 40
763.58036336713485
 41
2.1453957996768982
 42
50.0
 43
0.0
 44
0.0
 50
0.0
 51
0.0
 71
     0
 72
  1000
 73
     1
 74
     3
 75
     0
 76
     0
 77
     0
 78
     0
  0
ENDTAB
  0
ENDSEC
  0
SECTION
  2
BLOCKS
  0
ENDSEC
  0
SECTION
  2
ENTITIES
  0
TEXT
  8
ETC
  6
CONTINUOUS
 62
    61
 10
212.28813898309139
 20
704.5001603402718
 30
0.0
 40
64.0
  1
V-12PALD8_5
 41
0.9
  0
TEXT
  8
ETC
  6
CONTINUOUS
 62
    61
 10
208.10214498309099
 20
586.54485032544062
 30
0.0
 40
64.0
  1
換気扇
 41
0.9
  0
LINE
  8
BASIS
  6
DASHDOT
 62
     6
 10
0.0
 20
-123.2481241666499
 30
0.0
 11
0.0
 21
123.2481241666499
 31
0.0
  0
LINE
  8
BASIS
  6
DASHDOT
 62
     6
 10
73.363129061615808
 20
0.0
 30
0.0
 11
-102.33955296210659
 21
0.0
 31
0.0
  0
TEXT
  8
ETC
  6
CONTINUOUS
 62
    61
 10
258.80354323164693
 20
478.39607743921522
 30
0.0
 40
40.0
  1
V-12PALD8
 41
0.9
  0
LINE
  8
SIZE
  6
CONTINUOUS
 62
    30
 10
0.0
 20
143.24812416664989
 30
0.0
 11
0.0
 21
435.41205436948121
 31
0.0
  0
LINE
  8
SIZE
  6
CONTINUOUS
 62
    30
 10
57.657043318282383
 20
122.8191766140658
 30
0.0
 11
57.657043318282383
 21
435.41205436948121
 31
0.0
  0
LINE
  8
SIZE
  6
CONTINUOUS
 62
    30
 10
-12.0
 20
415.41205436948121
 30
0.0
 11
-24.0
 21
415.41205436948121
 31
0.0
  0
LINE
  8
SIZE
  6
CONTINUOUS
 62
    30
 10
69.65704331828239
 20
415.41205436948121
 30
0.0
 11
238.17856660840809
 21
415.41205436948121
 31
0.0
  0
LINE
  8
SIZE
  6
CONTINUOUS
 62
    30
 10
0.0
 20
415.41205436948121
 30
0.0
 11
57.657043318282383
 21
415.41205436948121
 31
0.0
  0
CIRCLE
  8
SIZE
  6
CONTINUOUS
 62
    30
 10
0.0
 20
415.41205436948121
 30
0.0
 40
6.0
  0
LINE
  8
SIZE
  6
CONTINUOUS
 62
    30
 10
0.0
 20
415.41205436948121
 30
0.0
 11
-12.0
 21
415.41205436948121
 31
0.0
  0
CIRCLE
  8
SIZE
  6
CONTINUOUS
 62
    30
 10
57.657043318282383
 20
415.41205436948121
 30
0.0
 40
6.0
  0
LINE
  8
SIZE
  6
CONTINUOUS
 62
    30
 10
57.657043318282383
 20
415.41205436948121
 30
0.0
 11
69.65704331828239
 21
415.41205436948121
 31
0.0
  0
TEXT
  8
SIZE
  6
CONTINUOUS
 62
    30
 10
119.92142375126529
 20
440.41205436948121
 30
0.0
 40
64.0
  1
58
 41
0.9
 72
     1
 11
166.54999517983671
 21
440.41205436948121
 31
0.0
  0
LINE
  8
SIZE
  6
CONTINUOUS
 62
    30
 10
-57.699999999999818
 20
109.3122321388
 30
0.0
 11
-57.699999999999818
 21
305.31664000440242
 31
0.0
  0
LINE
  8
SIZE
  6
CONTINUOUS
 62
    30
 10
0.0
 20
143.24812416664989
 30
0.0
 11
0.0
 21
305.31664000440242
 31
0.0
  0
LINE
  8
SIZE
  6
CONTINUOUS
 62
    30
 10
12.0
 20
285.31664000440242
 30
0.0
 11
24.0
 21
285.31664000440242
 31
0.0
  0
LINE
  8
SIZE
  6
CONTINUOUS
 62
    30
 10
-69.699999999999818
 20
285.31664000440242
 30
0.0
 11
-224.95714285714271
 21
285.31664000440242
 31
0.0
  0
LINE
  8
SIZE
  6
CONTINUOUS
 62
    30
 10
0.0
 20
285.31664000440242
 30
0.0
 11
-57.699999999999818
 21
285.31664000440242
 31
0.0
  0
CIRCLE
  8
SIZE
  6
CONTINUOUS
 62
    30
 10
0.0
 20
285.31664000440242
 30
0.0
 40
6.0
  0
LINE
  8
SIZE
  6
CONTINUOUS
 62
    30
 10
0.0
 20
285.31664000440242
 30
0.0
 11
12.0
 21
285.31664000440242
 31
0.0
  0
CIRCLE
  8
SIZE
  6
CONTINUOUS
 62
    30
 10
-57.699999999999818
 20
285.31664000440242
 30
0.0
 40
6.0
  0
LINE
  8
SIZE
  6
CONTINUOUS
 62
    30
 10
-57.699999999999818
 20
285.31664000440242
 30
0.0
 11
-69.699999999999818
 21
285.31664000440242
 31
0.0
  0
TEXT
  8
SIZE
  6
CONTINUOUS
 62
    30
 10
-199.95714285714271
 20
310.31664000440242
 30
0.0
 40
64.0
  1
58
 41
0.9
 72
     1
 11
-153.32857142857131
 21
310.31664000440242
 31
0.0
  0
TEXT
  8
NOTE
  6
CONTINUOUS
 62
     4
 10
-523.95919235710528
 20
-280.58424566929881
 30
0.0
 40
64.0
  1
2-φ4×10
 41
0.9
 72
     2
 11
-122.4049066428197
 21
-280.58424566929881
 31
0.0
  0
LINE
  8
NOTE
  6
CONTINUOUS
 62
     4
 10
-0.402497593120188
 20
-0.1986042765717002
 30
0.0
 11
0.0
 21
5.9999999999999432
 31
0.0
  0
LINE
  8
NOTE
  6
CONTINUOUS
 62
     4
 10
0.0
 20
5.9999999999999432
 30
0.0
 11
-3.447883065113615
 21
0.8331052208020537
 31
0.0
  0
LINE
  8
NOTE
  6
CONTINUOUS
 62
     4
 10
0.0
 20
5.9999999999999432
 30
0.0
 11
-3.8503806582339171
 21
-5.3654990557695896
 31
0.0
  0
LINE
  8
NOTE
  6
CONTINUOUS
 62
     4
 10
-3.8503806582339171
 20
-5.3654990557695896
 30
0.0
 11
-112.7128367356663
 21
-326.18290922164289
 31
0.0
  0
LINE
  8
NOTE
  6
CONTINUOUS
 62
     4
 10
-112.7128367356663
 20
-326.18290922164289
 30
0.0
 11
-517.48997959280905
 21
-326.18290922164289
 31
0.0
  0
LINE
  8
SIZE
  6
CONTINUOUS
 62
    30
 10
-69.900000000000546
 20
50.249927635199811
 30
0.0
 11
-69.900000000000546
 21
435.41205436948121
 31
0.0
  0
LINE
  8
SIZE
  6
CONTINUOUS
 62
    30
 10
0.0
 20
143.24812416664989
 30
0.0
 11
0.0
 21
435.41205436948121
 31
0.0
  0
LINE
  8
SIZE
  6
CONTINUOUS
 62
    30
 10
12.0
 20
415.41205436948121
 30
0.0
 11
24.0
 21
415.41205436948121
 31
0.0
  0
LINE
  8
SIZE
  6
CONTINUOUS
 62
    30
 10
-81.900000000000546
 20
415.41205436948121
 30
0.0
 11
-237.15714285714341
 21
415.41205436948121
 31
0.0
  0
LINE
  8
SIZE
  6
CONTINUOUS
 62
    30
 10
0.0
 20
415.41205436948121
 30
0.0
 11
-69.900000000000546
 21
415.41205436948121
 31
0.0
  0
CIRCLE
  8
SIZE
  6
CONTINUOUS
 62
    30
 10
0.0
 20
415.41205436948121
 30
0.0
 40
6.0
  0
LINE
  8
SIZE
  6
CONTINUOUS
 62
    30
 10
0.0
 20
415.41205436948121
 30
0.0
 11
12.0
 21
415.41205436948121
 31
0.0
  0
CIRCLE
  8
SIZE
  6
CONTINUOUS
 62
    30
 10
-69.900000000000546
 20
415.41205436948121
 30
0.0
 40
6.0
  0
LINE
  8
SIZE
  6
CONTINUOUS
 62
    30
 10
-69.900000000000546
 20
415.41205436948121
 30
0.0
 11
-81.900000000000546
 21
415.41205436948121
 31
0.0
  0
TEXT
  8
SIZE
  6
CONTINUOUS
 62
    30
 10
-212.15714285714341
 20
440.41205436948121
 30
0.0
 40
64.0
  1
70
 41
0.9
 72
     1
 11
-165.52857142857201
 21
440.41205436948121
 31
0.0
  0
LINE
  8
SIZE
  6
CONTINUOUS
 62
    30
 10
-20.0
 20
81.311447054099872
 30
0.0
 11
-551.37602088957192
 21
81.311447054100029
 31
0.0
  0
LINE
  8
SIZE
  6
CONTINUOUS
 62
    30
 10
-20.0
 20
-59.161447054149221
 30
0.0
 11
-551.37602088957192
 21
-59.161447054149043
 31
0.0
  0
LINE
  8
SIZE
  6
CONTINUOUS
 62
    30
 10
-531.37602088957192
 20
69.311447054099972
 30
0.0
 11
-531.37602088957192
 21
-47.161447054149043
 31
0.0
  0
CIRCLE
  8
SIZE
  6
CONTINUOUS
 62
    30
 10
-531.37602088957192
 20
81.311447054099972
 30
0.0
 40
6.0
  0
LINE
  8
SIZE
  6
CONTINUOUS
 62
    30
 10
-531.37602088957192
 20
81.311447054099972
 30
0.0
 11
-531.37602088957192
 21
69.311447054099972
 31
0.0
  0
CIRCLE
  8
SIZE
  6
CONTINUOUS
 62
    30
 10
-531.37602088957192
 20
-59.161447054149043
 30
0.0
 40
6.0
  0
LINE
  8
SIZE
  6
CONTINUOUS
 62
    30
 10
-531.37602088957192
 20
-59.161447054149043
 30
0.0
 11
-531.37602088957192
 21
-47.161447054149043
 31
0.0
  0
TEXT
  8
SIZE
  6
CONTINUOUS
 62
    30
 10
-567.04268755623843
 20
-97.816428571453187
 30
0.0
 40
64.0
  1
φ140
 50
90.0
 41
0.9
 72
     1
 11
-567.04268755623843
 21
11.074999999975381
 31
0.0
  0
LINE
  8
SIZE
  6
CONTINUOUS
 62
    30
 10
-77.699999999999804
 20
32.849999999999909
 30
0.0
 11
-427.92610544810759
 21
32.850000000000023
 31
0.0
  0
LINE
  8
SIZE
  6
CONTINUOUS
 62
    30
 10
-77.699999999999804
 20
-12.85000000000014
 30
0.0
 11
-427.92610544810759
 21
-12.850000000000019
 31
0.0
  0
LINE
  8
SIZE
  6
CONTINUOUS
 62
    30
 10
-407.92610544810759
 20
-24.850000000000019
 30
0.0
 11
-407.92610544810759
 21
-36.850000000000023
 31
0.0
  0
LINE
  8
SIZE
  6
CONTINUOUS
 62
    30
 10
-407.92610544810759
 20
44.850000000000023
 30
0.0
 11
-407.92610544810748
 21
274.3220260031307
 31
0.0
  0
LINE
  8
SIZE
  6
CONTINUOUS
 62
    30
 10
-407.92610544810759
 20
-12.850000000000049
 30
0.0
 11
-407.92610544810759
 21
32.850000000000023
 31
0.0
  0
CIRCLE
  8
SIZE
  6
CONTINUOUS
 62
    30
 10
-407.92610544810759
 20
-12.850000000000049
 30
0.0
 40
6.0
  0
LINE
  8
SIZE
  6
CONTINUOUS
 62
    30
 10
-407.92610544810759
 20
-12.850000000000049
 30
0.0
 11
-407.92610544810759
 21
-24.850000000000019
 31
0.0
  0
CIRCLE
  8
SIZE
  6
CONTINUOUS
 62
    30
 10
-407.92610544810759
 20
32.850000000000023
 30
0.0
 40
6.0
  0
LINE
  8
SIZE
  6
CONTINUOUS
 62
    30
 10
-407.92610544810759
 20
32.850000000000023
 30
0.0
 11
-407.92610544810759
 21
44.850000000000023
 31
0.0
  0
TEXT
  8
SIZE
  6
CONTINUOUS
 62
    30
 10
-443.59277211477422
 20
88.316311717416227
 30
0.0
 40
64.0
  1
φ46
 50
90.0
 41
0.9
 72
     1
 11
-443.59277211477422
 21
173.89345457455909
 31
0.0
  0
LINE
  8
SIZE
  6
CONTINUOUS
 62
    30
 10
20.30523572199991
 20
104.96510354610341
 30
0.0
 11
215.82817105751559
 21
104.96510354610329
 31
0.0
  0
LINE
  8
SIZE
  6
CONTINUOUS
 62
    30
 10
20.40698096257438
 20
-104.7928961208499
 30
0.0
 11
215.82817105751559
 21
-104.79289612085
 31
0.0
  0
LINE
  8
SIZE
  6
CONTINUOUS
 62
    30
 10
195.82817105751559
 20
-92.792896120849989
 30
0.0
 11
195.82817105751559
 21
92.965103546103308
 31
0.0
  0
LINE
  8
SIZE
  6
CONTINUOUS
 62
    30
 10
195.82817105751559
 20
104.96510354610329
 30
0.0
 11
195.82817105751559
 21
369.38796068896028
 31
0.0
  0
CIRCLE
  8
SIZE
  6
CONTINUOUS
 62
    30
 10
195.82817105751559
 20
-104.79289612085
 30
0.0
 40
6.0
  0
LINE
  8
SIZE
  6
CONTINUOUS
 62
    30
 10
195.82817105751559
 20
-104.79289612085
 30
0.0
 11
195.82817105751559
 21
-92.792896120849989
 31
0.0
  0
CIRCLE
  8
SIZE
  6
CONTINUOUS
 62
    30
 10
195.82817105751559
 20
104.96510354610329
 30
0.0
 40
6.0
  0
LINE
  8
SIZE
  6
CONTINUOUS
 62
    30
 10
195.82817105751559
 20
104.96510354610329
 30
0.0
 11
195.82817105751559
 21
92.965103546103308
 31
0.0
  0
TEXT
  8
SIZE
  6
CONTINUOUS
 62
    30
 10
170.82817105751559
 20
138.12510354610339
 30
0.0
 40
64.0
  1
□210
 50
90.0
 41
0.9
 72
     1
 11
170.82817105751559
 21
243.17653211753199
 31
0.0
  0
LINE
  8
NOTE
  6
CONTINUOUS
 62
     4
 10
7.9211136146982417
 20
5.9999999999999432
 30
0.0
 11
-7.9211136146982417
 21
5.9999999999999432
 31
0.0
  0
LINE
  8
NOTE
  6
CONTINUOUS
 62
     4
 10
0.0
 20
-2.0000000000000568
 30
0.0
 11
0.0
 21
13.99999999999994
 31
0.0
  0
CIRCLE
  8
FIX
  6
CONTINUOUS
 62
    11
 10
0.0
 20
5.9999999999999432
 30
0.0
 40
5.0
  0
LINE
  8
SIZE
  6
CONTINUOUS
 62
    30
 10
-27.921113614698239
 20
5.9999999999999432
 30
0.0
 11
-174.0713556798581
 21
6.0
 31
0.0
  0
LINE
  8
SIZE
  6
CONTINUOUS
 62
    30
 10
-122.33955296210659
 20
0.0
 30
0.0
 11
-174.0713556798581
 21
0.0000000000000284
 31
0.0
  0
LINE
  8
SIZE
  6
CONTINUOUS
 62
    30
 10
-154.07135567985819
 20
-12.0
 30
0.0
 11
-154.07135567985819
 21
-24.0
 31
0.0
  0
LINE
  8
SIZE
  6
CONTINUOUS
 62
    30
 10
-154.07135567985819
 20
18.0
 30
0.0
 11
-154.07135567985819
 21
256.88217286321861
 31
0.0
  0
LINE
  8
SIZE
  6
CONTINUOUS
 62
    30
 10
-154.07135567985819
 20
0.0000000000000284
 30
0.0
 11
-154.07135567985819
 21
5.9999999999999716
 31
0.0
  0
CIRCLE
  8
SIZE
  6
CONTINUOUS
 62
    30
 10
-154.07135567985819
 20
0.0000000000000284
 30
0.0
 40
6.0
  0
LINE
  8
SIZE
  6
CONTINUOUS
 62
    30
 10
-154.07135567985819
 20
0.0000000000000284
 30
0.0
 11
-154.07135567985819
 21
-11.99999999999997
 31
0.0
  0
CIRCLE
  8
SIZE
  6
CONTINUOUS
 62
    30
 10
-154.07135567985819
 20
5.9999999999999716
 30
0.0
 40
6.0
  0
LINE
  8
SIZE
  6
CONTINUOUS
 62
    30
 10
-154.07135567985819
 20
5.9999999999999716
 30
0.0
 11
-154.07135567985819
 21
17.999999999999979
 31
0.0
  0
TEXT
  8
SIZE
  6
CONTINUOUS
 62
    30
 10
-179.0713556798581
 20
196.22503000607571
 30
0.0
 40
64.0
  1
6
 50
90.0
 41
0.9
 72
     1
 11
-179.0713556798581
 21
214.05360143464711
 31
0.0
  0
LINE
  8
SIZE
  6
CONTINUOUS
 62
    30
 10
-19.69476427800009
 20
104.96510354610341
 30
0.0
 11
-294.04380710357418
 21
104.96510354610341
 31
0.0
  0
LINE
  8
SIZE
  6
CONTINUOUS
 62
    30
 10
-122.33955296210659
 20
10.0
 30
0.0
 11
-294.04380710357418
 21
10.00000000000006
 31
0.0
  0
LINE
  8
SIZE
  6
CONTINUOUS
 62
    30
 10
-274.04380710357412
 20
22.00000000000006
 30
0.0
 11
-274.04380710357412
 21
92.965103546103421
 31
0.0
  0
LINE
  8
SIZE
  6
CONTINUOUS
 62
    30
 10
-274.04380710357412
 20
104.96510354610341
 30
0.0
 11
-274.04380710357412
 21
282.16510354610341
 31
0.0
  0
CIRCLE
  8
SIZE
  6
CONTINUOUS
 62
    30
 10
-274.04380710357412
 20
10.00000000000003
 30
0.0
 40
6.0
  0
LINE
  8
SIZE
  6
CONTINUOUS
 62
    30
 10
-274.04380710357412
 20
10.00000000000003
 30
0.0
 11
-274.04380710357412
 21
22.00000000000006
 31
0.0
  0
CIRCLE
  8
SIZE
  6
CONTINUOUS
 62
    30
 10
-274.04380710357412
 20
104.96510354610341
 30
0.0
 40
6.0
  0
LINE
  8
SIZE
  6
CONTINUOUS
 62
    30
 10
-274.04380710357412
 20
104.96510354610341
 30
0.0
 11
-274.04380710357412
 21
92.965103546103421
 31
0.0
  0
TEXT
  8
SIZE
  6
CONTINUOUS
 62
    30
 10
-299.04380710357418
 20
163.90796068896049
 30
0.0
 40
64.0
  1
95
 50
90.0
 41
0.9
 72
     1
 11
-299.04380710357418
 21
210.53653211753189
 31
0.0
  0
LINE
  8
BASIS
  6
DASHDOT
 62
     6
 10
73.363129061615808
 20
10.0
 30
0.0
 11
-102.33955296210659
 21
10.0
 31
0.0
  0
LINE
  8
NOTE
  6
CONTINUOUS
 62
     4
 10
8.4107779116752663
 20
5.9999999999998286
 30
0.0
 11
-8.4107779116752663
 21
5.9999999999998286
 31
0.0
  0
LINE
  8
NOTE
  6
CONTINUOUS
 62
     4
 10
0.0
 20
-2.000000000000171
 30
0.0
 11
0.0
 21
13.999999999999829
 31
0.0
  0
CIRCLE
  8
FIX
  6
CONTINUOUS
 62
    11
 10
0.0
 20
5.9999999999998286
 30
0.0
 40
5.0
  0
LINE
  8
SIZE
  6
CONTINUOUS
 62
    30
 10
-122.33955296210659
 20
10.0
 30
0.0
 11
-294.04380710357418
 21
10.00000000000006
 31
0.0
  0
LINE
  8
SIZE
  6
CONTINUOUS
 62
    30
 10
-122.33955296210659
 20
0.0
 30
0.0
 11
-294.04380710357418
 21
0.0000000000000568
 31
0.0
  0
LINE
  8
SIZE
  6
CONTINUOUS
 62
    30
 10
-274.04380710357412
 20
22.00000000000006
 30
0.0
 11
-274.04380710357412
 21
34.00000000000005
 31
0.0
  0
LINE
  8
SIZE
  6
CONTINUOUS
 62
    30
 10
-274.04380710357412
 20
-11.99999999999994
 30
0.0
 11
-274.04380710357412
 21
-197.36740401555539
 31
0.0
  0
LINE
  8
SIZE
  6
CONTINUOUS
 62
    30
 10
-274.04380710357412
 20
10.00000000000003
 30
0.0
 11
-274.04380710357412
 21
0.0000000000000568
 31
0.0
  0
CIRCLE
  8
SIZE
  6
CONTINUOUS
 62
    30
 10
-274.04380710357412
 20
10.00000000000003
 30
0.0
 40
6.0
  0
LINE
  8
SIZE
  6
CONTINUOUS
 62
    30
 10
-274.04380710357412
 20
10.00000000000003
 30
0.0
 11
-274.04380710357412
 21
22.00000000000006
 31
0.0
  0
CIRCLE
  8
SIZE
  6
CONTINUOUS
 62
    30
 10
-274.04380710357412
 20
0.0000000000000568
 30
0.0
 40
6.0
  0
LINE
  8
SIZE
  6
CONTINUOUS
 62
    30
 10
-274.04380710357412
 20
0.0000000000000568
 30
0.0
 11
-274.04380710357412
 21
-11.99999999999994
 31
0.0
  0
TEXT
  8
SIZE
  6
CONTINUOUS
 62
    30
 10
-299.04380710357418
 20
-172.36740401555551
 30
0.0
 40
64.0
  1
10
 50
90.0
 41
0.9
 72
     1
 11
-299.04380710357418
 21
-131.22454687269831
 31
0.0
  0
LINE
  8
SIZE
  6
CONTINUOUS
 62
    30
 10
20.40698096257438
 20
-104.7928961208499
 30
0.0
 11
215.82817105751559
 21
-104.79289612085
 31
0.0
  0
LINE
  8
SIZE
  6
CONTINUOUS
 62
    30
 10
36.5
 20
-109.82618259740011
 30
0.0
 11
215.82817105751559
 21
-109.82618259740021
 31
0.0
  0
LINE
  8
SIZE
  6
CONTINUOUS
 62
    30
 10
195.82817105751559
 20
-92.792896120849989
 30
0.0
 11
195.82817105751559
 21
-80.792896120850003
 31
0.0
  0
LINE
  8
SIZE
  6
CONTINUOUS
 62
    30
 10
195.82817105751559
 20
-121.82618259740021
 30
0.0
 11
195.82817105751559
 21
-222.4575271117468
 31
0.0
  0
LINE
  8
SIZE
  6
CONTINUOUS
 62
    30
 10
195.82817105751559
 20
-104.79289612085
 30
0.0
 11
195.82817105751559
 21
-109.82618259740021
 31
0.0
  0
CIRCLE
  8
SIZE
  6
CONTINUOUS
 62
    30
 10
195.82817105751559
 20
-104.79289612085
 30
0.0
 40
6.0
  0
LINE
  8
SIZE
  6
CONTINUOUS
 62
    30
 10
195.82817105751559
 20
-104.79289612085
 30
0.0
 11
195.82817105751559
 21
-92.792896120849989
 31
0.0
  0
CIRCLE
  8
SIZE
  6
CONTINUOUS
 62
    30
 10
195.82817105751559
 20
-109.82618259740021
 30
0.0
 40
6.0
  0
LINE
  8
SIZE
  6
CONTINUOUS
 62
    30
 10
195.82817105751559
 20
-109.82618259740021
 30
0.0
 11
195.82817105751559
 21
-121.82618259740021
 31
0.0
  0
TEXT
  8
SIZE
  6
CONTINUOUS
 62
    30
 10
170.82817105751559
 20
-197.4575271117468
 30
0.0
 40
64.0
  1
5
 50
90.0
 41
0.9
 72
     1
 11
170.82817105751559
 21
-178.25752711174681
 31
0.0
  0
CIRCLE
  8
ARRANGE
  6
CONTINUOUS
 62
     1
 10
0.0
 20
0.0
 30
0.0
 40
40.0
  0
POINT
  8
ARRANGE
  6
CONTINUOUS
 62
     1
 10
0.0
 20
0.0
 30
0.0
 50
180.0
  0
LINE
  8
DETAIL
  6
CONTINUOUS
 62
     5
 10
36.0
 20
-75.500000000000213
 30
0.0
 11
36.0
 21
-104.171617662611
 31
0.0
  0
ARC
  8
DETAIL
  6
CONTINUOUS
 62
     5
 10
-9942.0000000000036
 20
20.0
 30
0.0
 40
9996.5
 50
359.29005583778599
 51
359.45262540108968
  0
ARC
  8
DETAIL
  6
CONTINUOUS
 62
     5
 10
-9942.0000000000036
 20
20.0
 30
0.0
 40
9996.1000000000004
 50
359.4526034968963
 51
359.45718915511492
  0
ARC
  8
DETAIL
  6
CONTINUOUS
 62
     5
 10
-9942.0000000000036
 20
20.0
 30
0.0
 40
9996.5
 50
359.45721087580011
 51
0.4745243529990328
  0
ARC
  8
DETAIL
  6
CONTINUOUS
 62
     5
 10
-9942.0000000000036
 20
20.0
 30
0.0
 40
10000.0
 50
359.29621618743971
 51
359.45281698802592
  0
ARC
  8
DETAIL
  6
CONTINUOUS
 62
     5
 10
-9942.0000000000036
 20
20.0
 30
0.0
 40
9999.6000000000004
 50
359.45279509916401
 51
359.45737915219308
  0
LINE
  8
DETAIL
  6
CONTINUOUS
 62
     5
 10
57.543977102154713
 20
-75.500000000000213
 30
0.0
 11
0.0
 21
-75.500000000000213
 31
0.0
  0
LINE
  8
DETAIL
  6
CONTINUOUS
 62
     5
 10
0.0
 20
-74.700000000000031
 30
0.0
 11
57.551585446218269
 21
-74.700000000000031
 31
0.0
  0
ARC
  8
DETAIL
  6
CONTINUOUS
 62
     5
 10
0.4000000000005457
 20
104.39295044789991
 30
0.0
 40
0.4000000000000025
 50
89.000016485397651
 51
179.99905534600791
  0
ARC
  8
DETAIL
  6
CONTINUOUS
 62
     5
 10
0.4000000000005457
 20
-104.39295704280001
 30
0.0
 40
0.4000000000000225
 50
180.0
 51
271.00000000001478
  0
LINE
  8
DETAIL
  6
CONTINUOUS
 62
     5
 10
15.0
 20
-108.3000000000002
 30
0.0
 11
15.0
 21
-104.9771574629001
 31
0.0
  0
LINE
  8
DETAIL
  6
CONTINUOUS
 62
     5
 10
14.80284451340049
 20
-108.3034413618001
 30
0.0
 11
15.0
 21
-108.3000000000002
 31
0.0
  0
ARC
  8
DETAIL
  6
CONTINUOUS
 62
     5
 10
14.8100000000004
 20
-108.7133789169001
 30
0.0
 40
0.410000000000075
 50
91.000000000014808
 51
180.0
  0
LINE
  8
DETAIL
  6
CONTINUOUS
 62
     5
 10
14.39999999999964
 20
-108.8866210832001
 30
0.0
 11
14.39999999999964
 21
-108.7133789169001
 31
0.0
  0
ARC
  8
DETAIL
  6
CONTINUOUS
 62
     5
 10
14.8100000000004
 20
-108.8866210832001
 30
0.0
 40
0.4099999999999726
 50
180.0
 51
268.99999999998522
  0
LINE
  8
DETAIL
  6
CONTINUOUS
 62
     5
 10
14.80284451340049
 20
-109.2965586382001
 30
0.0
 11
15.0
 21
-109.3000000000002
 31
0.0
  0
ARC
  8
DETAIL
  6
CONTINUOUS
 62
     5
 10
15.5
 20
-109.30865136849999
 30
0.0
 40
0.5000000000000026
 50
180.0
 51
268.99999999999818
  0
LINE
  8
DETAIL
  6
CONTINUOUS
 62
     5
 10
15.49127379680067
 20
-109.80857521599999
 30
0.0
 11
16.5
 21
-109.82618259740011
 31
0.0
  0
ARC
  8
DETAIL
  6
CONTINUOUS
 62
     5
 10
16.5
 20
-109.32618259740011
 30
0.0
 40
0.49999999999999
 50
270.0
 51
0.0
  0
LINE
  8
DETAIL
  6
CONTINUOUS
 62
     5
 10
17.0
 20
-104.9946125278002
 30
0.0
 11
17.0
 21
-109.32618259740011
 31
0.0
  0
ARC
  8
DETAIL
  6
CONTINUOUS
 62
     5
 10
17.5
 20
-104.9946125278002
 30
0.0
 40
0.5000000000000076
 50
91.000000000001776
 51
180.0
  0
ARC
  8
DETAIL
  6
CONTINUOUS
 62
     5
 10
56.245682133299852
 20
-102.8180756384002
 30
0.0
 40
1.000000000000077
 50
271.00000000000182
 51
359.29621618740072
  0
ARC
  8
DETAIL
  6
CONTINUOUS
 62
     5
 10
56.657077613900128
 20
102.8108947034999
 30
0.0
 40
1.00000000000002
 50
0.4745243164978324
 51
89.000000022005111
  0
LINE
  8
DETAIL
  6
CONTINUOUS
 62
     5
 10
56.674530019799931
 20
103.8107423986999
 30
0.0
 11
0.4069809626007554
 21
104.7928961208997
 31
0.0
  0
LINE
  8
DETAIL
  6
CONTINUOUS
 62
     5
 10
56.263134539699877
 20
-103.81792333360021
 30
0.0
 11
0.4069809625743801
 21
-104.7928961208499
 31
0.0
  0
ARC
  8
DETAIL
  6
CONTINUOUS
 62
     5
 10
14.5
 20
-104.9771574629001
 30
0.0
 40
0.5000000000005225
 50
0.0
 51
60.359360235393638
  0
ARC
  8
DETAIL
  6
CONTINUOUS
 62
     5
 10
-9942.0000000000036
 20
20.0
 30
0.0
 40
10000.0
 50
359.45740085767392
 51
0.4745243529990328
  0
LINE
  8
DETAIL
  6
CONTINUOUS
 62
     5
 10
0.0
 20
104.39295704279991
 30
0.0
 11
0.0
 21
-104.39295704280001
 31
0.0
  0
LINE
  8
DETAIL
  6
CONTINUOUS
 62
     5
 10
-57.699999999999818
 20
80.607906782564669
 30
0.0
 11
0.0
 21
81.11144705409987
 31
0.0
  0
LINE
  8
DETAIL
  6
CONTINUOUS
 62
     5
 10
-57.699999999999818
 20
-58.457906782665553
 30
0.0
 11
0.0
 21
-58.961447054149232
 31
0.0
  0
ARC
  8
DETAIL
  6
CONTINUOUS
 62
     5
 10
-67.300000000000182
 20
-10.25000000000011
 30
0.0
 40
2.6000000000000152
 50
180.0
 51
270.0
  0
LINE
  8
DETAIL
  6
CONTINUOUS
 62
     5
 10
-69.900000000000546
 20
-10.25000000000011
 30
0.0
 11
-69.900000000000546
 21
30.249927635199811
 31
0.0
  0
ARC
  8
DETAIL
  6
CONTINUOUS
 62
     5
 10
-67.300000000000182
 20
30.24999999999989
 30
0.0
 40
2.5999999999999091
 50
90.0
 51
180.0
  0
LINE
  8
DETAIL
  6
CONTINUOUS
 62
     5
 10
-67.300000000000182
 20
32.849999999999909
 30
0.0
 11
-57.699999999999818
 21
32.849999999999909
 31
0.0
  0
LINE
  8
DETAIL
  6
CONTINUOUS
 62
     5
 10
-67.300000000000182
 20
-12.85000000000014
 30
0.0
 11
-57.699999999999818
 21
-12.85000000000014
 31
0.0
  0
LINE
  8
DETAIL
  6
CONTINUOUS
 62
     5
 10
-57.699999999999818
 20
-58.457906782665553
 30
0.0
 11
-57.699999999999818
 21
80.607906782564669
 31
0.0
  0
LINE
  8
DETAIL
  6
CONTINUOUS
 62
     5
 10
4.2503668127519632
 20
-105.3434833909452
 30
0.0
 11
0.3496331871556322
 21
-105.3434833909452
 31
0.0
  0
LINE
  8
DETAIL
  6
CONTINUOUS
 62
     5
 10
0.3658911890161107
 20
-106.2749036932812
 30
0.0
 11
4.2341083772453203
 21
-106.2749285366194
 31
0.0
  0
LINE
  8
DETAIL
  6
CONTINUOUS
 62
     5
 10
0.3842880273477931
 20
-107.05817468824991
 30
0.0
 11
4.2204367648037078
 21
-107.05817468824991
 31
0.0
  0
LINE
  8
DETAIL
  6
CONTINUOUS
 62
     5
 10
4.2611516352999388
 20
-104.72562132144991
 30
0.0
 11
4.2213608178999493
 21
-107.0052357218842
 31
0.0
  0
ARC
  8
DETAIL
  6
CONTINUOUS
 62
     5
 10
3.9214065094001849
 20
-106.99999999995001
 30
0.0
 40
0.30000000000002
 50
270.0
 51
359.00000000000148
  0
LINE
  8
DETAIL
  6
CONTINUOUS
 62
     5
 10
0.6785934905001341
 20
-107.2999999999499
 30
0.0
 11
3.9214065094001849
 21
-107.2999999999499
 31
0.0
  0
ARC
  8
DETAIL
  6
CONTINUOUS
 62
     5
 10
0.6785934905001341
 20
-106.99999999995001
 30
0.0
 40
0.3000000000000125
 50
180.99999999999849
 51
270.0
  0
LINE
  8
DETAIL
  6
CONTINUOUS
 62
     5
 10
0.3786391820003701
 20
-107.0052357218829
 30
0.0
 11
0.3399445724808174
 21
-104.7884230282216
 31
0.0
  0
ARC
  8
OUTLINE
  6
CONTINUOUS
 62
     3
 10
-9942.0000000000036
 20
20.0
 30
0.0
 40
10000.0
 50
359.29621618743971
 51
359.45281698802592
  0
ARC
  8
OUTLINE
  6
CONTINUOUS
 62
     3
 10
-9942.0000000000036
 20
20.0
 30
0.0
 40
9999.6000000000004
 50
359.45279509916401
 51
359.45737915219638
  0
ARC
  8
OUTLINE
  6
CONTINUOUS
 62
     3
 10
0.4000000000005457
 20
104.39295044789991
 30
0.0
 40
0.4000000000000025
 50
89.000016485397651
 51
179.99905534600791
  0
ARC
  8
OUTLINE
  6
CONTINUOUS
 62
     3
 10
0.4000000000005457
 20
-104.39295704280001
 30
0.0
 40
0.4000000000000225
 50
180.0
 51
271.00000000001478
  0
ARC
  8
OUTLINE
  6
CONTINUOUS
 62
     3
 10
56.245682133299852
 20
-102.8180756384002
 30
0.0
 40
1.000000000000077
 50
271.00000000000182
 51
359.29621618740072
  0
ARC
  8
OUTLINE
  6
CONTINUOUS
 62
     3
 10
56.657077613900128
 20
102.8108947034999
 30
0.0
 40
1.00000000000002
 50
0.4745243164978324
 51
89.000000022005111
  0
LINE
  8
OUTLINE
  6
CONTINUOUS
 62
     3
 10
56.674530019799931
 20
103.8107423986999
 30
0.0
 11
0.4069809626007554
 21
104.7928961208997
 31
0.0
  0
LINE
  8
OUTLINE
  6
CONTINUOUS
 62
     3
 10
56.263134539699877
 20
-103.81792333360021
 30
0.0
 11
0.4069809625743801
 21
-104.7928961208499
 31
0.0
  0
ARC
  8
OUTLINE
  6
CONTINUOUS
 62
     3
 10
-9942.0000000000036
 20
20.0
 30
0.0
 40
10000.0
 50
359.4574008576771
 51
0.4745243529957761
  0
LINE
  8
OUTLINE
  6
CONTINUOUS
 62
     3
 10
0.0
 20
104.39295704279991
 30
0.0
 11
0.0
 21
-104.39295704280001
 31
0.0
  0
LINE
  8
OUTLINE
  6
CONTINUOUS
 62
     3
 10
-57.699999999999818
 20
80.607906782564669
 30
0.0
 11
0.0
 21
81.11144705409987
 31
0.0
  0
LINE
  8
OUTLINE
  6
CONTINUOUS
 62
     3
 10
-57.699999999999818
 20
-58.457906782665553
 30
0.0
 11
0.0
 21
-58.961447054149232
 31
0.0
  0
ARC
  8
OUTLINE
  6
CONTINUOUS
 62
     3
 10
-67.300000000000182
 20
-10.25000000000011
 30
0.0
 40
2.6000000000000152
 50
180.0
 51
270.0
  0
LINE
  8
OUTLINE
  6
CONTINUOUS
 62
     3
 10
-69.900000000000546
 20
-10.25000000000011
 30
0.0
 11
-69.900000000000546
 21
30.249927635199811
 31
0.0
  0
ARC
  8
OUTLINE
  6
CONTINUOUS
 62
     3
 10
-67.300000000000182
 20
30.24999999999989
 30
0.0
 40
2.5999999999999091
 50
90.0
 51
180.0
  0
LINE
  8
OUTLINE
  6
CONTINUOUS
 62
     3
 10
-67.300000000000182
 20
32.849999999999909
 30
0.0
 11
-57.699999999999818
 21
32.849999999999909
 31
0.0
  0
LINE
  8
OUTLINE
  6
CONTINUOUS
 62
     3
 10
-67.300000000000182
 20
-12.85000000000014
 30
0.0
 11
-57.699999999999818
 21
-12.85000000000014
 31
0.0
  0
LINE
  8
OUTLINE
  6
CONTINUOUS
 62
     3
 10
-57.699999999999818
 20
-58.457906782665553
 30
0.0
 11
-57.699999999999818
 21
80.607906782564669
 31
0.0
  0
LINE
  8
OUTLINE
  6
CONTINUOUS
 62
     3
 10
0.0
 20
-2.0000000000001141
 30
0.0
 11
0.0
 21
13.99999999999989
 31
0.0
  0
LINE
  8
OUTLINE
  6
CONTINUOUS
 62
     3
 10
15.0
 20
-108.3000000000002
 30
0.0
 11
15.0
 21
-104.9771574629001
 31
0.0
  0
LINE
  8
OUTLINE
  6
CONTINUOUS
 62
     3
 10
14.80284451340049
 20
-108.3034413618001
 30
0.0
 11
15.0
 21
-108.3000000000002
 31
0.0
  0
ARC
  8
OUTLINE
  6
CONTINUOUS
 62
     3
 10
14.8100000000004
 20
-108.7133789169001
 30
0.0
 40
0.410000000000075
 50
91.000000000014808
 51
180.0
  0
LINE
  8
OUTLINE
  6
CONTINUOUS
 62
     3
 10
14.39999999999964
 20
-108.8866210832001
 30
0.0
 11
14.39999999999964
 21
-108.7133789169001
 31
0.0
  0
ARC
  8
OUTLINE
  6
CONTINUOUS
 62
     3
 10
14.8100000000004
 20
-108.8866210832001
 30
0.0
 40
0.4099999999999726
 50
180.0
 51
268.99999999998522
  0
LINE
  8
OUTLINE
  6
CONTINUOUS
 62
     3
 10
14.80284451340049
 20
-109.2965586382001
 30
0.0
 11
15.0
 21
-109.3000000000002
 31
0.0
  0
ARC
  8
OUTLINE
  6
CONTINUOUS
 62
     3
 10
15.5
 20
-109.30865136849999
 30
0.0
 40
0.5000000000000026
 50
180.0
 51
268.99999999999818
  0
LINE
  8
OUTLINE
  6
CONTINUOUS
 62
     3
 10
15.49127379680067
 20
-109.80857521599999
 30
0.0
 11
16.5
 21
-109.82618259740011
 31
0.0
  0
ARC
  8
OUTLINE
  6
CONTINUOUS
 62
     3
 10
16.5
 20
-109.32618259740011
 30
0.0
 40
0.49999999999999
 50
270.0
 51
0.0
  0
LINE
  8
OUTLINE
  6
CONTINUOUS
 62
     3
 10
17.0
 20
-104.9946125278002
 30
0.0
 11
17.0
 21
-109.32618259740011
 31
0.0
  0
ARC
  8
OUTLINE
  6
CONTINUOUS
 62
     3
 10
17.5
 20
-104.9946125278002
 30
0.0
 40
0.5000000000000076
 50
91.000000000001776
 51
180.0
  0
ARC
  8
OUTLINE
  6
CONTINUOUS
 62
     3
 10
14.5
 20
-104.9771574629001
 30
0.0
 40
0.5000000000005225
 50
0.0
 51
60.359360235393638
  0
ENDSEC
  0
EOF
