  0
SECTION
  2
HEADER
  9
$ACADVER
  1
AC1009
  9
$DWGCODEPAGE
  3
dos932
  9
$INSBASE
 10
0.0
 20
0.0
 30
0.0
  9
$EXTMIN
 10
-665.27708309618538
 20
-282.94371369171859
 30
-0.0015258207003583
  9
$EXTMAX
 10
748.66334132228803
 20
747.25342617283241
 30
0.0000000349246037
  9
$LIMMIN
 10
-2970.0
 20
-2100.0
  9
$LIMMAX
 10
2970.0
 20
2100.0
  9
$ORTHOMODE
 70
     1
  9
$REGENMODE
 70
     1
  9
$FILLMODE
 70
     1
  9
$QTEXTMODE
 70
     0
  9
$MIRRTEXT
 70
     0
  9
$LTSCALE
 40
20.0
  9
$ATTMODE
 70
     1
  9
$TEXTSIZE
 40
64.0
  9
$TRACEWID
 40
0.05
  9
$TEXTSTYLE
  7
STANDARD
  9
$CLAYER
  8
SIZE
  9
$CELTYPE
  6
CONTINUOUS
  9
$CECOLOR
 62
     7
  9
$DIMSCALE
 40
1.0
  9
$DIMASZ
 40
12.0
  9
$DIMEXO
 40
20.0
  9
$DIMDLI
 40
200.0
  9
$DIMRND
 40
0.0
  9
$DIMDLE
 40
0.0
  9
$DIMEXE
 40
20.0
  9
$DIMTP
 40
0.0
  9
$DIMTM
 40
0.0
  9
$DIMTXT
 40
64.0
  9
$DIMCEN
 40
0.09
  9
$DIMTSZ
 40
0.0
  9
$DIMTOL
 70
     0
  9
$DIMLIM
 70
     0
  9
$DIMTIH
 70
     0
  9
$DIMTOH
 70
     0
  9
$DIMSE1
 70
     0
  9
$DIMSE2
 70
     0
  9
$DIMTAD
 70
     1
  9
$DIMZIN
 70
     8
  9
$DIMBLK
  1

  9
$DIMASO
 70
     1
  9
$DIMSHO
 70
     0
  9
$DIMPOST
  1

  9
$DIMAPOST
  1

  9
$DIMALT
 70
     0
  9
$DIMALTD
 70
     2
  9
$DIMALTF
 40
25.399999999999999
  9
$DIMLFAC
 40
1.0
  9
$DIMTOFL
 70
     1
  9
$DIMTVP
 40
0.0
  9
$DIMTIX
 70
     1
  9
$DIMSOXD
 70
     0
  9
$DIMSAH
 70
     0
  9
$DIMBLK1
  1

  9
$DIMBLK2
  1

  9
$DIMSTYLE
  2
STANDARD
  9
$DIMCLRD
 70
     7
  9
$DIMCLRE
 70
     7
  9
$DIMCLRT
 70
     7
  9
$DIMTFAC
 40
1.0
  9
$DIMGAP
 40
25.0
  9
$LUNITS
 70
     2
  9
$LUPREC
 70
     4
  9
$SKETCHINC
 40
0.1
  9
$FILLETRAD
 40
3.0
  9
$AUNITS
 70
     1
  9
$AUPREC
 70
     3
  9
$MENU
  1
ACAD
  9
$ELEVATION
 40
0.0
  9
$PELEVATION
 40
0.0
  9
$THICKNESS
 40
0.0
  9
$LIMCHECK
 70
     0
  9
$CHAMFERA
 40
0.0
  9
$CHAMFERB
 40
0.0
  9
$SKPOLY
 70
     0
  9
$TDCREATE
 40
2453019.623009259
  9
$TDUPDATE
 40
2459356.664243322
  9
$TDINDWG
 40
1.7280831134
  9
$TDUSRTIMER
 40
1.7280831134
  9
$USRTIMER
 70
     1
  9
$ANGBASE
 50
0.0
  9
$ANGDIR
 70
     0
  9
$PDMODE
 70
     3
  9
$PDSIZE
 40
-2.0
  9
$PLINEWID
 40
0.0
  9
$SPLFRAME
 70
     0
  9
$SPLINETYPE
 70
     6
  9
$SPLINESEGS
 70
     8
  9
$SURFTAB1
 70
     6
  9
$SURFTAB2
 70
     6
  9
$SURFTYPE
 70
     6
  9
$SURFU
 70
     6
  9
$SURFV
 70
     6
  9
$UCSNAME
  2

  9
$UCSORG
 10
0.0
 20
0.0
 30
0.0
  9
$UCSXDIR
 10
1.0
 20
0.0
 30
0.0
  9
$UCSYDIR
 10
0.0
 20
1.0
 30
0.0
  9
$PUCSNAME
  2

  9
$PUCSORG
 10
0.0
 20
0.0
 30
0.0
  9
$PUCSXDIR
 10
1.0
 20
0.0
 30
0.0
  9
$PUCSYDIR
 10
0.0
 20
1.0
 30
0.0
  9
$USERI1
 70
     0
  9
$USERI2
 70
     0
  9
$USERI3
 70
     0
  9
$USERI4
 70
     0
  9
$USERI5
 70
     0
  9
$USERR1
 40
20.0
  9
$USERR2
 40
0.0
  9
$USERR3
 40
0.0
  9
$USERR4
 40
0.0
  9
$USERR5
 40
0.0
  9
$WORLDVIEW
 70
     1
  9
$SHADEDGE
 70
     3
  9
$SHADEDIF
 70
    70
  9
$TILEMODE
 70
     1
  9
$MAXACTVP
 70
    48
  9
$PINSBASE
 10
0.0
 20
0.0
 30
0.0
  9
$PLIMCHECK
 70
     0
  9
$PEXTMIN
 10
-100000000000000000000.0
 20
-100000000000000000000.0
 30
-100000000000000000000.0
  9
$PEXTMAX
 10
100000000000000000000.0
 20
100000000000000000000.0
 30
100000000000000000000.0
  9
$PLIMMIN
 10
0.0
 20
0.0
  9
$PLIMMAX
 10
12.0
 20
9.0
  9
$UNITMODE
 70
     0
  9
$VISRETAIN
 70
     0
  9
$PLINEGEN
 70
     0
  9
$PSLTSCALE
 70
     0
  9
$TREEDEPTH
 70
  3020
  9
$ATTDIA
 70
     0
  9
$ATTREQ
 70
     1
  9
$BLIPMODE
 70
     1
  9
$COORDS
 70
     1
  9
$DRAGMODE
 70
     2
  9
$OSMODE
 70
     0
  9
$HANDLING
 70
     0
  9
$HANDSEED
  5
265
  0
ENDSEC
  0
SECTION
  2
TABLES
  0
TABLE
  2
LTYPE
 70
     2
  0
LTYPE
  2
CONTINUOUS
 70
     0
  3
実線
 72
    65
 73
     0
 40
0.0
  0
LTYPE
  2
DASHDOT
 70
     0
  3
____ _ ____ _ ____ _ ____ _ ____ _ ____ _ ____
 72
    65
 73
     4
 40
5.5
 49
4.0
 49
-0.6
 49
0.3
 49
-0.6
  0
ENDTAB
  0
TABLE
  2
LAYER
 70
    12
  0
LAYER
  2
SIZE
 70
     0
 62
    30
  6
CONTINUOUS
  0
LAYER
  2
BASIS
 70
     0
 62
     6
  6
DASHDOT
  0
LAYER
  2
OUTLINE
 70
     0
 62
     3
  6
CONTINUOUS
  0
LAYER
  2
DETAIL
 70
     0
 62
     5
  6
CONTINUOUS
  0
LAYER
  2
ARRANGE
 70
     0
 62
     1
  6
CONTINUOUS
  0
LAYER
  2
ETC
 70
     0
 62
    61
  6
CONTINUOUS
  0
LAYER
  2
FIX
 70
     0
 62
    11
  6
CONTINUOUS
  0
LAYER
  2
NOTE
 70
     0
 62
     4
  6
CONTINUOUS
  0
LAYER
  2
0
 70
    64
 62
     7
  6
CONTINUOUS
  0
LAYER
  2
DEFPOINTS
 70
    64
 62
     7
  6
CONTINUOUS
  0
LAYER
  2
SERVICESPACE
 70
    64
 62
     2
  6
DASHDOT
  0
LAYER
  2
SYMBOLLINE
 70
    64
 62
    15
  6
CONTINUOUS
  0
ENDTAB
  0
TABLE
  2
STYLE
 70
     1
  0
STYLE
  2
STANDARD
 70
     0
 40
64.0
 41
0.9
 50
0.0
 71
     0
 42
64.0
  3
SIMPLEX.shx
  4
BIGFONT.shx
  0
ENDTAB
  0
TABLE
  2
APPID
 70
    20
  0
APPID
  2
ACAD
 70
     0
  0
APPID
  2
ACADANNOTATIVE
 70
     0
  0
APPID
  2
AUTOCAD_POSTSCRIPT_FIGURE
 70
     0
  0
APPID
  2
ACAD_EXEMPT_FROM_CAD_STANDARDS
 70
     0
  0
APPID
  2
ACAD_PSEXT
 70
     0
  0
APPID
  2
ACAUTHENVIRON
 70
     0
  0
APPID
  2
GENIUS_GENOENT_13
 70
     0
  0
APPID
  2
GENIUS_GENCFG_13
 70
     0
  0
APPID
  2
GENIUS_GENCFG0_13
 70
     0
  0
APPID
  2
GENIUS_GENCFG1_13
 70
     0
  0
APPID
  2
GENIUS_GENCFG2_13
 70
     0
  0
APPID
  2
GENIUS_GENCFG3_13
 70
     0
  0
APPID
  2
GENIUS_GENCFG4_13
 70
     0
  0
APPID
  2
GENIUS_GEVCFG0_13
 70
     0
  0
APPID
  2
CONTENTBLOCKICON
 70
     0
  0
APPID
  2
CONTENTBLOCKDESCRIPTION
 70
     0
  0
APPID
  2
ACAD_NAV_VCDISPLAY
 70
     0
  0
APPID
  2
ACAD_MLEADERVER
 70
     0
  0
APPID
  2
ACDBDYNAMICBLOCKTRUENAME
 70
     0
  0
APPID
  2
ACDBDYNAMICBLOCKGUID
 70
     0
  0
ENDTAB
  0
TABLE
  2
DIMSTYLE
 70
     1
  0
DIMSTYLE
  2
STANDARD
 70
     0
  3

  4

  5

  6

  7

 40
1.0
 41
12.0
 42
20.0
 43
200.0
 44
20.0
 45
0.0
 46
0.0
 47
0.0
 48
0.0
140
64.0
141
0.09
142
0.0
143
25.399999999999999
144
1.0
145
0.0
146
1.0
147
25.0
 71
     0
 72
     0
 73
     0
 74
     0
 75
     0
 76
     0
 77
     1
 78
     8
170
     0
171
     2
172
     1
173
     0
174
     1
175
     0
176
     7
177
     7
178
     7
  0
ENDTAB
  0
TABLE
  2
VIEW
 70
     1
  0
VIEW
  2
ALL
 70
     0
 40
4282.6198079999986
 10
0.0
 20
41.309904000000003
 41
5940.0
 11
0.0
 21
0.0
 31
1.0
 12
0.0
 22
0.0
 32
0.0
 42
50.0
 43
0.0
 44
0.0
 50
0.0
 71
     0
  0
ENDTAB
  0
TABLE
  2
UCS
 70
     0
  0
ENDTAB
  0
TABLE
  2
VPORT
 70
     1
  0
VPORT
  2
*ACTIVE
 70
     0
 10
0.0
 20
0.0
 11
1.0
 21
1.0
 12
41.693129113051299
 22
232.15485624055691
 13
0.0
 23
0.0
 14
1.0
 24
1.0
 15
0.0
 25
0.0
 16
0.0
 26
0.0
 36
1.0
 17
0.0
 27
0.0
 37
0.0
 40
899.20928243430262
 41
1.9148387096774191
 42
50.0
 43
0.0
 44
0.0
 50
0.0
 51
0.0
 71
     0
 72
  1000
 73
     1
 74
     3
 75
     0
 76
     0
 77
     0
 78
     0
  0
ENDTAB
  0
ENDSEC
  0
SECTION
  2
BLOCKS
  0
ENDSEC
  0
SECTION
  2
ENTITIES
  0
TEXT
  8
ETC
  6
CONTINUOUS
 62
    61
 10
249.15651531498179
 20
683.09049913574847
 30
0.0
 40
64.0
  1
V-12PD8_5
 41
0.9
  0
TEXT
  8
ETC
  6
CONTINUOUS
 62
    61
 10
244.9705213149814
 20
565.1351891209174
 30
0.0
 40
64.0
  1
換気扇
 41
0.9
  0
LINE
  8
BASIS
  6
DASHDOT
 62
     6
 10
0.0
 20
-123.2481241666499
 30
0.0
 11
0.0
 21
123.2481241666499
 31
0.0
  0
LINE
  8
BASIS
  6
DASHDOT
 62
     6
 10
73.363129061615808
 20
0.0
 30
0.0
 11
-102.33955296210659
 21
0.0
 31
0.0
  0
TEXT
  8
ETC
  6
CONTINUOUS
 62
    61
 10
295.67191956353741
 20
456.98641623469211
 30
0.0
 40
40.0
  1
V-12PD8
 41
0.9
  0
LINE
  8
SIZE
  6
CONTINUOUS
 62
    30
 10
0.0
 20
143.24812416664989
 30
0.0
 11
0.0000000000000284
 21
435.41205436948121
 31
0.0
  0
LINE
  8
SIZE
  6
CONTINUOUS
 62
    30
 10
39.300000000000637
 20
20.0
 30
0.0
 11
39.300000000000672
 21
435.41205436948121
 31
0.0
  0
LINE
  8
SIZE
  6
CONTINUOUS
 62
    30
 10
-11.99999999999997
 20
415.41205436948121
 30
0.0
 11
-23.999999999999972
 21
415.41205436948121
 31
0.0
  0
LINE
  8
SIZE
  6
CONTINUOUS
 62
    30
 10
51.300000000000672
 20
415.41205436948121
 30
0.0
 11
236.80713803697961
 21
415.41205436948121
 31
0.0
  0
LINE
  8
SIZE
  6
CONTINUOUS
 62
    30
 10
0.0000000000000284
 20
415.41205436948121
 30
0.0
 11
39.300000000000672
 21
415.41205436948121
 31
0.0
  0
CIRCLE
  8
SIZE
  6
CONTINUOUS
 62
    30
 10
0.0000000000000284
 20
415.41205436948121
 30
0.0
 40
6.0
  0
LINE
  8
SIZE
  6
CONTINUOUS
 62
    30
 10
0.0000000000000284
 20
415.41205436948121
 30
0.0
 11
-11.99999999999997
 21
415.41205436948121
 31
0.0
  0
CIRCLE
  8
SIZE
  6
CONTINUOUS
 62
    30
 10
39.300000000000672
 20
415.41205436948121
 30
0.0
 40
6.0
  0
LINE
  8
SIZE
  6
CONTINUOUS
 62
    30
 10
39.300000000000672
 20
415.41205436948121
 30
0.0
 11
51.300000000000672
 21
415.41205436948121
 31
0.0
  0
TEXT
  8
SIZE
  6
CONTINUOUS
 62
    30
 10
121.2928523226939
 20
440.41205436948121
 30
0.0
 40
64.0
  1
39
 41
0.9
 72
     1
 11
166.54999517983671
 21
440.41205436948121
 31
0.0
  0
LINE
  8
SIZE
  6
CONTINUOUS
 62
    30
 10
-59.699999999999818
 20
99.318232138800127
 30
0.0
 11
-59.69999999999979
 21
305.31664000440242
 31
0.0
  0
LINE
  8
SIZE
  6
CONTINUOUS
 62
    30
 10
0.0
 20
143.24812416664989
 30
0.0
 11
0.0
 21
305.31664000440242
 31
0.0
  0
LINE
  8
SIZE
  6
CONTINUOUS
 62
    30
 10
12.0
 20
285.31664000440242
 30
0.0
 11
24.0
 21
285.31664000440242
 31
0.0
  0
LINE
  8
SIZE
  6
CONTINUOUS
 62
    30
 10
-71.699999999999804
 20
285.31664000440242
 30
0.0
 11
-268.09999999999991
 21
285.31664000440242
 31
0.0
  0
LINE
  8
SIZE
  6
CONTINUOUS
 62
    30
 10
0.0
 20
285.31664000440242
 30
0.0
 11
-59.69999999999979
 21
285.31664000440242
 31
0.0
  0
CIRCLE
  8
SIZE
  6
CONTINUOUS
 62
    30
 10
0.0
 20
285.31664000440242
 30
0.0
 40
6.0
  0
LINE
  8
SIZE
  6
CONTINUOUS
 62
    30
 10
0.0
 20
285.31664000440242
 30
0.0
 11
12.0
 21
285.31664000440242
 31
0.0
  0
CIRCLE
  8
SIZE
  6
CONTINUOUS
 62
    30
 10
-59.69999999999979
 20
285.31664000440242
 30
0.0
 40
6.0
  0
LINE
  8
SIZE
  6
CONTINUOUS
 62
    30
 10
-59.69999999999979
 20
285.31664000440242
 30
0.0
 11
-71.699999999999804
 21
285.31664000440242
 31
0.0
  0
TEXT
  8
SIZE
  6
CONTINUOUS
 62
    30
 10
-243.09999999999991
 20
310.31664000440242
 30
0.0
 40
64.0
  1
60
 41
0.9
 72
     1
 11
-196.47142857142839
 21
310.31664000440242
 31
0.0
  0
TEXT
  8
NOTE
  6
CONTINUOUS
 62
     4
 10
-509.05152868201611
 20
-237.22757909298781
 30
0.0
 40
64.0
  1
2-φ4×10
 41
0.9
 72
     2
 11
-107.4972429677305
 21
-237.22757909298781
 31
0.0
  0
LINE
  8
NOTE
  6
CONTINUOUS
 62
     4
 10
-0.4024975931202164
 20
-0.1986042765717002
 30
0.0
 11
0.0
 21
5.9999999999999432
 31
0.0
  0
LINE
  8
NOTE
  6
CONTINUOUS
 62
     4
 10
0.0
 20
5.9999999999999432
 30
0.0
 11
-3.4478830651136718
 21
0.8331052208020537
 31
0.0
  0
LINE
  8
NOTE
  6
CONTINUOUS
 62
     4
 10
0.0
 20
5.9999999999999432
 30
0.0
 11
-3.8503806582338882
 21
-5.3654990557695896
 31
0.0
  0
LINE
  8
NOTE
  6
CONTINUOUS
 62
     4
 10
-3.8503806582338882
 20
-5.3654990557695896
 30
0.0
 11
-97.80517306057709
 21
-282.82624264533189
 31
0.0
  0
LINE
  8
NOTE
  6
CONTINUOUS
 62
     4
 10
-97.80517306057709
 20
-282.82624264533189
 30
0.0
 11
-502.58231591771982
 21
-282.82624264533189
 31
0.0
  0
LINE
  8
SIZE
  6
CONTINUOUS
 62
    30
 10
-72.399999999999622
 20
42.132986652399957
 30
0.0
 11
-72.399999999999622
 21
435.41205436948121
 31
0.0
  0
LINE
  8
SIZE
  6
CONTINUOUS
 62
    30
 10
0.0
 20
143.24812416664989
 30
0.0
 11
0.0000000000000284
 21
435.41205436948121
 31
0.0
  0
LINE
  8
SIZE
  6
CONTINUOUS
 62
    30
 10
12.00000000000003
 20
415.41205436948121
 30
0.0
 11
24.000000000000028
 21
415.41205436948121
 31
0.0
  0
LINE
  8
SIZE
  6
CONTINUOUS
 62
    30
 10
-84.399999999999622
 20
415.41205436948121
 30
0.0
 11
-282.17142857142818
 21
415.41205436948121
 31
0.0
  0
LINE
  8
SIZE
  6
CONTINUOUS
 62
    30
 10
0.0000000000000284
 20
415.41205436948121
 30
0.0
 11
-72.399999999999622
 21
415.41205436948121
 31
0.0
  0
CIRCLE
  8
SIZE
  6
CONTINUOUS
 62
    30
 10
0.0000000000000284
 20
415.41205436948121
 30
0.0
 40
6.0
  0
LINE
  8
SIZE
  6
CONTINUOUS
 62
    30
 10
0.0000000000000284
 20
415.41205436948121
 30
0.0
 11
12.00000000000003
 21
415.41205436948121
 31
0.0
  0
CIRCLE
  8
SIZE
  6
CONTINUOUS
 62
    30
 10
-72.399999999999622
 20
415.41205436948121
 30
0.0
 40
6.0
  0
LINE
  8
SIZE
  6
CONTINUOUS
 62
    30
 10
-72.399999999999622
 20
415.41205436948121
 30
0.0
 11
-84.399999999999622
 21
415.41205436948121
 31
0.0
  0
TEXT
  8
SIZE
  6
CONTINUOUS
 62
    30
 10
-257.17142857142818
 20
440.41205436948121
 30
0.0
 40
64.0
  1
72
 41
0.9
 72
     1
 11
-210.5428571428568
 21
440.41205436948121
 31
0.0
  0
LINE
  8
SIZE
  6
CONTINUOUS
 62
    30
 10
-20.0
 20
69.716727307831434
 30
0.0
 11
-585.38129534762447
 21
69.716727307831604
 31
0.0
  0
LINE
  8
SIZE
  6
CONTINUOUS
 62
    30
 10
-20.0
 20
-69.811447054151586
 30
0.0
 11
-585.38129534762447
 21
-69.811447054151415
 31
0.0
  0
LINE
  8
SIZE
  6
CONTINUOUS
 62
    30
 10
-565.38129534762447
 20
57.716727307831597
 30
0.0
 11
-565.38129534762447
 21
-57.811447054151429
 31
0.0
  0
CIRCLE
  8
SIZE
  6
CONTINUOUS
 62
    30
 10
-565.38129534762447
 20
69.716727307831604
 30
0.0
 40
6.0
  0
LINE
  8
SIZE
  6
CONTINUOUS
 62
    30
 10
-565.38129534762447
 20
69.716727307831604
 30
0.0
 11
-565.38129534762447
 21
57.716727307831597
 31
0.0
  0
CIRCLE
  8
SIZE
  6
CONTINUOUS
 62
    30
 10
-565.38129534762447
 20
-69.811447054151429
 30
0.0
 40
6.0
  0
LINE
  8
SIZE
  6
CONTINUOUS
 62
    30
 10
-565.38129534762447
 20
-69.811447054151429
 30
0.0
 11
-565.38129534762447
 21
-57.811447054151429
 31
0.0
  0
TEXT
  8
SIZE
  6
CONTINUOUS
 62
    30
 10
-601.0479620142911
 20
-108.9387884445886
 30
0.0
 40
64.0
  1
φ140
 50
90.0
 41
0.9
 72
     1
 11
-601.0479620142911
 21
-0.0473598731600191
 31
0.0
  0
LINE
  8
SIZE
  6
CONTINUOUS
 62
    30
 10
-79.699999999999804
 20
25.302757766340392
 30
0.0
 11
-459.89969466916818
 21
25.302757766340509
 31
0.0
  0
LINE
  8
SIZE
  6
CONTINUOUS
 62
    30
 10
-79.699999999999804
 20
-25.302757766340392
 30
0.0
 11
-459.89969466916818
 21
-25.302757766340282
 31
0.0
  0
LINE
  8
SIZE
  6
CONTINUOUS
 62
    30
 10
-439.89969466916818
 20
-37.302757766340278
 30
0.0
 11
-439.89969466916818
 21
-49.302757766340292
 31
0.0
  0
LINE
  8
SIZE
  6
CONTINUOUS
 62
    30
 10
-439.89969466916818
 20
37.302757766340513
 30
0.0
 11
-439.89969466916813
 21
263.35059743170211
 31
0.0
  0
LINE
  8
SIZE
  6
CONTINUOUS
 62
    30
 10
-439.89969466916818
 20
-25.302757766340289
 30
0.0
 11
-439.89969466916818
 21
25.302757766340509
 31
0.0
  0
CIRCLE
  8
SIZE
  6
CONTINUOUS
 62
    30
 10
-439.89969466916818
 20
-25.302757766340289
 30
0.0
 40
6.0
  0
LINE
  8
SIZE
  6
CONTINUOUS
 62
    30
 10
-439.89969466916818
 20
-25.302757766340289
 30
0.0
 11
-439.89969466916818
 21
-37.302757766340292
 31
0.0
  0
CIRCLE
  8
SIZE
  6
CONTINUOUS
 62
    30
 10
-439.89969466916818
 20
25.302757766340509
 30
0.0
 40
6.0
  0
LINE
  8
SIZE
  6
CONTINUOUS
 62
    30
 10
-439.89969466916818
 20
25.302757766340509
 30
0.0
 11
-439.89969466916818
 21
37.302757766340513
 31
0.0
  0
TEXT
  8
SIZE
  6
CONTINUOUS
 62
    30
 10
-475.56636133583481
 20
99.287740288844802
 30
0.0
 40
64.0
  1
φ51
 50
90.0
 41
0.9
 72
     1
 11
-475.56636133583481
 21
173.89345457455909
 31
0.0
  0
LINE
  8
SIZE
  6
CONTINUOUS
 62
    30
 10
20.30523572199991
 20
104.96510354610341
 30
0.0
 11
204.91060792501051
 21
104.96510354610329
 31
0.0
  0
LINE
  8
SIZE
  6
CONTINUOUS
 62
    30
 10
20.30523572199991
 20
-105.02424063519651
 30
0.0
 11
204.9106079250104
 21
-105.02424063519661
 31
0.0
  0
LINE
  8
SIZE
  6
CONTINUOUS
 62
    30
 10
184.9106079250104
 20
-93.024240635196577
 30
0.0
 11
184.91060792501051
 21
92.965103546103308
 31
0.0
  0
LINE
  8
SIZE
  6
CONTINUOUS
 62
    30
 10
184.91060792501051
 20
104.96510354610329
 30
0.0
 11
184.91060792501051
 21
369.3879606889605
 31
0.0
  0
CIRCLE
  8
SIZE
  6
CONTINUOUS
 62
    30
 10
184.9106079250104
 20
-105.02424063519661
 30
0.0
 40
6.0
  0
LINE
  8
SIZE
  6
CONTINUOUS
 62
    30
 10
184.9106079250104
 20
-105.02424063519661
 30
0.0
 11
184.9106079250104
 21
-93.024240635196591
 31
0.0
  0
CIRCLE
  8
SIZE
  6
CONTINUOUS
 62
    30
 10
184.91060792501051
 20
104.96510354610329
 30
0.0
 40
6.0
  0
LINE
  8
SIZE
  6
CONTINUOUS
 62
    30
 10
184.91060792501051
 20
104.96510354610329
 30
0.0
 11
184.91060792501051
 21
92.965103546103308
 31
0.0
  0
TEXT
  8
SIZE
  6
CONTINUOUS
 62
    30
 10
159.91060792501051
 20
138.12510354610339
 30
0.0
 40
64.0
  1
□210
 50
90.0
 41
0.9
 72
     1
 11
159.91060792501051
 21
243.17653211753199
 31
0.0
  0
LINE
  8
BASIS
  6
DASHDOT
 62
     6
 10
44.300000000000168
 20
0.0
 30
0.0
 11
-77.399999999999622
 21
0.0
 31
0.0
  0
LINE
  8
NOTE
  6
CONTINUOUS
 62
     4
 10
7.9211136146982417
 20
5.9999999999999432
 30
0.0
 11
-7.9211136146982417
 21
5.9999999999999432
 31
0.0
  0
LINE
  8
NOTE
  6
CONTINUOUS
 62
     4
 10
0.0
 20
-2.0000000000000568
 30
0.0
 11
0.0
 21
13.99999999999994
 31
0.0
  0
CIRCLE
  8
FIX
  6
CONTINUOUS
 62
    11
 10
0.0
 20
5.9999999999999432
 30
0.0
 40
5.0
  0
LINE
  8
SIZE
  6
CONTINUOUS
 62
    30
 10
-27.921113614698239
 20
5.9999999999999432
 30
0.0
 11
-169.60644212431089
 21
6.0
 31
0.0
  0
LINE
  8
SIZE
  6
CONTINUOUS
 62
    30
 10
-122.33955296210659
 20
0.0
 30
0.0
 11
-169.60644212431089
 21
0.0000000000000284
 31
0.0
  0
LINE
  8
SIZE
  6
CONTINUOUS
 62
    30
 10
-149.60644212431089
 20
-11.999999999999989
 30
0.0
 11
-149.60644212431089
 21
-23.999999999999989
 31
0.0
  0
LINE
  8
SIZE
  6
CONTINUOUS
 62
    30
 10
-149.60644212431089
 20
17.999999999999979
 30
0.0
 11
-149.6064421243108
 21
256.88217286321861
 31
0.0
  0
LINE
  8
SIZE
  6
CONTINUOUS
 62
    30
 10
-149.60644212431089
 20
0.0
 30
0.0
 11
-149.60644212431089
 21
5.9999999999999716
 31
0.0
  0
CIRCLE
  8
SIZE
  6
CONTINUOUS
 62
    30
 10
-149.60644212431089
 20
0.0
 30
0.0
 40
6.0
  0
LINE
  8
SIZE
  6
CONTINUOUS
 62
    30
 10
-149.60644212431089
 20
0.0
 30
0.0
 11
-149.60644212431089
 21
-11.999999999999989
 31
0.0
  0
CIRCLE
  8
SIZE
  6
CONTINUOUS
 62
    30
 10
-149.60644212431089
 20
5.9999999999999716
 30
0.0
 40
6.0
  0
LINE
  8
SIZE
  6
CONTINUOUS
 62
    30
 10
-149.60644212431089
 20
5.9999999999999716
 30
0.0
 11
-149.60644212431089
 21
17.999999999999979
 31
0.0
  0
TEXT
  8
SIZE
  6
CONTINUOUS
 62
    30
 10
-174.60644212431089
 20
196.22503000607571
 30
0.0
 40
64.0
  1
6
 50
90.0
 41
0.9
 72
     1
 11
-174.60644212431089
 21
214.05360143464711
 31
0.0
  0
LINE
  8
SIZE
  6
CONTINUOUS
 62
    30
 10
-19.69476427800009
 20
104.96510354610341
 30
0.0
 11
-323.18093899705758
 21
104.96510354610341
 31
0.0
  0
LINE
  8
SIZE
  6
CONTINUOUS
 62
    30
 10
-122.33955296210659
 20
0.0
 30
0.0
 11
-323.18093899705758
 21
0.0000000000000568
 31
0.0
  0
LINE
  8
SIZE
  6
CONTINUOUS
 62
    30
 10
-303.18093899705758
 20
12.00000000000006
 30
0.0
 11
-303.18093899705758
 21
92.965103546103421
 31
0.0
  0
LINE
  8
SIZE
  6
CONTINUOUS
 62
    30
 10
-303.18093899705758
 20
104.96510354610341
 30
0.0
 11
-303.18093899705758
 21
304.10796068896059
 31
0.0
  0
CIRCLE
  8
SIZE
  6
CONTINUOUS
 62
    30
 10
-303.18093899705758
 20
0.0000000000000568
 30
0.0
 40
6.0
  0
LINE
  8
SIZE
  6
CONTINUOUS
 62
    30
 10
-303.18093899705758
 20
0.0000000000000568
 30
0.0
 11
-303.18093899705758
 21
12.00000000000006
 31
0.0
  0
CIRCLE
  8
SIZE
  6
CONTINUOUS
 62
    30
 10
-303.18093899705758
 20
104.96510354610341
 30
0.0
 40
6.0
  0
LINE
  8
SIZE
  6
CONTINUOUS
 62
    30
 10
-303.18093899705758
 20
104.96510354610341
 30
0.0
 11
-303.18093899705758
 21
92.965103546103421
 31
0.0
  0
TEXT
  8
SIZE
  6
CONTINUOUS
 62
    30
 10
-328.18093899705758
 20
141.96510354610339
 30
0.0
 40
64.0
  1
105
 50
90.0
 41
0.9
 72
     1
 11
-328.18093899705758
 21
210.536532117532
 31
0.0
  0
CIRCLE
  8
ARRANGE
  6
CONTINUOUS
 62
     1
 10
0.0
 20
0.0
 30
0.0
 40
40.0
  0
POINT
  8
ARRANGE
  6
CONTINUOUS
 62
     1
 10
0.0
 20
0.0
 30
0.0
 50
180.0
  0
LINE
  8
DETAIL
  6
CONTINUOUS
 62
     5
 10
0.0
 20
104.6651492376034
 30
0.0
 11
0.0
 21
-104.7242863265967
 31
0.0
  0
ARC
  8
DETAIL
  6
CONTINUOUS
 62
     5
 10
0.3000000000001819
 20
-104.7242863265967
 30
0.0
 40
0.3000000000000275
 50
180.0
 51
271.00000000000182
  0
LINE
  8
DETAIL
  6
CONTINUOUS
 62
     5
 10
31.668695864148962
 20
-104.4767894020415
 30
0.0
 11
0.3052357219999067
 21
-105.02424063519651
 31
0.0
  0
LINE
  8
DETAIL
  6
CONTINUOUS
 62
     5
 10
31.670782170474009
 20
104.41761589633759
 30
0.0
 11
0.3052357219999067
 21
104.96510354610341
 31
0.0
  0
ARC
  8
DETAIL
  6
CONTINUOUS
 62
     5
 10
0.3000000000001819
 20
104.6651492375577
 30
0.0
 40
0.300000000000065
 50
89.000000000011255
 51
180.0
  0
ARC
  8
DETAIL
  6
CONTINUOUS
 62
     5
 10
-2760.6999999999989
 20
0.0
 30
0.0
 40
2800.0
 50
357.98012681979208
 51
2.0186589716319161
  0
ARC
  8
DETAIL
  6
CONTINUOUS
 62
     5
 10
31.56606773185058
 20
98.418529725399367
 30
0.0
 40
5.9999999999999956
 50
2.0186589716319161
 51
89.000000000011255
  0
ARC
  8
DETAIL
  6
CONTINUOUS
 62
     5
 10
31.56398142552553
 20
-98.477703231103305
 30
0.0
 40
6.0000000000002052
 50
271.00000000000182
 51
357.98012681979208
  0
LINE
  8
DETAIL
  6
CONTINUOUS
 62
     5
 10
-59.699999999999818
 20
-69.439050766592061
 30
0.0
 11
0.0
 21
-69.811447054151586
 31
0.0
  0
LINE
  8
DETAIL
  6
CONTINUOUS
 62
     5
 10
-59.699999999999818
 20
69.344331020252753
 30
0.0
 11
0.0
 21
69.716727307831434
 31
0.0
  0
LINE
  8
DETAIL
  6
CONTINUOUS
 62
     5
 10
-59.699999999999818
 20
72.729513291493902
 30
0.0
 11
0.0
 21
72.968246354899975
 31
0.0
  0
ARC
  8
DETAIL
  6
CONTINUOUS
 62
     5
 10
-69.400000000000091
 20
-22.13298665239995
 30
0.0
 40
2.9999999999999289
 50
180.0
 51
268.99999999999818
  0
LINE
  8
DETAIL
  6
CONTINUOUS
 62
     5
 10
-59.699999999999818
 20
-25.302757766340392
 30
0.0
 11
-69.452357219299756
 21
-25.132529737900089
 31
0.0
  0
ARC
  8
DETAIL
  6
CONTINUOUS
 62
     5
 10
-69.400000000000091
 20
22.13298665239995
 30
0.0
 40
2.9999999999999978
 50
91.000000000001776
 51
180.0
  0
LINE
  8
DETAIL
  6
CONTINUOUS
 62
     5
 10
-59.699999999999818
 20
25.302757766340392
 30
0.0
 11
-69.452357219299756
 21
25.132529737899858
 31
0.0
  0
LINE
  8
DETAIL
  6
CONTINUOUS
 62
     5
 10
-72.399999999999636
 20
22.13298665239995
 30
0.0
 11
-72.399999999999636
 21
-22.13298665239995
 31
0.0
  0
LINE
  8
DETAIL
  6
CONTINUOUS
 62
     5
 10
-59.699999999999818
 20
-69.439050766592004
 30
0.0
 11
-59.699999999999818
 21
72.729513291493902
 31
0.0
  0
LINE
  8
OUTLINE
  6
CONTINUOUS
 62
     3
 10
0.0
 20
104.6651492376034
 30
0.0
 11
0.0
 21
-104.7242863265967
 31
0.0
  0
ARC
  8
OUTLINE
  6
CONTINUOUS
 62
     3
 10
0.3000000000001819
 20
-104.7242863265967
 30
0.0
 40
0.3000000000000275
 50
180.0
 51
271.00000000000182
  0
LINE
  8
OUTLINE
  6
CONTINUOUS
 62
     3
 10
31.668695864148962
 20
-104.4767894020415
 30
0.0
 11
0.3052357219999067
 21
-105.02424063519651
 31
0.0
  0
LINE
  8
OUTLINE
  6
CONTINUOUS
 62
     3
 10
31.670782170474009
 20
104.41761589633759
 30
0.0
 11
0.3052357219999067
 21
104.96510354610341
 31
0.0
  0
ARC
  8
OUTLINE
  6
CONTINUOUS
 62
     3
 10
0.3000000000001819
 20
104.6651492375577
 30
0.0
 40
0.300000000000065
 50
89.000000000011255
 51
180.0
  0
ARC
  8
OUTLINE
  6
CONTINUOUS
 62
     3
 10
-2760.6999999999989
 20
0.0
 30
0.0
 40
2800.0
 50
357.98012681978889
 51
2.0186589716319161
  0
ARC
  8
OUTLINE
  6
CONTINUOUS
 62
     3
 10
31.56606773185058
 20
98.418529725399367
 30
0.0
 40
5.9999999999999956
 50
2.0186589716319161
 51
89.000000000011255
  0
ARC
  8
OUTLINE
  6
CONTINUOUS
 62
     3
 10
31.56398142552553
 20
-98.477703231103305
 30
0.0
 40
6.0000000000002052
 50
271.00000000000182
 51
357.98012681978889
  0
LINE
  8
OUTLINE
  6
CONTINUOUS
 62
     3
 10
-59.699999999999818
 20
-69.439050766592061
 30
0.0
 11
0.0
 21
-69.811447054151586
 31
0.0
  0
LINE
  8
OUTLINE
  6
CONTINUOUS
 62
     3
 10
-59.699999999999818
 20
72.729513291493902
 30
0.0
 11
0.0
 21
72.968246354899975
 31
0.0
  0
ARC
  8
OUTLINE
  6
CONTINUOUS
 62
     3
 10
-69.400000000000091
 20
-22.13298665239995
 30
0.0
 40
2.9999999999999289
 50
180.0
 51
268.99999999999818
  0
LINE
  8
OUTLINE
  6
CONTINUOUS
 62
     3
 10
-59.699999999999818
 20
-25.302757766340392
 30
0.0
 11
-69.452357219299756
 21
-25.132529737900089
 31
0.0
  0
ARC
  8
OUTLINE
  6
CONTINUOUS
 62
     3
 10
-69.400000000000091
 20
22.13298665239995
 30
0.0
 40
2.9999999999999978
 50
91.000000000001776
 51
180.0
  0
LINE
  8
OUTLINE
  6
CONTINUOUS
 62
     3
 10
-59.699999999999818
 20
25.302757766340392
 30
0.0
 11
-69.452357219299756
 21
25.132529737899858
 31
0.0
  0
LINE
  8
OUTLINE
  6
CONTINUOUS
 62
     3
 10
-72.399999999999636
 20
22.13298665239995
 30
0.0
 11
-72.399999999999636
 21
-22.13298665239995
 31
0.0
  0
LINE
  8
OUTLINE
  6
CONTINUOUS
 62
     3
 10
-59.699999999999818
 20
-69.439050766592004
 30
0.0
 11
-59.699999999999818
 21
72.729513291493902
 31
0.0
  0
ENDSEC
  0
EOF
