  0
SECTION
  2
HEADER
  9
$ACADVER
  1
AC1009
  9
$DWGCODEPAGE
  3
dos932
  9
$INSBASE
 10
0.0
 20
0.0
 30
0.0
  9
$EXTMIN
 10
-469.95390171645522
 20
-225.26549096832241
 30
-0.0015257624927045
  9
$EXTMAX
 10
782.1991079628915
 20
730.5908284971847
 30
0.0022888765696933
  9
$LIMMIN
 10
-2970.0
 20
-2100.0
  9
$LIMMAX
 10
2970.0
 20
2100.0
  9
$ORTHOMODE
 70
     1
  9
$REGENMODE
 70
     1
  9
$FILLMODE
 70
     1
  9
$QTEXTMODE
 70
     0
  9
$MIRRTEXT
 70
     0
  9
$LTSCALE
 40
20.0
  9
$ATTMODE
 70
     1
  9
$TEXTSIZE
 40
64.0
  9
$TRACEWID
 40
0.05
  9
$TEXTSTYLE
  7
STANDARD
  9
$CLAYER
  8
SIZE
  9
$CELTYPE
  6
CONTINUOUS
  9
$CECOLOR
 62
     7
  9
$DIMSCALE
 40
1.0
  9
$DIMASZ
 40
12.0
  9
$DIMEXO
 40
20.0
  9
$DIMDLI
 40
200.0
  9
$DIMRND
 40
0.0
  9
$DIMDLE
 40
0.0
  9
$DIMEXE
 40
20.0
  9
$DIMTP
 40
0.0
  9
$DIMTM
 40
0.0
  9
$DIMTXT
 40
64.0
  9
$DIMCEN
 40
0.09
  9
$DIMTSZ
 40
0.0
  9
$DIMTOL
 70
     0
  9
$DIMLIM
 70
     0
  9
$DIMTIH
 70
     0
  9
$DIMTOH
 70
     0
  9
$DIMSE1
 70
     0
  9
$DIMSE2
 70
     0
  9
$DIMTAD
 70
     1
  9
$DIMZIN
 70
     8
  9
$DIMBLK
  1

  9
$DIMASO
 70
     1
  9
$DIMSHO
 70
     0
  9
$DIMPOST
  1

  9
$DIMAPOST
  1

  9
$DIMALT
 70
     0
  9
$DIMALTD
 70
     2
  9
$DIMALTF
 40
25.399999999999999
  9
$DIMLFAC
 40
1.0
  9
$DIMTOFL
 70
     1
  9
$DIMTVP
 40
0.0
  9
$DIMTIX
 70
     1
  9
$DIMSOXD
 70
     0
  9
$DIMSAH
 70
     0
  9
$DIMBLK1
  1

  9
$DIMBLK2
  1

  9
$DIMSTYLE
  2
STANDARD
  9
$DIMCLRD
 70
     7
  9
$DIMCLRE
 70
     7
  9
$DIMCLRT
 70
     7
  9
$DIMTFAC
 40
1.0
  9
$DIMGAP
 40
25.0
  9
$LUNITS
 70
     2
  9
$LUPREC
 70
     4
  9
$SKETCHINC
 40
0.1
  9
$FILLETRAD
 40
3.0
  9
$AUNITS
 70
     1
  9
$AUPREC
 70
     3
  9
$MENU
  1
ACAD
  9
$ELEVATION
 40
0.0
  9
$PELEVATION
 40
0.0
  9
$THICKNESS
 40
50.0
  9
$LIMCHECK
 70
     0
  9
$CHAMFERA
 40
0.0
  9
$CHAMFERB
 40
0.0
  9
$SKPOLY
 70
     0
  9
$TDCREATE
 40
2453019.623009259
  9
$TDUPDATE
 40
2459356.664330532
  9
$TDINDWG
 40
1.7962771412
  9
$TDUSRTIMER
 40
1.7962771412
  9
$USRTIMER
 70
     1
  9
$ANGBASE
 50
0.0
  9
$ANGDIR
 70
     0
  9
$PDMODE
 70
     3
  9
$PDSIZE
 40
-2.0
  9
$PLINEWID
 40
0.0
  9
$SPLFRAME
 70
     0
  9
$SPLINETYPE
 70
     6
  9
$SPLINESEGS
 70
     8
  9
$SURFTAB1
 70
     6
  9
$SURFTAB2
 70
     6
  9
$SURFTYPE
 70
     6
  9
$SURFU
 70
     6
  9
$SURFV
 70
     6
  9
$UCSNAME
  2

  9
$UCSORG
 10
0.0
 20
0.0
 30
0.0
  9
$UCSXDIR
 10
1.0
 20
0.0
 30
0.0
  9
$UCSYDIR
 10
0.0
 20
1.0
 30
0.0
  9
$PUCSNAME
  2

  9
$PUCSORG
 10
0.0
 20
0.0
 30
0.0
  9
$PUCSXDIR
 10
1.0
 20
0.0
 30
0.0
  9
$PUCSYDIR
 10
0.0
 20
1.0
 30
0.0
  9
$USERI1
 70
     0
  9
$USERI2
 70
     0
  9
$USERI3
 70
     0
  9
$USERI4
 70
     0
  9
$USERI5
 70
     0
  9
$USERR1
 40
20.0
  9
$USERR2
 40
0.0
  9
$USERR3
 40
0.0
  9
$USERR4
 40
0.0
  9
$USERR5
 40
0.0
  9
$WORLDVIEW
 70
     1
  9
$SHADEDGE
 70
     3
  9
$SHADEDIF
 70
    70
  9
$TILEMODE
 70
     1
  9
$MAXACTVP
 70
    48
  9
$PINSBASE
 10
0.0
 20
0.0
 30
0.0
  9
$PLIMCHECK
 70
     0
  9
$PEXTMIN
 10
-100000000000000000000.0
 20
-100000000000000000000.0
 30
-100000000000000000000.0
  9
$PEXTMAX
 10
100000000000000000000.0
 20
100000000000000000000.0
 30
100000000000000000000.0
  9
$PLIMMIN
 10
0.0
 20
0.0
  9
$PLIMMAX
 10
12.0
 20
9.0
  9
$UNITMODE
 70
     0
  9
$VISRETAIN
 70
     0
  9
$PLINEGEN
 70
     0
  9
$PSLTSCALE
 70
     0
  9
$TREEDEPTH
 70
  3020
  9
$ATTDIA
 70
     0
  9
$ATTREQ
 70
     1
  9
$BLIPMODE
 70
     1
  9
$COORDS
 70
     1
  9
$DRAGMODE
 70
     2
  9
$OSMODE
 70
     0
  9
$HANDLING
 70
     0
  9
$HANDSEED
  5
3C4
  0
ENDSEC
  0
SECTION
  2
TABLES
  0
TABLE
  2
LTYPE
 70
     2
  0
LTYPE
  2
CONTINUOUS
 70
     0
  3
実線
 72
    65
 73
     0
 40
0.0
  0
LTYPE
  2
DASHDOT
 70
     0
  3
____ _ ____ _ ____ _ ____ _ ____ _ ____ _ ____
 72
    65
 73
     4
 40
5.5
 49
4.0
 49
-0.6
 49
0.3
 49
-0.6
  0
ENDTAB
  0
TABLE
  2
LAYER
 70
    12
  0
LAYER
  2
SIZE
 70
     0
 62
    30
  6
CONTINUOUS
  0
LAYER
  2
BASIS
 70
     0
 62
     6
  6
DASHDOT
  0
LAYER
  2
OUTLINE
 70
     0
 62
     3
  6
CONTINUOUS
  0
LAYER
  2
DETAIL
 70
     0
 62
     5
  6
CONTINUOUS
  0
LAYER
  2
ARRANGE
 70
     0
 62
     1
  6
CONTINUOUS
  0
LAYER
  2
DEFPOINTS
 70
     0
 62
     7
  6
CONTINUOUS
  0
LAYER
  2
ETC
 70
     0
 62
    61
  6
CONTINUOUS
  0
LAYER
  2
FIX
 70
     0
 62
    11
  6
CONTINUOUS
  0
LAYER
  2
NOTE
 70
     0
 62
     4
  6
CONTINUOUS
  0
LAYER
  2
0
 70
    64
 62
     7
  6
CONTINUOUS
  0
LAYER
  2
SERVICESPACE
 70
    64
 62
     2
  6
DASHDOT
  0
LAYER
  2
SYMBOLLINE
 70
    64
 62
    15
  6
CONTINUOUS
  0
ENDTAB
  0
TABLE
  2
STYLE
 70
     1
  0
STYLE
  2
STANDARD
 70
     0
 40
64.0
 41
0.9
 50
0.0
 71
     0
 42
64.0
  3
SIMPLEX.shx
  4
BIGFONT.shx
  0
ENDTAB
  0
TABLE
  2
APPID
 70
    18
  0
APPID
  2
ACAD
 70
     0
  0
APPID
  2
ACADANNOTATIVE
 70
     0
  0
APPID
  2
AUTOCAD_POSTSCRIPT_FIGURE
 70
     0
  0
APPID
  2
ACAD_EXEMPT_FROM_CAD_STANDARDS
 70
     0
  0
APPID
  2
ACAD_PSEXT
 70
     0
  0
APPID
  2
ACAUTHENVIRON
 70
     0
  0
APPID
  2
GENIUS_GENOENT_13
 70
     0
  0
APPID
  2
GENIUS_GENCFG_13
 70
     0
  0
APPID
  2
GENIUS_GENCFG0_13
 70
     0
  0
APPID
  2
GENIUS_GENCFG1_13
 70
     0
  0
APPID
  2
GENIUS_GENCFG2_13
 70
     0
  0
APPID
  2
GENIUS_GENCFG3_13
 70
     0
  0
APPID
  2
GENIUS_GENCFG4_13
 70
     0
  0
APPID
  2
GENIUS_GEVCFG0_13
 70
     0
  0
APPID
  2
CONTENTBLOCKICON
 70
     0
  0
APPID
  2
CONTENTBLOCKDESCRIPTION
 70
     0
  0
APPID
  2
ACAD_NAV_VCDISPLAY
 70
     0
  0
APPID
  2
ACAD_MLEADERVER
 70
     0
  0
ENDTAB
  0
TABLE
  2
DIMSTYLE
 70
     1
  0
DIMSTYLE
  2
STANDARD
 70
     0
  3

  4

  5

  6

  7

 40
1.0
 41
12.0
 42
20.0
 43
200.0
 44
20.0
 45
0.0
 46
0.0
 47
0.0
 48
0.0
140
64.0
141
0.09
142
0.0
143
25.399999999999999
144
1.0
145
0.0
146
1.0
147
25.0
 71
     0
 72
     0
 73
     0
 74
     0
 75
     0
 76
     0
 77
     1
 78
     8
170
     0
171
     2
172
     1
173
     0
174
     1
175
     0
176
     7
177
     7
178
     7
  0
ENDTAB
  0
TABLE
  2
VIEW
 70
     1
  0
VIEW
  2
ALL
 70
     0
 40
4282.6198079999986
 10
0.0
 20
41.309904000000003
 41
5940.0
 11
0.0
 21
0.0
 31
1.0
 12
0.0
 22
0.0
 32
0.0
 42
50.0
 43
0.0
 44
0.0
 50
0.0
 71
     0
  0
ENDTAB
  0
TABLE
  2
UCS
 70
     0
  0
ENDTAB
  0
TABLE
  2
VPORT
 70
     1
  0
VPORT
  2
*ACTIVE
 70
     0
 10
0.0
 20
0.0
 11
1.0
 21
1.0
 12
156.12260312321811
 22
252.66266876443109
 13
0.0
 23
0.0
 14
1.0
 24
1.0
 15
0.0
 25
0.0
 16
0.0
 26
0.0
 36
1.0
 17
0.0
 27
0.0
 37
0.0
 40
962.38365395950245
 41
1.767337807606264
 42
50.0
 43
0.0
 44
0.0
 50
0.0
 51
0.0
 71
     0
 72
  1000
 73
     1
 74
     0
 75
     0
 76
     0
 77
     0
 78
     0
  0
ENDTAB
  0
ENDSEC
  0
SECTION
  2
BLOCKS
  0
ENDSEC
  0
SECTION
  2
ENTITIES
  0
TEXT
  8
ETC
  6
CONTINUOUS
 62
    61
 10
195.0181397758424
 20
646.53302664754926
 30
0.0
 40
64.0
  1
V-12PEAD7_1
 41
0.9
  0
TEXT
  8
ETC
  6
CONTINUOUS
 62
    61
 10
190.83214577584201
 20
528.57771663271797
 30
0.0
 40
64.0
  1
換気扇
 41
0.9
  0
TEXT
  8
ETC
  6
CONTINUOUS
 62
    61
 10
241.533544024398
 20
420.42894374649279
 30
0.0
 40
40.0
  1
V-12PEAD7
 41
0.9
  0
CIRCLE
  8
FIX
  6
CONTINUOUS
 62
    11
 10
-105.0
 20
0.0
 30
0.0
 40
5.0
  0
CIRCLE
  8
FIX
  6
CONTINUOUS
 62
    11
 10
105.0
 20
0.0
 30
0.0
 40
5.0
  0
CIRCLE
  8
ARRANGE
  6
CONTINUOUS
 62
     1
 10
0.0
 20
0.0
 30
0.0
 40
40.0
  0
LINE
  8
BASIS
  6
DASHDOT
 62
     6
 10
0.0
 20
-79.730604
 30
0.0
 11
0.0
 21
146.76687115062941
 31
0.0
  0
LINE
  8
DETAIL
  6
CONTINUOUS
 62
     5
 10
71.0
 20
0.0
 30
0.0
 11
71.0
 21
55.0
 31
0.0
  0
LINE
  8
DETAIL
  6
CONTINUOUS
 62
     5
 10
71.0
 20
55.0
 30
0.0
 11
-71.0
 21
55.0
 31
0.0
  0
LINE
  8
DETAIL
  6
CONTINUOUS
 62
     5
 10
-71.0
 20
55.0
 30
0.0
 11
-71.0
 21
0.0
 31
0.0
  0
LINE
  8
DETAIL
  6
CONTINUOUS
 62
     5
 10
23.0
 20
59.421824000000022
 30
0.0
 11
23.0
 21
80.0
 31
0.0
  0
LINE
  8
DETAIL
  6
CONTINUOUS
 62
     5
 10
20.0
 20
83.0
 30
0.0
 11
-20.0
 21
83.0
 31
0.0
  0
LINE
  8
DETAIL
  6
CONTINUOUS
 62
     5
 10
-23.0
 20
80.0
 30
0.0
 11
-23.0
 21
59.421824000000022
 31
0.0
  0
ARC
  8
DETAIL
  6
CONTINUOUS
 62
     5
 10
-20.0
 20
80.0
 30
0.0
 40
3.0
 50
90.0
 51
180.0
  0
ARC
  8
DETAIL
  6
CONTINUOUS
 62
     5
 10
20.0
 20
80.0
 30
0.0
 40
3.0
 50
0.0
 51
90.0
  0
LINE
  8
SIZE
  6
CONTINUOUS
 62
    30
 10
-23.0
 20
103.5
 30
0.0
 11
-23.0
 21
265.35787399999998
 31
0.0
  0
LINE
  8
SIZE
  6
CONTINUOUS
 62
    30
 10
23.0
 20
103.5
 30
0.0
 11
23.0
 21
265.35787399999998
 31
0.0
  0
LINE
  8
SIZE
  6
CONTINUOUS
 62
    30
 10
35.0
 20
245.35787400000001
 30
0.0
 11
47.0
 21
245.35787400000001
 31
0.0
  0
LINE
  8
SIZE
  6
CONTINUOUS
 62
    30
 10
-35.0
 20
245.35787400000001
 30
0.0
 11
-303.98781100000002
 21
245.35787400000001
 31
0.0
  0
LINE
  8
SIZE
  6
CONTINUOUS
 62
    30
 10
23.0
 20
245.35787400000001
 30
0.0
 11
-23.0
 21
245.35787400000001
 31
0.0
  0
CIRCLE
  8
SIZE
  6
CONTINUOUS
 62
    30
 10
23.0
 20
245.35787400000001
 30
0.0
 40
6.0
  0
LINE
  8
SIZE
  6
CONTINUOUS
 62
    30
 10
23.0
 20
245.35787400000001
 30
0.0
 11
35.0
 21
245.35787400000001
 31
0.0
  0
CIRCLE
  8
SIZE
  6
CONTINUOUS
 62
    30
 10
-23.0
 20
245.35787400000001
 30
0.0
 40
6.0
  0
LINE
  8
SIZE
  6
CONTINUOUS
 62
    30
 10
-23.0
 20
245.35787400000001
 30
0.0
 11
-35.0
 21
245.35787400000001
 31
0.0
  0
TEXT
  8
SIZE
  6
CONTINUOUS
 62
    30
 10
-293.25066785714313
 20
270.35787399999998
 30
0.0
 40
64.0
  1
φ46
 41
0.9
 72
     1
 11
-207.67352500000021
 21
270.35787399999998
 31
0.0
  0
POINT
  8
DEFPOINTS
  6
CONTINUOUS
 62
    30
 10
-23.0
 20
83.5
 30
0.0
  0
POINT
  8
DEFPOINTS
  6
CONTINUOUS
 62
    30
 10
23.0
 20
83.5
 30
0.0
  0
POINT
  8
DEFPOINTS
  6
CONTINUOUS
 62
    30
 10
23.0
 20
245.35787400000001
 30
0.0
  0
LINE
  8
DETAIL
  6
CONTINUOUS
 62
     5
 10
-58.07441300000005
 20
-4.2682780000000076
 30
0.0
 11
-42.067086999999901
 21
-4.2682780000000076
 31
0.0
  0
ARC
  8
DETAIL
  6
CONTINUOUS
 62
     5
 10
-44.568230999999969
 20
-2.7400250000000028
 30
0.0
 40
2.5011450000000002
 50
0.0
 51
90.0
  0
LINE
  8
DETAIL
  6
CONTINUOUS
 62
     5
 10
-45.670253000000002
 20
-0.2388799999999947
 30
0.0
 11
-44.568230999999969
 21
-0.2388799999999947
 31
0.0
  0
LINE
  8
DETAIL
  6
CONTINUOUS
 62
     5
 10
-42.067086999999901
 20
-2.7400250000000028
 30
0.0
 11
-42.067086999999901
 21
-4.2682780000000076
 31
0.0
  0
LINE
  8
DETAIL
  6
CONTINUOUS
 62
     5
 10
-58.07441300000005
 20
-4.2682780000000076
 30
0.0
 11
-58.07441300000005
 21
-2.7400250000000028
 31
0.0
  0
ARC
  8
DETAIL
  6
CONTINUOUS
 62
     5
 10
-55.573268000000112
 20
-2.7400250000000028
 30
0.0
 40
2.5011450000000002
 50
90.0
 51
180.0
  0
LINE
  8
DETAIL
  6
CONTINUOUS
 62
     5
 10
-55.573268000000112
 20
-0.2388799999999947
 30
0.0
 11
-54.471246000000058
 21
-0.2388799999999947
 31
0.0
  0
ARC
  8
DETAIL
  6
CONTINUOUS
 62
     5
 10
-53.822466999999961
 20
-1.000457999999981
 30
0.0
 40
1.0004580000000001
 50
90.0
 51
180.0
  0
LINE
  8
DETAIL
  6
CONTINUOUS
 62
     5
 10
-53.822466999999961
 20
0.0
 30
0.0
 11
-46.31903299999999
 21
0.0
 31
0.0
  0
LINE
  8
DETAIL
  6
CONTINUOUS
 62
     5
 10
-45.31857500000001
 20
-4.2682780000000076
 30
0.0
 11
-45.31857500000001
 21
-1.000457999999981
 31
0.0
  0
LINE
  8
DETAIL
  6
CONTINUOUS
 62
     5
 10
-54.822924000000057
 20
-4.2682780000000076
 30
0.0
 11
-54.822924000000057
 21
-1.000457999999981
 31
0.0
  0
ARC
  8
DETAIL
  6
CONTINUOUS
 62
     5
 10
-46.31903299999999
 20
-1.000457999999981
 30
0.0
 40
1.0004580000000001
 50
0.0
 51
90.0
  0
LINE
  8
DETAIL
  6
CONTINUOUS
 62
     5
 10
-58.07441300000005
 20
-4.2682780000000076
 30
0.0
 11
-42.067086999999901
 21
-4.2682780000000076
 31
0.0
  0
ARC
  8
DETAIL
  6
CONTINUOUS
 62
     5
 10
-44.568230999999969
 20
-5.7965309999999599
 30
0.0
 40
2.5011450000000002
 50
270.0
 51
0.0
  0
LINE
  8
DETAIL
  6
CONTINUOUS
 62
     5
 10
-45.670253000000002
 20
-8.2976750000000248
 30
0.0
 11
-44.568230999999969
 21
-8.2976750000000248
 31
0.0
  0
LINE
  8
DETAIL
  6
CONTINUOUS
 62
     5
 10
-42.067086999999901
 20
-5.7965309999999599
 30
0.0
 11
-42.067086999999901
 21
-4.2682780000000076
 31
0.0
  0
LINE
  8
DETAIL
  6
CONTINUOUS
 62
     5
 10
-58.07441300000005
 20
-4.2682780000000076
 30
0.0
 11
-58.07441300000005
 21
-5.7965309999999599
 31
0.0
  0
ARC
  8
DETAIL
  6
CONTINUOUS
 62
     5
 10
-55.573268000000112
 20
-5.7965309999999599
 30
0.0
 40
2.5011450000000002
 50
180.0
 51
270.0
  0
LINE
  8
DETAIL
  6
CONTINUOUS
 62
     5
 10
-55.573268000000112
 20
-8.2976750000000248
 30
0.0
 11
-54.471246000000058
 21
-8.2976750000000248
 31
0.0
  0
ARC
  8
DETAIL
  6
CONTINUOUS
 62
     5
 10
-53.822466999999961
 20
-7.5360970000000398
 30
0.0
 40
1.0004580000000001
 50
180.0
 51
270.0
  0
LINE
  8
DETAIL
  6
CONTINUOUS
 62
     5
 10
-53.822466999999961
 20
-8.5365550000000212
 30
0.0
 11
-46.31903299999999
 21
-8.5365550000000212
 31
0.0
  0
LINE
  8
DETAIL
  6
CONTINUOUS
 62
     5
 10
-45.31857500000001
 20
-4.2682780000000076
 30
0.0
 11
-45.31857500000001
 21
-7.5360970000000398
 31
0.0
  0
LINE
  8
DETAIL
  6
CONTINUOUS
 62
     5
 10
-54.822924000000057
 20
-4.2682780000000076
 30
0.0
 11
-54.822924000000057
 21
-7.5360970000000398
 31
0.0
  0
ARC
  8
DETAIL
  6
CONTINUOUS
 62
     5
 10
-46.31903299999999
 20
-7.5360970000000398
 30
0.0
 40
1.0004580000000001
 50
270.0
 51
0.0
  0
LINE
  8
DETAIL
  6
CONTINUOUS
 62
     5
 10
41.971372999999851
 20
-4.2682780000000076
 30
0.0
 11
57.978699000000013
 21
-4.2682780000000076
 31
0.0
  0
ARC
  8
DETAIL
  6
CONTINUOUS
 62
     5
 10
55.477554000000048
 20
-2.7400250000000028
 30
0.0
 40
2.5011450000000002
 50
0.0
 51
90.0
  0
LINE
  8
DETAIL
  6
CONTINUOUS
 62
     5
 10
54.375532999999898
 20
-0.2388799999999947
 30
0.0
 11
55.477554000000048
 21
-0.2388799999999947
 31
0.0
  0
LINE
  8
DETAIL
  6
CONTINUOUS
 62
     5
 10
57.978699000000013
 20
-2.7400250000000028
 30
0.0
 11
57.978699000000013
 21
-4.2682780000000076
 31
0.0
  0
LINE
  8
DETAIL
  6
CONTINUOUS
 62
     5
 10
41.971372999999851
 20
-4.2682780000000076
 30
0.0
 11
41.971372999999851
 21
-2.7400250000000028
 31
0.0
  0
ARC
  8
DETAIL
  6
CONTINUOUS
 62
     5
 10
44.472518000000051
 20
-2.7400250000000028
 30
0.0
 40
2.5011450000000002
 50
90.0
 51
180.0
  0
LINE
  8
DETAIL
  6
CONTINUOUS
 62
     5
 10
44.472518000000051
 20
-0.2388799999999947
 30
0.0
 11
45.574538999999959
 21
-0.2388799999999947
 31
0.0
  0
ARC
  8
DETAIL
  6
CONTINUOUS
 62
     5
 10
46.223318999999933
 20
-1.000457999999981
 30
0.0
 40
1.0004580000000001
 50
90.0
 51
180.0
  0
LINE
  8
DETAIL
  6
CONTINUOUS
 62
     5
 10
46.223318999999933
 20
0.0
 30
0.0
 11
53.726752999999917
 21
0.0
 31
0.0
  0
LINE
  8
DETAIL
  6
CONTINUOUS
 62
     5
 10
54.727210999999897
 20
-4.2682780000000076
 30
0.0
 11
54.727210999999897
 21
-1.000457999999981
 31
0.0
  0
LINE
  8
DETAIL
  6
CONTINUOUS
 62
     5
 10
45.222860999999973
 20
-4.2682780000000076
 30
0.0
 11
45.222860999999973
 21
-1.000457999999981
 31
0.0
  0
ARC
  8
DETAIL
  6
CONTINUOUS
 62
     5
 10
53.726752999999917
 20
-1.000457999999981
 30
0.0
 40
1.0004580000000001
 50
0.0
 51
90.0
  0
LINE
  8
DETAIL
  6
CONTINUOUS
 62
     5
 10
41.971372999999851
 20
-4.2682780000000076
 30
0.0
 11
57.978699000000013
 21
-4.2682780000000076
 31
0.0
  0
ARC
  8
DETAIL
  6
CONTINUOUS
 62
     5
 10
55.477554000000048
 20
-5.7965309999999599
 30
0.0
 40
2.5011450000000002
 50
270.0
 51
0.0
  0
LINE
  8
DETAIL
  6
CONTINUOUS
 62
     5
 10
54.375532999999898
 20
-8.2976750000000248
 30
0.0
 11
55.477554000000048
 21
-8.2976750000000248
 31
0.0
  0
LINE
  8
DETAIL
  6
CONTINUOUS
 62
     5
 10
57.978699000000013
 20
-5.7965309999999599
 30
0.0
 11
57.978699000000013
 21
-4.2682780000000076
 31
0.0
  0
LINE
  8
DETAIL
  6
CONTINUOUS
 62
     5
 10
41.971372999999851
 20
-4.2682780000000076
 30
0.0
 11
41.971372999999851
 21
-5.7965309999999599
 31
0.0
  0
ARC
  8
DETAIL
  6
CONTINUOUS
 62
     5
 10
44.472518000000051
 20
-5.7965309999999599
 30
0.0
 40
2.5011450000000002
 50
180.0
 51
270.0
  0
LINE
  8
DETAIL
  6
CONTINUOUS
 62
     5
 10
44.472518000000051
 20
-8.2976750000000248
 30
0.0
 11
45.574538999999959
 21
-8.2976750000000248
 31
0.0
  0
ARC
  8
DETAIL
  6
CONTINUOUS
 62
     5
 10
46.223318999999933
 20
-7.5360970000000398
 30
0.0
 40
1.0004580000000001
 50
180.0
 51
270.0
  0
LINE
  8
DETAIL
  6
CONTINUOUS
 62
     5
 10
46.223318999999933
 20
-8.5365550000000212
 30
0.0
 11
53.726752999999917
 21
-8.5365550000000212
 31
0.0
  0
LINE
  8
DETAIL
  6
CONTINUOUS
 62
     5
 10
54.727210999999897
 20
-4.2682780000000076
 30
0.0
 11
54.727210999999897
 21
-7.5360970000000398
 31
0.0
  0
LINE
  8
DETAIL
  6
CONTINUOUS
 62
     5
 10
45.222860999999973
 20
-4.2682780000000076
 30
0.0
 11
45.222860999999973
 21
-7.5360970000000398
 31
0.0
  0
ARC
  8
DETAIL
  6
CONTINUOUS
 62
     5
 10
53.726752999999917
 20
-7.5360970000000398
 30
0.0
 40
1.0004580000000001
 50
270.0
 51
0.0
  0
LINE
  8
DETAIL
  6
CONTINUOUS
 62
     5
 10
-14.700000000000051
 20
-43.326909999999998
 30
0.0
 11
-111.64083500000019
 21
-43.326909999999998
 31
0.0
  0
LINE
  8
DETAIL
  6
CONTINUOUS
 62
     5
 10
-94.0
 20
-54.800632999999998
 30
0.0
 11
94.0
 21
-54.800555000000031
 31
0.0
  0
LINE
  8
DETAIL
  6
CONTINUOUS
 62
     5
 10
93.999996999999865
 20
-58.0
 30
0.0
 11
-93.999996999999865
 21
-58.0
 31
0.0
  0
LINE
  8
DETAIL
  6
CONTINUOUS
 62
     5
 10
113.928731
 20
-43.309436000000012
 30
0.0
 11
113.73697799999989
 21
-43.167687999999998
 31
0.0
  0
LINE
  8
DETAIL
  6
CONTINUOUS
 62
     5
 10
113.73697799999989
 20
-43.167687999999998
 30
0.0
 11
113.07752600000001
 21
-42.687722000000008
 31
0.0
  0
LINE
  8
DETAIL
  6
CONTINUOUS
 62
     5
 10
93.999998000000005
 20
-51.029649999999997
 30
0.0
 11
97.790931
 21
-50.183486000000023
 31
0.0
  0
LINE
  8
DETAIL
  6
CONTINUOUS
 62
     5
 10
97.790931
 20
-50.183486000000023
 30
0.0
 11
101.5616
 21
-49.137248
 31
0.0
  0
LINE
  8
DETAIL
  6
CONTINUOUS
 62
     5
 10
101.5616
 20
-49.137248
 30
0.0
 11
105.2946010000001
 21
-47.89243399999998
 31
0.0
  0
LINE
  8
DETAIL
  6
CONTINUOUS
 62
     5
 10
105.2946010000001
 20
-47.89243399999998
 30
0.0
 11
108.97249000000011
 21
-46.45261600000002
 31
0.0
  0
LINE
  8
DETAIL
  6
CONTINUOUS
 62
     5
 10
108.97249000000011
 20
-46.45261600000002
 30
0.0
 11
112.57807200000001
 21
-44.824074999999993
 31
0.0
  0
LINE
  8
DETAIL
  6
CONTINUOUS
 62
     5
 10
111.8566430000001
 20
-43.258231000000023
 30
0.0
 11
111.81814899999991
 21
-43.275132999999983
 31
0.0
  0
LINE
  8
DETAIL
  6
CONTINUOUS
 62
     5
 10
111.81814899999991
 20
-43.275132999999983
 30
0.0
 11
111.780716
 21
-43.290207000000009
 31
0.0
  0
LINE
  8
DETAIL
  6
CONTINUOUS
 62
     5
 10
111.780716
 20
-43.290207000000009
 30
0.0
 11
111.745349
 21
-43.303045999999988
 31
0.0
  0
LINE
  8
DETAIL
  6
CONTINUOUS
 62
     5
 10
111.745349
 20
-43.303045999999988
 30
0.0
 11
111.71295599999981
 21
-43.313331000000012
 31
0.0
  0
LINE
  8
DETAIL
  6
CONTINUOUS
 62
     5
 10
111.71295599999981
 20
-43.313331000000012
 30
0.0
 11
111.684319
 21
-43.320828000000013
 31
0.0
  0
LINE
  8
DETAIL
  6
CONTINUOUS
 62
     5
 10
111.684319
 20
-43.320828000000013
 30
0.0
 11
111.66008000000009
 21
-43.32538599999998
 31
0.0
  0
LINE
  8
DETAIL
  6
CONTINUOUS
 62
     5
 10
111.66008000000009
 20
-43.32538599999998
 30
0.0
 11
111.64083500000019
 21
-43.326909999999998
 31
0.0
  0
LINE
  8
DETAIL
  6
CONTINUOUS
 62
     5
 10
113.50278299999989
 20
-48.978944000000013
 30
0.0
 11
111.1382100000001
 21
-49.969312000000002
 31
0.0
  0
LINE
  8
DETAIL
  6
CONTINUOUS
 62
     5
 10
111.1382100000001
 20
-49.969312000000002
 30
0.0
 11
108.7570700000001
 21
-50.881070000000022
 31
0.0
  0
LINE
  8
DETAIL
  6
CONTINUOUS
 62
     5
 10
108.7570700000001
 20
-50.881070000000022
 30
0.0
 11
106.3607080000002
 21
-51.715592000000022
 31
0.0
  0
LINE
  8
DETAIL
  6
CONTINUOUS
 62
     5
 10
106.3607080000002
 20
-51.715592000000022
 30
0.0
 11
103.95043699999999
 21
-52.473997999999987
 31
0.0
  0
LINE
  8
DETAIL
  6
CONTINUOUS
 62
     5
 10
103.95043699999999
 20
-52.473997999999987
 30
0.0
 11
101.525834
 21
-53.157758999999999
 31
0.0
  0
LINE
  8
DETAIL
  6
CONTINUOUS
 62
     5
 10
101.525834
 20
-53.157758999999999
 30
0.0
 11
99.079103000000032
 21
-53.769835999999998
 31
0.0
  0
LINE
  8
DETAIL
  6
CONTINUOUS
 62
     5
 10
99.079103000000032
 20
-53.769835999999998
 30
0.0
 11
96.600022999999965
 21
-54.312369999999987
 31
0.0
  0
LINE
  8
DETAIL
  6
CONTINUOUS
 62
     5
 10
96.600022999999965
 20
-54.312369999999987
 30
0.0
 11
94.0
 21
-54.800555000000031
 31
0.0
  0
LINE
  8
DETAIL
  6
CONTINUOUS
 62
     5
 10
113.480423
 20
-51.71123799999998
 30
0.0
 11
108.879019
 21
-53.706729999999993
 31
0.0
  0
LINE
  8
DETAIL
  6
CONTINUOUS
 62
     5
 10
108.879019
 20
-53.706729999999993
 30
0.0
 11
103.976754
 21
-55.470106999999977
 31
0.0
  0
LINE
  8
DETAIL
  6
CONTINUOUS
 62
     5
 10
103.976754
 20
-55.470106999999977
 30
0.0
 11
98.971191000000076
 21
-56.910253000000012
 31
0.0
  0
LINE
  8
DETAIL
  6
CONTINUOUS
 62
     5
 10
98.971191000000076
 20
-56.910253000000012
 30
0.0
 11
93.999995999999996
 21
-58.0
 31
0.0
  0
LINE
  8
DETAIL
  6
CONTINUOUS
 62
     5
 10
113.5695820000001
 20
-44.363070999999991
 30
0.0
 11
113.0746690000001
 21
-44.595242999999982
 31
0.0
  0
LINE
  8
DETAIL
  6
CONTINUOUS
 62
     5
 10
113.0746690000001
 20
-44.595242999999982
 30
0.0
 11
112.57807200000001
 21
-44.824074999999993
 31
0.0
  0
LINE
  8
DETAIL
  6
CONTINUOUS
 62
     5
 10
113.07752600000001
 20
-42.687717000000013
 30
0.0
 11
112.468214
 21
-42.975649999999973
 31
0.0
  0
LINE
  8
DETAIL
  6
CONTINUOUS
 62
     5
 10
112.468214
 20
-42.975649999999973
 30
0.0
 11
111.8566430000001
 21
-43.258231000000023
 31
0.0
  0
LINE
  8
DETAIL
  6
CONTINUOUS
 62
     5
 10
93.999514000000076
 20
-51.027424000000003
 30
0.0
 11
93.999777999999864
 21
-51.028163999999997
 31
0.0
  0
LINE
  8
DETAIL
  6
CONTINUOUS
 62
     5
 10
93.999777999999864
 20
-51.028163999999997
 30
0.0
 11
93.999937999999943
 21
-51.028906999999997
 31
0.0
  0
LINE
  8
DETAIL
  6
CONTINUOUS
 62
     5
 10
93.999937999999943
 20
-51.028906999999997
 30
0.0
 11
93.999998000000005
 21
-51.029653000000003
 31
0.0
  0
LINE
  8
DETAIL
  6
CONTINUOUS
 62
     5
 10
113.50278400000001
 20
-48.978944000000013
 30
0.0
 11
113.77780200000009
 21
-48.82748100000002
 31
0.0
  0
LINE
  8
DETAIL
  6
CONTINUOUS
 62
     5
 10
113.77780200000009
 20
-48.82748100000002
 30
0.0
 11
114.01793499999989
 21
-48.631096000000007
 31
0.0
  0
LINE
  8
DETAIL
  6
CONTINUOUS
 62
     5
 10
114.01793499999989
 20
-48.631096000000007
 30
0.0
 11
114.2149460000001
 21
-48.39990899999998
 31
0.0
  0
LINE
  8
DETAIL
  6
CONTINUOUS
 62
     5
 10
114.2149460000001
 20
-48.39990899999998
 30
0.0
 11
114.36588999999999
 21
-48.142542999999989
 31
0.0
  0
LINE
  8
DETAIL
  6
CONTINUOUS
 62
     5
 10
114.36588999999999
 20
-48.142542999999989
 30
0.0
 11
114.4708479999999
 21
-47.862062000000037
 31
0.0
  0
LINE
  8
DETAIL
  6
CONTINUOUS
 62
     5
 10
114.4708479999999
 20
-47.862062000000037
 30
0.0
 11
114.52654699999989
 21
-47.57006899999999
 31
0.0
  0
LINE
  8
DETAIL
  6
CONTINUOUS
 62
     5
 10
113.74122300000001
 20
-44.245071000000003
 30
0.0
 11
113.6569589999999
 21
-44.306251999999972
 31
0.0
  0
LINE
  8
DETAIL
  6
CONTINUOUS
 62
     5
 10
113.6569589999999
 20
-44.306251999999972
 30
0.0
 11
113.56958299999999
 21
-44.363066000000003
 31
0.0
  0
LINE
  8
DETAIL
  6
CONTINUOUS
 62
     5
 10
93.999995000000141
 20
-54.617768000000012
 30
0.0
 11
93.999998000000005
 21
-51.029653000000003
 31
0.0
  0
LINE
  8
DETAIL
  6
CONTINUOUS
 62
     5
 10
93.999995999999996
 20
-58.0
 30
0.0
 11
94.0
 21
-54.800555000000031
 31
0.0
  0
LINE
  8
DETAIL
  6
CONTINUOUS
 62
     5
 10
114.5076320000001
 20
-42.92352900000003
 30
0.0
 11
114.46837600000001
 21
-42.971028999999987
 31
0.0
  0
LINE
  8
DETAIL
  6
CONTINUOUS
 62
     5
 10
114.46837600000001
 20
-42.971028999999987
 30
0.0
 11
114.4199630000001
 21
-43.018790999999958
 31
0.0
  0
LINE
  8
DETAIL
  6
CONTINUOUS
 62
     5
 10
114.4199630000001
 20
-43.018790999999958
 30
0.0
 11
114.36035099999999
 21
-43.068229999999971
 31
0.0
  0
LINE
  8
DETAIL
  6
CONTINUOUS
 62
     5
 10
114.36035099999999
 20
-43.068229999999971
 30
0.0
 11
114.28601
 21
-43.120986000000023
 31
0.0
  0
LINE
  8
DETAIL
  6
CONTINUOUS
 62
     5
 10
114.28601
 20
-43.120986000000023
 30
0.0
 11
114.19244399999999
 21
-43.178390000000043
 31
0.0
  0
LINE
  8
DETAIL
  6
CONTINUOUS
 62
     5
 10
114.19244399999999
 20
-43.178390000000043
 30
0.0
 11
114.07489600000009
 21
-43.241152999999997
 31
0.0
  0
LINE
  8
DETAIL
  6
CONTINUOUS
 62
     5
 10
114.07489600000009
 20
-43.241152999999997
 30
0.0
 11
113.928731
 21
-43.309436000000012
 31
0.0
  0
LINE
  8
DETAIL
  6
CONTINUOUS
 62
     5
 10
114.5766570000001
 20
-42.780734000000002
 30
0.0
 11
114.549268
 21
-43.071879999999958
 31
0.0
  0
LINE
  8
DETAIL
  6
CONTINUOUS
 62
     5
 10
114.549268
 20
-43.071879999999958
 30
0.0
 11
114.472964
 21
-43.35432400000002
 31
0.0
  0
LINE
  8
DETAIL
  6
CONTINUOUS
 62
     5
 10
114.472964
 20
-43.35432400000002
 30
0.0
 11
114.3499120000001
 21
-43.620046000000002
 31
0.0
  0
LINE
  8
DETAIL
  6
CONTINUOUS
 62
     5
 10
114.3499120000001
 20
-43.620046000000002
 30
0.0
 11
114.1836069999999
 21
-43.861500999999983
 31
0.0
  0
LINE
  8
DETAIL
  6
CONTINUOUS
 62
     5
 10
114.1836069999999
 20
-43.861500999999983
 30
0.0
 11
113.9787699999999
 21
-44.071831999999972
 31
0.0
  0
LINE
  8
DETAIL
  6
CONTINUOUS
 62
     5
 10
113.9787699999999
 20
-44.071831999999972
 30
0.0
 11
113.7411689999999
 21
-44.24509599999999
 31
0.0
  0
LINE
  8
DETAIL
  6
CONTINUOUS
 62
     5
 10
114.5770659999998
 20
-42.733875000000012
 30
0.0
 11
114.572784
 21
-42.780569000000007
 31
0.0
  0
LINE
  8
DETAIL
  6
CONTINUOUS
 62
     5
 10
114.572784
 20
-42.780569000000007
 30
0.0
 11
114.56005
 21
-42.827688999999957
 31
0.0
  0
LINE
  8
DETAIL
  6
CONTINUOUS
 62
     5
 10
114.56005
 20
-42.827688999999957
 30
0.0
 11
114.5383259999999
 21
-42.87556699999999
 31
0.0
  0
LINE
  8
DETAIL
  6
CONTINUOUS
 62
     5
 10
114.5383259999999
 20
-42.87556699999999
 30
0.0
 11
114.5076320000001
 21
-42.92352900000003
 31
0.0
  0
LINE
  8
DETAIL
  6
CONTINUOUS
 62
     5
 10
114.52654699999989
 20
-47.57006899999999
 30
0.0
 11
114.53353199999989
 21
-47.483646000000022
 31
0.0
  0
LINE
  8
DETAIL
  6
CONTINUOUS
 62
     5
 10
114.53353199999989
 20
-47.483646000000022
 30
0.0
 11
114.5339180000001
 21
-47.396800999999982
 31
0.0
  0
LINE
  8
DETAIL
  6
CONTINUOUS
 62
     5
 10
114.52654699999989
 20
-47.57006899999999
 30
0.0
 11
114.5339180000001
 21
-47.396800999999982
 31
0.0
  0
ARC
  8
DETAIL
  6
CONTINUOUS
 62
     5
 10
112.584603
 20
-49.937127000000032
 30
0.0
 40
1.9874510000000001
 50
296.79106999999613
 51
355.32066800000251
  0
LINE
  8
DETAIL
  6
CONTINUOUS
 62
     5
 10
114.99999800000001
 20
-0.3026179999999954
 30
0.0
 11
114.5654340000001
 21
-50.098907999999987
 31
0.0
  0
ARC
  8
DETAIL
  6
CONTINUOUS
 62
     5
 10
114.7
 20
-0.3000000000000114
 30
0.0
 40
0.3
 50
359.50001599999842
 51
90.0
  0
LINE
  8
DETAIL
  6
CONTINUOUS
 62
     5
 10
-114.7
 20
0.0
 30
0.0
 11
114.7
 21
0.0
 31
0.0
  0
LINE
  8
DETAIL
  6
CONTINUOUS
 62
     5
 10
111.64083500000019
 20
-43.326909999999998
 30
0.0
 11
-14.74871600000006
 21
-43.326909999999998
 31
0.0
  0
LINE
  8
DETAIL
  6
CONTINUOUS
 62
     5
 10
93.999514000000076
 20
-51.027424000000003
 30
0.0
 11
-93.999514000000076
 21
-51.027424000000003
 31
0.0
  0
LINE
  8
DETAIL
  6
CONTINUOUS
 62
     5
 10
-114.52654699999989
 20
-47.57006899999999
 30
0.0
 11
-114.53353199999989
 21
-47.483646000000022
 31
0.0
  0
LINE
  8
DETAIL
  6
CONTINUOUS
 62
     5
 10
-114.53353199999989
 20
-47.483646000000022
 30
0.0
 11
-114.5339180000001
 21
-47.396800999999982
 31
0.0
  0
LINE
  8
DETAIL
  6
CONTINUOUS
 62
     5
 10
-114.5766570000001
 20
-42.780734000000002
 30
0.0
 11
-114.54926900000009
 21
-43.071880999999962
 31
0.0
  0
LINE
  8
DETAIL
  6
CONTINUOUS
 62
     5
 10
-114.54926900000009
 20
-43.071880999999962
 30
0.0
 11
-114.472966
 21
-43.354326000000007
 31
0.0
  0
LINE
  8
DETAIL
  6
CONTINUOUS
 62
     5
 10
-114.472966
 20
-43.354326000000007
 30
0.0
 11
-114.34991600000011
 21
-43.620049999999992
 31
0.0
  0
LINE
  8
DETAIL
  6
CONTINUOUS
 62
     5
 10
-114.34991600000011
 20
-43.620049999999992
 30
0.0
 11
-114.183612
 21
-43.861507000000017
 31
0.0
  0
LINE
  8
DETAIL
  6
CONTINUOUS
 62
     5
 10
-114.183612
 20
-43.861507000000017
 30
0.0
 11
-113.97877699999999
 21
-44.071839000000011
 31
0.0
  0
LINE
  8
DETAIL
  6
CONTINUOUS
 62
     5
 10
-113.97877699999999
 20
-44.071839000000011
 30
0.0
 11
-113.74127900000011
 21
-44.245044999999998
 31
0.0
  0
LINE
  8
DETAIL
  6
CONTINUOUS
 62
     5
 10
-114.511156
 20
-42.918660999999993
 30
0.0
 11
-114.54056300000001
 21
-42.871411999999957
 31
0.0
  0
LINE
  8
DETAIL
  6
CONTINUOUS
 62
     5
 10
-114.54056300000001
 20
-42.871411999999957
 30
0.0
 11
-114.56107299999989
 21
-42.824812000000009
 31
0.0
  0
LINE
  8
DETAIL
  6
CONTINUOUS
 62
     5
 10
-114.56107299999989
 20
-42.824812000000009
 30
0.0
 11
-114.573032
 21
-42.779168000000027
 31
0.0
  0
LINE
  8
DETAIL
  6
CONTINUOUS
 62
     5
 10
-114.573032
 20
-42.779168000000027
 30
0.0
 11
-114.5770660000001
 21
-42.733875000000012
 31
0.0
  0
LINE
  8
DETAIL
  6
CONTINUOUS
 62
     5
 10
-93.999995999999996
 20
-58.0
 30
0.0
 11
-94.0
 21
-54.800555000000031
 31
0.0
  0
LINE
  8
DETAIL
  6
CONTINUOUS
 62
     5
 10
-93.999995000000141
 20
-54.617768000000012
 30
0.0
 11
-93.999998000000005
 21
-51.029653000000003
 31
0.0
  0
LINE
  8
DETAIL
  6
CONTINUOUS
 62
     5
 10
-113.74127900000011
 20
-44.245044999999998
 30
0.0
 11
-113.65691099999999
 21
-44.306285000000003
 31
0.0
  0
LINE
  8
DETAIL
  6
CONTINUOUS
 62
     5
 10
-113.65691099999999
 20
-44.306285000000003
 30
0.0
 11
-113.569585
 21
-44.363069000000003
 31
0.0
  0
LINE
  8
DETAIL
  6
CONTINUOUS
 62
     5
 10
-113.50278400000001
 20
-48.978944000000013
 30
0.0
 11
-113.77780200000009
 21
-48.82748100000002
 31
0.0
  0
LINE
  8
DETAIL
  6
CONTINUOUS
 62
     5
 10
-113.77780200000009
 20
-48.82748100000002
 30
0.0
 11
-114.01793500000009
 21
-48.631096000000007
 31
0.0
  0
LINE
  8
DETAIL
  6
CONTINUOUS
 62
     5
 10
-114.01793500000009
 20
-48.631096000000007
 30
0.0
 11
-114.2149460000001
 21
-48.39990899999998
 31
0.0
  0
LINE
  8
DETAIL
  6
CONTINUOUS
 62
     5
 10
-114.2149460000001
 20
-48.39990899999998
 30
0.0
 11
-114.36588999999999
 21
-48.142542999999989
 31
0.0
  0
LINE
  8
DETAIL
  6
CONTINUOUS
 62
     5
 10
-114.36588999999999
 20
-48.142542999999989
 30
0.0
 11
-114.4708479999999
 21
-47.862062000000037
 31
0.0
  0
LINE
  8
DETAIL
  6
CONTINUOUS
 62
     5
 10
-114.4708479999999
 20
-47.862062000000037
 30
0.0
 11
-114.52654699999989
 21
-47.57006899999999
 31
0.0
  0
LINE
  8
DETAIL
  6
CONTINUOUS
 62
     5
 10
-93.999514000000076
 20
-51.027424000000003
 30
0.0
 11
-93.999779000000004
 21
-51.028163999999997
 31
0.0
  0
LINE
  8
DETAIL
  6
CONTINUOUS
 62
     5
 10
-93.999779000000004
 20
-51.028163999999997
 30
0.0
 11
-93.999937999999943
 21
-51.028906999999997
 31
0.0
  0
LINE
  8
DETAIL
  6
CONTINUOUS
 62
     5
 10
-93.999937999999943
 20
-51.028906999999997
 30
0.0
 11
-93.999998000000005
 21
-51.029653000000003
 31
0.0
  0
LINE
  8
DETAIL
  6
CONTINUOUS
 62
     5
 10
-113.92873400000011
 20
-43.309438
 30
0.0
 11
-114.0769089999999
 21
-43.240145999999982
 31
0.0
  0
LINE
  8
DETAIL
  6
CONTINUOUS
 62
     5
 10
-114.0769089999999
 20
-43.240145999999982
 30
0.0
 11
-114.1956319999999
 21
-43.176559999999988
 31
0.0
  0
LINE
  8
DETAIL
  6
CONTINUOUS
 62
     5
 10
-114.1956319999999
 20
-43.176559999999988
 30
0.0
 11
-114.2899179999999
 21
-43.118398000000013
 31
0.0
  0
LINE
  8
DETAIL
  6
CONTINUOUS
 62
     5
 10
-114.2899179999999
 20
-43.118398000000013
 30
0.0
 11
-114.36475
 21
-43.064838000000009
 31
0.0
  0
LINE
  8
DETAIL
  6
CONTINUOUS
 62
     5
 10
-114.36475
 20
-43.064838000000009
 30
0.0
 11
-114.4246049999999
 21
-43.014568999999987
 31
0.0
  0
LINE
  8
DETAIL
  6
CONTINUOUS
 62
     5
 10
-114.4246049999999
 20
-43.014568999999987
 30
0.0
 11
-114.4727789999999
 21
-42.966190999999981
 31
0.0
  0
LINE
  8
DETAIL
  6
CONTINUOUS
 62
     5
 10
-114.4727789999999
 20
-42.966190999999981
 30
0.0
 11
-114.511156
 21
-42.918660999999993
 31
0.0
  0
LINE
  8
DETAIL
  6
CONTINUOUS
 62
     5
 10
-111.8566430000001
 20
-43.258231000000023
 30
0.0
 11
-112.468214
 21
-42.975649999999973
 31
0.0
  0
LINE
  8
DETAIL
  6
CONTINUOUS
 62
     5
 10
-112.468214
 20
-42.975649999999973
 30
0.0
 11
-113.07752600000001
 21
-42.687717000000013
 31
0.0
  0
LINE
  8
DETAIL
  6
CONTINUOUS
 62
     5
 10
-112.57807099999989
 20
-44.824075999999991
 30
0.0
 11
-113.0746690000001
 21
-44.595242999999982
 31
0.0
  0
LINE
  8
DETAIL
  6
CONTINUOUS
 62
     5
 10
-113.0746690000001
 20
-44.595242999999982
 30
0.0
 11
-113.569585
 21
-44.363069000000003
 31
0.0
  0
LINE
  8
DETAIL
  6
CONTINUOUS
 62
     5
 10
-112.57807099999989
 20
-44.824075999999991
 30
0.0
 11
-108.9543699999999
 21
-46.460246999999981
 31
0.0
  0
LINE
  8
DETAIL
  6
CONTINUOUS
 62
     5
 10
-108.9543699999999
 20
-46.460246999999981
 30
0.0
 11
-105.27305100000009
 21
-47.900235000000009
 31
0.0
  0
LINE
  8
DETAIL
  6
CONTINUOUS
 62
     5
 10
-113.50278299999989
 20
-48.978944000000013
 30
0.0
 11
-111.1382100000001
 21
-49.969312000000002
 31
0.0
  0
LINE
  8
DETAIL
  6
CONTINUOUS
 62
     5
 10
-111.1382100000001
 20
-49.969312000000002
 30
0.0
 11
-108.7570700000001
 21
-50.881070000000022
 31
0.0
  0
LINE
  8
DETAIL
  6
CONTINUOUS
 62
     5
 10
-108.7570700000001
 20
-50.881070000000022
 30
0.0
 11
-106.3607079999999
 21
-51.715592000000022
 31
0.0
  0
LINE
  8
DETAIL
  6
CONTINUOUS
 62
     5
 10
-106.3607079999999
 20
-51.715592000000022
 30
0.0
 11
-103.95043699999999
 21
-52.473997999999987
 31
0.0
  0
LINE
  8
DETAIL
  6
CONTINUOUS
 62
     5
 10
-103.95043699999999
 20
-52.473997999999987
 30
0.0
 11
-101.525834
 21
-53.157758999999999
 31
0.0
  0
LINE
  8
DETAIL
  6
CONTINUOUS
 62
     5
 10
-101.525834
 20
-53.157758999999999
 30
0.0
 11
-99.079103000000032
 21
-53.769835999999998
 31
0.0
  0
LINE
  8
DETAIL
  6
CONTINUOUS
 62
     5
 10
-99.079103000000032
 20
-53.769835999999998
 30
0.0
 11
-96.600022999999965
 21
-54.312369999999987
 31
0.0
  0
LINE
  8
DETAIL
  6
CONTINUOUS
 62
     5
 10
-113.07752600000001
 20
-42.687722000000008
 30
0.0
 11
-113.73701299999991
 21
-43.167713999999989
 31
0.0
  0
LINE
  8
DETAIL
  6
CONTINUOUS
 62
     5
 10
-113.73701299999991
 20
-43.167713999999989
 30
0.0
 11
-113.92873400000011
 21
-43.309438
 31
0.0
  0
LINE
  8
DETAIL
  6
CONTINUOUS
 62
     5
 10
-111.64083500000019
 20
-43.326909999999998
 30
0.0
 11
-111.66008000000009
 21
-43.32538599999998
 31
0.0
  0
LINE
  8
DETAIL
  6
CONTINUOUS
 62
     5
 10
-111.66008000000009
 20
-43.32538599999998
 30
0.0
 11
-111.6843180000001
 21
-43.320828000000013
 31
0.0
  0
LINE
  8
DETAIL
  6
CONTINUOUS
 62
     5
 10
-111.6843180000001
 20
-43.320828000000013
 30
0.0
 11
-111.7129560000001
 21
-43.313331000000012
 31
0.0
  0
LINE
  8
DETAIL
  6
CONTINUOUS
 62
     5
 10
-111.7129560000001
 20
-43.313331000000012
 30
0.0
 11
-111.745349
 21
-43.303045999999988
 31
0.0
  0
LINE
  8
DETAIL
  6
CONTINUOUS
 62
     5
 10
-111.745349
 20
-43.303045999999988
 30
0.0
 11
-111.7807149999999
 21
-43.290207000000009
 31
0.0
  0
LINE
  8
DETAIL
  6
CONTINUOUS
 62
     5
 10
-111.7807149999999
 20
-43.290207000000009
 30
0.0
 11
-111.81814800000009
 21
-43.275132999999983
 31
0.0
  0
LINE
  8
DETAIL
  6
CONTINUOUS
 62
     5
 10
-111.81814800000009
 20
-43.275132999999983
 30
0.0
 11
-111.8566430000001
 21
-43.258231000000023
 31
0.0
  0
LINE
  8
DETAIL
  6
CONTINUOUS
 62
     5
 10
-96.600022999999965
 20
-54.312369999999987
 30
0.0
 11
-94.0
 21
-54.800555000000031
 31
0.0
  0
LINE
  8
DETAIL
  6
CONTINUOUS
 62
     5
 10
-93.999995999999996
 20
-58.0
 30
0.0
 11
-98.971191000000076
 21
-56.910253000000012
 31
0.0
  0
LINE
  8
DETAIL
  6
CONTINUOUS
 62
     5
 10
-98.971191000000076
 20
-56.910253000000012
 30
0.0
 11
-103.976754
 21
-55.470106999999977
 31
0.0
  0
LINE
  8
DETAIL
  6
CONTINUOUS
 62
     5
 10
-103.976754
 20
-55.470106999999977
 30
0.0
 11
-108.879019
 21
-53.706729999999993
 31
0.0
  0
LINE
  8
DETAIL
  6
CONTINUOUS
 62
     5
 10
-108.879019
 20
-53.706729999999993
 30
0.0
 11
-113.480423
 21
-51.71123799999998
 31
0.0
  0
ARC
  8
DETAIL
  6
CONTINUOUS
 62
     5
 10
-112.712863
 20
-50.083095000000007
 30
0.0
 40
1.8
 50
180.50000000000131
 51
244.75926800000781
  0
LINE
  8
DETAIL
  6
CONTINUOUS
 62
     5
 10
-114.9999889999999
 20
-0.3026179999999954
 30
0.0
 11
-114.512794
 21
-50.098913000000039
 31
0.0
  0
ARC
  8
DETAIL
  6
CONTINUOUS
 62
     5
 10
-114.7
 20
-0.3000000000000114
 30
0.0
 40
0.3
 50
90.0
 51
180.50000000000131
  0
LINE
  8
DETAIL
  6
CONTINUOUS
 62
     5
 10
-103.44736400000011
 20
-48.535012999999992
 30
0.0
 11
-98.745372999999958
 21
-49.938226999999983
 31
0.0
  0
LINE
  8
DETAIL
  6
CONTINUOUS
 62
     5
 10
-108.07034
 20
-46.825988999999993
 30
0.0
 11
-103.44736400000011
 21
-48.535012999999992
 31
0.0
  0
LINE
  8
DETAIL
  6
CONTINUOUS
 62
     5
 10
-98.745372999999958
 20
-49.938226999999983
 30
0.0
 11
-93.999998000000005
 21
-51.02963699999998
 31
0.0
  0
LINE
  8
DETAIL
  6
CONTINUOUS
 62
     5
 10
-93.999948000000131
 20
-51.028906999999997
 30
0.0
 11
-93.999998000000005
 21
-51.029653000000003
 31
0.0
  0
LINE
  8
DETAIL
  6
CONTINUOUS
 62
     5
 10
-93.999788999999964
 20
-51.028163999999997
 30
0.0
 11
-93.999948000000131
 21
-51.028906999999997
 31
0.0
  0
LINE
  8
DETAIL
  6
CONTINUOUS
 62
     5
 10
-93.999524000000051
 20
-51.027424000000003
 30
0.0
 11
-93.999788999999964
 21
-51.028163999999997
 31
0.0
  0
POINT
  8
DEFPOINTS
  6
CONTINUOUS
 62
    30
 10
-115.0
 20
-0.3000000000000114
 30
0.0
  0
POINT
  8
DEFPOINTS
  6
CONTINUOUS
 62
    30
 10
114.99999800000001
 20
-0.3026179999999954
 30
0.0
  0
LINE
  8
SIZE
  6
CONTINUOUS
 62
    30
 10
-134.12480600000001
 20
0.0
 30
0.0
 11
-400.88717241745292
 21
0.0
 31
0.0
  0
LINE
  8
SIZE
  6
CONTINUOUS
 62
    30
 10
-113.999996
 20
-58.0
 30
0.0
 11
-400.88717241745292
 21
-58.0
 31
0.0
  0
LINE
  8
SIZE
  6
CONTINUOUS
 62
    30
 10
-380.88717241745292
 20
12.0
 30
0.0
 11
-380.88717241745292
 21
24.0
 31
0.0
  0
LINE
  8
SIZE
  6
CONTINUOUS
 62
    30
 10
-380.88717241745292
 20
-70.0
 30
0.0
 11
-380.88717241745292
 21
-225.25714300000001
 31
0.0
  0
LINE
  8
SIZE
  6
CONTINUOUS
 62
    30
 10
-380.88717241745292
 20
0.0
 30
0.0
 11
-380.88717241745292
 21
-58.0
 31
0.0
  0
CIRCLE
  8
SIZE
  6
CONTINUOUS
 62
    30
 10
-380.88717241745292
 20
0.0
 30
0.0
 40
6.0
  0
LINE
  8
SIZE
  6
CONTINUOUS
 62
    30
 10
-380.88717241745292
 20
0.0
 30
0.0
 11
-380.88717241745292
 21
12.0
 31
0.0
  0
CIRCLE
  8
SIZE
  6
CONTINUOUS
 62
    30
 10
-380.88717241745292
 20
-58.0
 30
0.0
 40
6.0
  0
LINE
  8
SIZE
  6
CONTINUOUS
 62
    30
 10
-380.88717241745292
 20
-58.0
 30
0.0
 11
-380.88717241745292
 21
-70.0
 31
0.0
  0
TEXT
  8
SIZE
  6
CONTINUOUS
 62
    30
 10
-405.88717241745292
 20
-200.2571424285714
 30
0.0
 40
64.0
  1
58
 50
90.0
 41
0.9
 72
     1
 11
-405.88717241745292
 21
-153.62857099999999
 31
0.0
  0
POINT
  8
DEFPOINTS
  6
CONTINUOUS
 62
    30
 10
-114.12480600000001
 20
0.0
 30
0.0
  0
POINT
  8
DEFPOINTS
  6
CONTINUOUS
 62
    30
 10
-93.999995999999996
 20
-58.0
 30
0.0
  0
POINT
  8
DEFPOINTS
  6
CONTINUOUS
 62
    30
 10
-380.88717241745292
 20
-58.0
 30
0.0
  0
LINE
  8
SIZE
  6
CONTINUOUS
 62
    30
 10
-134.12480600000001
 20
0.0
 30
0.0
 11
-259.02044041745279
 21
0.0
 31
0.0
  0
LINE
  8
SIZE
  6
CONTINUOUS
 62
    30
 10
-91.0
 20
55.0
 30
0.0
 11
-259.02044041745279
 21
55.0
 31
0.0
  0
LINE
  8
SIZE
  6
CONTINUOUS
 62
    30
 10
-239.02044041745279
 20
-12.0
 30
0.0
 11
-239.02044041745279
 21
-24.0
 31
0.0
  0
LINE
  8
SIZE
  6
CONTINUOUS
 62
    30
 10
-239.02044041745279
 20
67.0
 30
0.0
 11
-239.02044041745279
 21
222.25714300000001
 31
0.0
  0
LINE
  8
SIZE
  6
CONTINUOUS
 62
    30
 10
-239.02044041745279
 20
0.0
 30
0.0
 11
-239.02044041745279
 21
55.0
 31
0.0
  0
CIRCLE
  8
SIZE
  6
CONTINUOUS
 62
    30
 10
-239.02044041745279
 20
0.0
 30
0.0
 40
6.0
  0
LINE
  8
SIZE
  6
CONTINUOUS
 62
    30
 10
-239.02044041745279
 20
0.0
 30
0.0
 11
-239.02044041745279
 21
-12.0
 31
0.0
  0
CIRCLE
  8
SIZE
  6
CONTINUOUS
 62
    30
 10
-239.02044041745279
 20
55.0
 30
0.0
 40
6.0
  0
LINE
  8
SIZE
  6
CONTINUOUS
 62
    30
 10
-239.02044041745279
 20
55.0
 30
0.0
 11
-239.02044041745279
 21
67.0
 31
0.0
  0
TEXT
  8
SIZE
  6
CONTINUOUS
 62
    30
 10
-264.02044041745279
 20
103.9999995714286
 30
0.0
 40
64.0
  1
55
 50
90.0
 41
0.9
 72
     1
 11
-264.02044041745279
 21
150.62857099999999
 31
0.0
  0
POINT
  8
DEFPOINTS
  6
CONTINUOUS
 62
    30
 10
-114.12480600000001
 20
0.0
 30
0.0
  0
POINT
  8
DEFPOINTS
  6
CONTINUOUS
 62
    30
 10
-71.0
 20
55.0
 30
0.0
  0
POINT
  8
DEFPOINTS
  6
CONTINUOUS
 62
    30
 10
-239.02044041745279
 20
55.0
 30
0.0
  0
LINE
  8
DETAIL
  6
CONTINUOUS
 62
     5
 10
21.990174999999901
 20
55.0
 30
0.0
 11
21.990174999999901
 21
57.209607000000013
 31
0.0
  0
LINE
  8
DETAIL
  6
CONTINUOUS
 62
     5
 10
26.509825000000092
 20
55.0
 30
0.0
 11
26.509825000000092
 21
57.209607000000013
 31
0.0
  0
ARC
  8
DETAIL
  6
CONTINUOUS
 62
     5
 10
26.158298000000048
 20
58.14693299999999
 30
0.0
 40
1.104803
 50
0.0
 51
74.016410000006061
  0
ARC
  8
DETAIL
  6
CONTINUOUS
 62
     5
 10
22.341701999999941
 20
58.14693299999999
 30
0.0
 40
1.104803
 50
105.9836079999959
 51
180.0
  0
LINE
  8
DETAIL
  6
CONTINUOUS
 62
     5
 10
27.263100000000119
 20
57.209607000000013
 30
0.0
 11
27.263100000000119
 21
58.14693299999999
 31
0.0
  0
LINE
  8
DETAIL
  6
CONTINUOUS
 62
     5
 10
26.86707500000011
 20
59.081119999999999
 30
0.0
 11
26.86707500000011
 21
59.081498000000011
 31
0.0
  0
LINE
  8
DETAIL
  6
CONTINUOUS
 62
     5
 10
21.236899999999881
 20
57.209607000000013
 30
0.0
 11
21.236899999999881
 21
58.14693299999999
 31
0.0
  0
LINE
  8
DETAIL
  6
CONTINUOUS
 62
     5
 10
27.263100000000119
 20
57.209607000000013
 30
0.0
 11
21.236899999999881
 21
57.209607000000013
 31
0.0
  0
ARC
  8
DETAIL
  6
CONTINUOUS
 62
     5
 10
24.25
 20
51.484715999999992
 30
0.0
 40
8.0349339999999998
 50
74.016410000006061
 51
105.9836079999959
  0
LINE
  8
DETAIL
  6
CONTINUOUS
 62
     5
 10
22.54257600000005
 20
55.0
 30
0.0
 11
31.398381999999859
 21
55.0
 31
0.0
  0
LINE
  8
DETAIL
  6
CONTINUOUS
 62
     5
 10
-26.509825000000092
 20
55.0
 30
0.0
 11
-26.509825000000092
 21
57.209607000000013
 31
0.0
  0
LINE
  8
DETAIL
  6
CONTINUOUS
 62
     5
 10
-21.990174999999901
 20
55.0
 30
0.0
 11
-21.990174999999901
 21
57.209607000000013
 31
0.0
  0
ARC
  8
DETAIL
  6
CONTINUOUS
 62
     5
 10
-22.341701999999941
 20
58.14693299999999
 30
0.0
 40
1.104803
 50
0.0
 51
74.016410000006061
  0
ARC
  8
DETAIL
  6
CONTINUOUS
 62
     5
 10
-26.158298000000048
 20
58.14693299999999
 30
0.0
 40
1.104803
 50
105.9836079999959
 51
180.0
  0
LINE
  8
DETAIL
  6
CONTINUOUS
 62
     5
 10
-21.236899999999881
 20
57.209607000000013
 30
0.0
 11
-21.236899999999881
 21
58.14693299999999
 31
0.0
  0
LINE
  8
DETAIL
  6
CONTINUOUS
 62
     5
 10
-21.63292499999989
 20
59.081119999999999
 30
0.0
 11
-21.63292499999989
 21
59.081498000000011
 31
0.0
  0
LINE
  8
DETAIL
  6
CONTINUOUS
 62
     5
 10
-27.263100000000119
 20
57.209607000000013
 30
0.0
 11
-27.263100000000119
 21
58.14693299999999
 31
0.0
  0
LINE
  8
DETAIL
  6
CONTINUOUS
 62
     5
 10
-21.236899999999881
 20
57.209607000000013
 30
0.0
 11
-27.263100000000119
 21
57.209607000000013
 31
0.0
  0
ARC
  8
DETAIL
  6
CONTINUOUS
 62
     5
 10
-24.25
 20
51.484715999999992
 30
0.0
 40
8.0349339999999998
 50
74.016410000006061
 51
105.9836079999959
  0
LINE
  8
DETAIL
  6
CONTINUOUS
 62
     5
 10
-25.95742399999995
 20
55.0
 30
0.0
 11
-17.101618000000141
 21
55.0
 31
0.0
  0
LINE
  8
DETAIL
  6
CONTINUOUS
 62
     5
 10
-21.236899999999881
 20
57.209607000000013
 30
0.0
 11
21.236899999999881
 21
57.209607000000013
 31
0.0
  0
LINE
  8
DETAIL
  6
CONTINUOUS
 62
     5
 10
-48.671687999999897
 20
86.365603000000021
 30
0.0
 11
-48.330121999999847
 21
86.478392999999983
 31
0.0
  0
LINE
  8
DETAIL
  6
CONTINUOUS
 62
     5
 10
-48.994862000000012
 20
86.159377000000006
 30
0.0
 11
-48.671687999999897
 21
86.365603000000021
 31
0.0
  0
LINE
  8
DETAIL
  6
CONTINUOUS
 62
     5
 10
-49.288763000000017
 20
85.866360999999984
 30
0.0
 11
-48.994862000000012
 21
86.159377000000006
 31
0.0
  0
LINE
  8
DETAIL
  6
CONTINUOUS
 62
     5
 10
-49.54384600000003
 20
85.496058000000005
 30
0.0
 11
-49.288763000000017
 21
85.866360999999984
 31
0.0
  0
LINE
  8
DETAIL
  6
CONTINUOUS
 62
     5
 10
-49.751989999999978
 20
85.060256999999979
 30
0.0
 11
-49.54384600000003
 21
85.496058000000005
 31
0.0
  0
LINE
  8
DETAIL
  6
CONTINUOUS
 62
     5
 10
-49.906480999999992
 20
84.572978000000035
 30
0.0
 11
-49.751989999999978
 21
85.060256999999979
 31
0.0
  0
LINE
  8
DETAIL
  6
CONTINUOUS
 62
     5
 10
-50.002267999999972
 20
84.050565000000006
 30
0.0
 11
-49.906480999999992
 21
84.572978000000035
 31
0.0
  0
LINE
  8
DETAIL
  6
CONTINUOUS
 62
     5
 10
-50.036513000000006
 20
83.510267999999982
 30
0.0
 11
-50.002267999999972
 21
84.050565000000006
 31
0.0
  0
LINE
  8
DETAIL
  6
CONTINUOUS
 62
     5
 10
-50.163320000000112
 20
55.0
 30
0.0
 11
-50.036513000000006
 21
83.510267999999982
 31
0.0
  0
LINE
  8
DETAIL
  6
CONTINUOUS
 62
     5
 10
-49.274163000000037
 20
86.362996000000024
 30
0.0
 11
-49.59701399999993
 21
86.181139000000044
 31
0.0
  0
LINE
  8
DETAIL
  6
CONTINUOUS
 62
     5
 10
-49.59701399999993
 20
86.181139000000044
 30
0.0
 11
-49.896012000000162
 21
85.926881999999964
 31
0.0
  0
LINE
  8
DETAIL
  6
CONTINUOUS
 62
     5
 10
-49.896012000000162
 20
85.926881999999964
 30
0.0
 11
-50.162546999999897
 21
85.605978999999977
 31
0.0
  0
LINE
  8
DETAIL
  6
CONTINUOUS
 62
     5
 10
-50.162546999999897
 20
85.605978999999977
 30
0.0
 11
-50.389772999999877
 21
85.225684999999999
 31
0.0
  0
LINE
  8
DETAIL
  6
CONTINUOUS
 62
     5
 10
-50.389772999999877
 20
85.225684999999999
 30
0.0
 11
-50.570890999999847
 21
84.797320000000013
 31
0.0
  0
LINE
  8
DETAIL
  6
CONTINUOUS
 62
     5
 10
-50.570890999999847
 20
84.797320000000013
 30
0.0
 11
-50.70070399999986
 21
84.336088000000032
 31
0.0
  0
LINE
  8
DETAIL
  6
CONTINUOUS
 62
     5
 10
-50.70070399999986
 20
84.336088000000032
 30
0.0
 11
-50.776843000000113
 21
83.859167000000014
 31
0.0
  0
LINE
  8
DETAIL
  6
CONTINUOUS
 62
     5
 10
-50.776843000000113
 20
83.859167000000014
 30
0.0
 11
-50.798802000000023
 21
83.513885000000016
 31
0.0
  0
LINE
  8
DETAIL
  6
CONTINUOUS
 62
     5
 10
-51.5
 20
55.0
 30
0.0
 11
-50.798808000000008
 21
83.513885000000016
 31
0.0
  0
LINE
  8
DETAIL
  6
CONTINUOUS
 62
     5
 10
-48.938454999999983
 20
86.469041000000004
 30
0.0
 11
-49.274163000000037
 21
86.362996000000024
 31
0.0
  0
LINE
  8
DETAIL
  6
CONTINUOUS
 62
     5
 10
-48.628987000000038
 20
86.499989000000042
 30
0.0
 11
-48.938454999999983
 21
86.469041000000004
 31
0.0
  0
LINE
  8
DETAIL
  6
CONTINUOUS
 62
     5
 10
-45.116594999999961
 20
85.803539999999998
 30
0.0
 11
-45.353239000000031
 21
85.435547999999983
 31
0.0
  0
LINE
  8
DETAIL
  6
CONTINUOUS
 62
     5
 10
-45.353239000000031
 20
85.435547999999983
 30
0.0
 11
-45.545010000000048
 21
85.008558999999977
 31
0.0
  0
LINE
  8
DETAIL
  6
CONTINUOUS
 62
     5
 10
-44.537822000000013
 20
86.321097000000023
 30
0.0
 11
-44.842043999999987
 21
86.101710000000026
 31
0.0
  0
LINE
  8
DETAIL
  6
CONTINUOUS
 62
     5
 10
-44.842043999999987
 20
86.101710000000026
 30
0.0
 11
-45.116594999999961
 21
85.803539999999998
 31
0.0
  0
LINE
  8
DETAIL
  6
CONTINUOUS
 62
     5
 10
-43.879044000000022
 20
86.5
 30
0.0
 11
-44.213498999999963
 21
86.455048000000033
 31
0.0
  0
LINE
  8
DETAIL
  6
CONTINUOUS
 62
     5
 10
-44.213498999999963
 20
86.455048000000033
 30
0.0
 11
-44.537822000000013
 21
86.321097000000023
 31
0.0
  0
LINE
  8
DETAIL
  6
CONTINUOUS
 62
     5
 10
-45.545010000000048
 20
85.008558999999977
 30
0.0
 11
-45.686149000000107
 21
84.535343000000026
 31
0.0
  0
LINE
  8
DETAIL
  6
CONTINUOUS
 62
     5
 10
-45.686149000000107
 20
84.535343000000026
 30
0.0
 11
-45.772365000000043
 21
84.030730000000005
 31
0.0
  0
LINE
  8
DETAIL
  6
CONTINUOUS
 62
     5
 10
-45.772365000000043
 20
84.030730000000005
 30
0.0
 11
-45.801328999999903
 21
83.510267999999982
 31
0.0
  0
LINE
  8
DETAIL
  6
CONTINUOUS
 62
     5
 10
-45.801328999999903
 20
83.510267999999982
 30
0.0
 11
-45.741167000000132
 21
55.0
 31
0.0
  0
LINE
  8
DETAIL
  6
CONTINUOUS
 62
     5
 10
-46.411796999999979
 20
83.510496000000003
 30
0.0
 11
-46.922053000000012
 21
55.012672000000009
 31
0.0
  0
LINE
  8
DETAIL
  6
CONTINUOUS
 62
     5
 10
-45.125309000000023
 20
86.246756000000005
 30
0.0
 11
-45.444113000000023
 21
86.003490999999983
 31
0.0
  0
LINE
  8
DETAIL
  6
CONTINUOUS
 62
     5
 10
-45.444113000000023
 20
86.003490999999983
 30
0.0
 11
-45.729781999999886
 21
85.685585000000003
 31
0.0
  0
LINE
  8
DETAIL
  6
CONTINUOUS
 62
     5
 10
-45.729781999999886
 20
85.685585000000003
 30
0.0
 11
-45.973640000000152
 21
85.30143099999998
 31
0.0
  0
LINE
  8
DETAIL
  6
CONTINUOUS
 62
     5
 10
-45.973640000000152
 20
85.30143099999998
 30
0.0
 11
-46.168275999999892
 21
84.86265400000002
 31
0.0
  0
LINE
  8
DETAIL
  6
CONTINUOUS
 62
     5
 10
-46.168275999999892
 20
84.86265400000002
 30
0.0
 11
-46.307679999999898
 21
84.385449999999977
 31
0.0
  0
LINE
  8
DETAIL
  6
CONTINUOUS
 62
     5
 10
-46.307679999999898
 20
84.385449999999977
 30
0.0
 11
-46.388864000000012
 21
83.888570000000016
 31
0.0
  0
LINE
  8
DETAIL
  6
CONTINUOUS
 62
     5
 10
-46.388864000000012
 20
83.888570000000016
 30
0.0
 11
-46.411791999999878
 21
83.510496000000003
 31
0.0
  0
LINE
  8
DETAIL
  6
CONTINUOUS
 62
     5
 10
-44.293642999999967
 20
86.499966999999955
 30
0.0
 11
-44.40187000000013
 21
86.494321000000014
 31
0.0
  0
LINE
  8
DETAIL
  6
CONTINUOUS
 62
     5
 10
-48.628987000000038
 20
86.5
 30
0.0
 11
-44.304970000000132
 21
86.5
 31
0.0
  0
LINE
  8
DETAIL
  6
CONTINUOUS
 62
     5
 10
-44.526603000000023
 20
86.476800000000026
 30
0.0
 11
-44.545106000000033
 21
86.473449000000016
 31
0.0
  0
LINE
  8
DETAIL
  6
CONTINUOUS
 62
     5
 10
-44.40187000000013
 20
86.494321000000014
 30
0.0
 11
-44.526603000000023
 21
86.476800000000026
 31
0.0
  0
LINE
  8
DETAIL
  6
CONTINUOUS
 62
     5
 10
-44.545520000000117
 20
86.473372999999981
 30
0.0
 11
-44.784709000000021
 21
86.409485000000032
 31
0.0
  0
LINE
  8
DETAIL
  6
CONTINUOUS
 62
     5
 10
-44.784709000000021
 20
86.409485000000032
 30
0.0
 11
-45.125309000000023
 21
86.246756000000005
 31
0.0
  0
LINE
  8
DETAIL
  6
CONTINUOUS
 62
     5
 10
-42.072341000000037
 20
86.5
 30
0.0
 11
-44.29349000000002
 21
86.5
 31
0.0
  0
LINE
  8
DETAIL
  6
CONTINUOUS
 62
     5
 10
-41.766250000000127
 20
86.469743999999977
 30
0.0
 11
-42.072186999999992
 21
86.499990000000025
 31
0.0
  0
LINE
  8
DETAIL
  6
CONTINUOUS
 62
     5
 10
-41.431037999999937
 20
86.364738999999986
 30
0.0
 11
-41.766250000000127
 21
86.469743999999977
 31
0.0
  0
LINE
  8
DETAIL
  6
CONTINUOUS
 62
     5
 10
-40.809267000000098
 20
85.931036000000006
 30
0.0
 11
-41.108273000000047
 21
86.184004000000016
 31
0.0
  0
LINE
  8
DETAIL
  6
CONTINUOUS
 62
     5
 10
-41.108273000000047
 20
86.184004000000016
 30
0.0
 11
-41.431037999999937
 21
86.364738999999986
 31
0.0
  0
LINE
  8
DETAIL
  6
CONTINUOUS
 62
     5
 10
-40.31578300000001
 20
85.234323000000032
 30
0.0
 11
-40.542832999999973
 21
85.611921999999979
 31
0.0
  0
LINE
  8
DETAIL
  6
CONTINUOUS
 62
     5
 10
-40.542832999999973
 20
85.611921999999979
 30
0.0
 11
-40.809267000000098
 21
85.931036000000006
 31
0.0
  0
LINE
  8
DETAIL
  6
CONTINUOUS
 62
     5
 10
-40.003561999999867
 20
84.350095000000024
 30
0.0
 11
-40.134399999999907
 21
84.809043999999972
 31
0.0
  0
LINE
  8
DETAIL
  6
CONTINUOUS
 62
     5
 10
-39.9023830000001
 20
83.513885000000016
 30
0.0
 11
-39.925813999999953
 21
83.873307000000025
 31
0.0
  0
LINE
  8
DETAIL
  6
CONTINUOUS
 62
     5
 10
-39.925813999999953
 20
83.873307000000025
 30
0.0
 11
-40.003561999999867
 21
84.350095000000024
 31
0.0
  0
LINE
  8
DETAIL
  6
CONTINUOUS
 62
     5
 10
-40.134399999999907
 20
84.809043999999972
 30
0.0
 11
-40.31578300000001
 21
85.234323000000032
 31
0.0
  0
LINE
  8
DETAIL
  6
CONTINUOUS
 62
     5
 10
-39.902374000000009
 20
83.513885000000016
 30
0.0
 11
-39.202285999999972
 21
55.0
 31
0.0
  0
LINE
  8
DETAIL
  6
CONTINUOUS
 62
     5
 10
48.671687999999897
 20
86.365603000000021
 30
0.0
 11
48.330121999999847
 21
86.478392999999983
 31
0.0
  0
LINE
  8
DETAIL
  6
CONTINUOUS
 62
     5
 10
48.994862000000012
 20
86.159377000000006
 30
0.0
 11
48.671687999999897
 21
86.365603000000021
 31
0.0
  0
LINE
  8
DETAIL
  6
CONTINUOUS
 62
     5
 10
49.288763000000017
 20
85.866360999999984
 30
0.0
 11
48.994862000000012
 21
86.159377000000006
 31
0.0
  0
LINE
  8
DETAIL
  6
CONTINUOUS
 62
     5
 10
49.54384600000003
 20
85.496058000000005
 30
0.0
 11
49.288763000000017
 21
85.866360999999984
 31
0.0
  0
LINE
  8
DETAIL
  6
CONTINUOUS
 62
     5
 10
49.751989999999978
 20
85.060256999999979
 30
0.0
 11
49.54384600000003
 21
85.496058000000005
 31
0.0
  0
LINE
  8
DETAIL
  6
CONTINUOUS
 62
     5
 10
49.906480999999992
 20
84.572978000000035
 30
0.0
 11
49.751989999999978
 21
85.060256999999979
 31
0.0
  0
LINE
  8
DETAIL
  6
CONTINUOUS
 62
     5
 10
50.002267999999972
 20
84.050565000000006
 30
0.0
 11
49.906480999999992
 21
84.572978000000035
 31
0.0
  0
LINE
  8
DETAIL
  6
CONTINUOUS
 62
     5
 10
50.036513000000006
 20
83.510267999999982
 30
0.0
 11
50.002267999999972
 21
84.050565000000006
 31
0.0
  0
LINE
  8
DETAIL
  6
CONTINUOUS
 62
     5
 10
50.163320000000112
 20
55.0
 30
0.0
 11
50.036513000000006
 21
83.510267999999982
 31
0.0
  0
LINE
  8
DETAIL
  6
CONTINUOUS
 62
     5
 10
49.274163000000037
 20
86.362996000000024
 30
0.0
 11
49.59701399999993
 21
86.181139000000044
 31
0.0
  0
LINE
  8
DETAIL
  6
CONTINUOUS
 62
     5
 10
49.59701399999993
 20
86.181139000000044
 30
0.0
 11
49.896012000000162
 21
85.926881999999964
 31
0.0
  0
LINE
  8
DETAIL
  6
CONTINUOUS
 62
     5
 10
49.896012000000162
 20
85.926881999999964
 30
0.0
 11
50.162546999999897
 21
85.605978999999977
 31
0.0
  0
LINE
  8
DETAIL
  6
CONTINUOUS
 62
     5
 10
50.162546999999897
 20
85.605978999999977
 30
0.0
 11
50.389772999999877
 21
85.225684999999999
 31
0.0
  0
LINE
  8
DETAIL
  6
CONTINUOUS
 62
     5
 10
50.389772999999877
 20
85.225684999999999
 30
0.0
 11
50.570890999999847
 21
84.797320000000013
 31
0.0
  0
LINE
  8
DETAIL
  6
CONTINUOUS
 62
     5
 10
50.570890999999847
 20
84.797320000000013
 30
0.0
 11
50.70070399999986
 21
84.336088000000032
 31
0.0
  0
LINE
  8
DETAIL
  6
CONTINUOUS
 62
     5
 10
50.70070399999986
 20
84.336088000000032
 30
0.0
 11
50.776843000000113
 21
83.859167000000014
 31
0.0
  0
LINE
  8
DETAIL
  6
CONTINUOUS
 62
     5
 10
50.776843000000113
 20
83.859167000000014
 30
0.0
 11
50.798802000000023
 21
83.513885000000016
 31
0.0
  0
LINE
  8
DETAIL
  6
CONTINUOUS
 62
     5
 10
51.5
 20
55.0
 30
0.0
 11
50.798808000000008
 21
83.513885000000016
 31
0.0
  0
LINE
  8
DETAIL
  6
CONTINUOUS
 62
     5
 10
48.938454999999983
 20
86.469041000000004
 30
0.0
 11
49.274163000000037
 21
86.362996000000024
 31
0.0
  0
LINE
  8
DETAIL
  6
CONTINUOUS
 62
     5
 10
48.628987000000038
 20
86.499989000000042
 30
0.0
 11
48.938454999999983
 21
86.469041000000004
 31
0.0
  0
LINE
  8
DETAIL
  6
CONTINUOUS
 62
     5
 10
45.116594999999961
 20
85.803539999999998
 30
0.0
 11
45.353239000000031
 21
85.435547999999983
 31
0.0
  0
LINE
  8
DETAIL
  6
CONTINUOUS
 62
     5
 10
45.353239000000031
 20
85.435547999999983
 30
0.0
 11
45.545010000000048
 21
85.008558999999977
 31
0.0
  0
LINE
  8
DETAIL
  6
CONTINUOUS
 62
     5
 10
44.537822000000013
 20
86.321097000000023
 30
0.0
 11
44.842043999999987
 21
86.101710000000026
 31
0.0
  0
LINE
  8
DETAIL
  6
CONTINUOUS
 62
     5
 10
44.842043999999987
 20
86.101710000000026
 30
0.0
 11
45.116594999999961
 21
85.803539999999998
 31
0.0
  0
LINE
  8
DETAIL
  6
CONTINUOUS
 62
     5
 10
43.879044000000022
 20
86.5
 30
0.0
 11
44.213498999999963
 21
86.455048000000033
 31
0.0
  0
LINE
  8
DETAIL
  6
CONTINUOUS
 62
     5
 10
44.213498999999963
 20
86.455048000000033
 30
0.0
 11
44.537822000000013
 21
86.321097000000023
 31
0.0
  0
LINE
  8
DETAIL
  6
CONTINUOUS
 62
     5
 10
45.545010000000048
 20
85.008558999999977
 30
0.0
 11
45.686149000000107
 21
84.535343000000026
 31
0.0
  0
LINE
  8
DETAIL
  6
CONTINUOUS
 62
     5
 10
45.686149000000107
 20
84.535343000000026
 30
0.0
 11
45.772365000000043
 21
84.030730000000005
 31
0.0
  0
LINE
  8
DETAIL
  6
CONTINUOUS
 62
     5
 10
45.772365000000043
 20
84.030730000000005
 30
0.0
 11
45.801328999999903
 21
83.510267999999982
 31
0.0
  0
LINE
  8
DETAIL
  6
CONTINUOUS
 62
     5
 10
45.801328999999903
 20
83.510267999999982
 30
0.0
 11
45.741167000000132
 21
55.0
 31
0.0
  0
LINE
  8
DETAIL
  6
CONTINUOUS
 62
     5
 10
46.411796999999979
 20
83.510496000000003
 30
0.0
 11
46.922053000000012
 21
55.012672000000009
 31
0.0
  0
LINE
  8
DETAIL
  6
CONTINUOUS
 62
     5
 10
45.125309000000023
 20
86.246756000000005
 30
0.0
 11
45.444113000000023
 21
86.003490999999983
 31
0.0
  0
LINE
  8
DETAIL
  6
CONTINUOUS
 62
     5
 10
45.444113000000023
 20
86.003490999999983
 30
0.0
 11
45.729781999999886
 21
85.685585000000003
 31
0.0
  0
LINE
  8
DETAIL
  6
CONTINUOUS
 62
     5
 10
45.729781999999886
 20
85.685585000000003
 30
0.0
 11
45.973640000000152
 21
85.30143099999998
 31
0.0
  0
LINE
  8
DETAIL
  6
CONTINUOUS
 62
     5
 10
45.973640000000152
 20
85.30143099999998
 30
0.0
 11
46.168275999999892
 21
84.86265400000002
 31
0.0
  0
LINE
  8
DETAIL
  6
CONTINUOUS
 62
     5
 10
46.168275999999892
 20
84.86265400000002
 30
0.0
 11
46.307679999999898
 21
84.385449999999977
 31
0.0
  0
LINE
  8
DETAIL
  6
CONTINUOUS
 62
     5
 10
46.307679999999898
 20
84.385449999999977
 30
0.0
 11
46.388864000000012
 21
83.888570000000016
 31
0.0
  0
LINE
  8
DETAIL
  6
CONTINUOUS
 62
     5
 10
46.388864000000012
 20
83.888570000000016
 30
0.0
 11
46.411791999999878
 21
83.510496000000003
 31
0.0
  0
LINE
  8
DETAIL
  6
CONTINUOUS
 62
     5
 10
44.293642999999967
 20
86.499966999999955
 30
0.0
 11
44.40187000000013
 21
86.494321000000014
 31
0.0
  0
LINE
  8
DETAIL
  6
CONTINUOUS
 62
     5
 10
48.628987000000038
 20
86.5
 30
0.0
 11
44.304970000000132
 21
86.5
 31
0.0
  0
LINE
  8
DETAIL
  6
CONTINUOUS
 62
     5
 10
44.526603000000023
 20
86.476800000000026
 30
0.0
 11
44.545106000000033
 21
86.473449000000016
 31
0.0
  0
LINE
  8
DETAIL
  6
CONTINUOUS
 62
     5
 10
44.40187000000013
 20
86.494321000000014
 30
0.0
 11
44.526603000000023
 21
86.476800000000026
 31
0.0
  0
LINE
  8
DETAIL
  6
CONTINUOUS
 62
     5
 10
44.545520000000117
 20
86.473372999999981
 30
0.0
 11
44.784709000000021
 21
86.409485000000032
 31
0.0
  0
LINE
  8
DETAIL
  6
CONTINUOUS
 62
     5
 10
44.784709000000021
 20
86.409485000000032
 30
0.0
 11
45.125309000000023
 21
86.246756000000005
 31
0.0
  0
LINE
  8
DETAIL
  6
CONTINUOUS
 62
     5
 10
42.072341000000037
 20
86.5
 30
0.0
 11
44.29349000000002
 21
86.5
 31
0.0
  0
LINE
  8
DETAIL
  6
CONTINUOUS
 62
     5
 10
41.766250000000127
 20
86.469743999999977
 30
0.0
 11
42.072186999999992
 21
86.499990000000025
 31
0.0
  0
LINE
  8
DETAIL
  6
CONTINUOUS
 62
     5
 10
41.431037999999937
 20
86.364738999999986
 30
0.0
 11
41.766250000000127
 21
86.469743999999977
 31
0.0
  0
LINE
  8
DETAIL
  6
CONTINUOUS
 62
     5
 10
40.809267000000098
 20
85.931036000000006
 30
0.0
 11
41.108273000000047
 21
86.184004000000016
 31
0.0
  0
LINE
  8
DETAIL
  6
CONTINUOUS
 62
     5
 10
41.108273000000047
 20
86.184004000000016
 30
0.0
 11
41.431037999999937
 21
86.364738999999986
 31
0.0
  0
LINE
  8
DETAIL
  6
CONTINUOUS
 62
     5
 10
40.31578300000001
 20
85.234323000000032
 30
0.0
 11
40.542832999999973
 21
85.611921999999979
 31
0.0
  0
LINE
  8
DETAIL
  6
CONTINUOUS
 62
     5
 10
40.542832999999973
 20
85.611921999999979
 30
0.0
 11
40.809267000000098
 21
85.931036000000006
 31
0.0
  0
LINE
  8
DETAIL
  6
CONTINUOUS
 62
     5
 10
40.003561999999867
 20
84.350095000000024
 30
0.0
 11
40.134399999999907
 21
84.809043999999972
 31
0.0
  0
LINE
  8
DETAIL
  6
CONTINUOUS
 62
     5
 10
39.9023830000001
 20
83.513885000000016
 30
0.0
 11
39.925813999999953
 21
83.873307000000025
 31
0.0
  0
LINE
  8
DETAIL
  6
CONTINUOUS
 62
     5
 10
39.925813999999953
 20
83.873307000000025
 30
0.0
 11
40.003561999999867
 21
84.350095000000024
 31
0.0
  0
LINE
  8
DETAIL
  6
CONTINUOUS
 62
     5
 10
40.134399999999907
 20
84.809043999999972
 30
0.0
 11
40.31578300000001
 21
85.234323000000032
 31
0.0
  0
LINE
  8
DETAIL
  6
CONTINUOUS
 62
     5
 10
39.902374000000009
 20
83.513885000000016
 30
0.0
 11
39.202285999999972
 21
55.0
 31
0.0
  0
LINE
  8
SIZE
  6
CONTINUOUS
 62
    30
 10
-71.0
 20
75.0
 30
0.0
 11
-71.0
 21
398.27636699999988
 31
0.0
  0
LINE
  8
SIZE
  6
CONTINUOUS
 62
    30
 10
71.0
 20
75.0
 30
0.0
 11
71.0
 21
398.27636699999988
 31
0.0
  0
LINE
  8
SIZE
  6
CONTINUOUS
 62
    30
 10
59.0
 20
378.27636699999988
 30
0.0
 11
-59.0
 21
378.27636699999988
 31
0.0
  0
LINE
  8
SIZE
  6
CONTINUOUS
 62
    30
 10
-71.0
 20
378.27636699999988
 30
0.0
 11
-322.25714299999999
 21
378.27636699999988
 31
0.0
  0
CIRCLE
  8
SIZE
  6
CONTINUOUS
 62
    30
 10
71.0
 20
378.27636699999988
 30
0.0
 40
6.0
  0
LINE
  8
SIZE
  6
CONTINUOUS
 62
    30
 10
71.0
 20
378.27636699999988
 30
0.0
 11
59.0
 21
378.27636699999988
 31
0.0
  0
CIRCLE
  8
SIZE
  6
CONTINUOUS
 62
    30
 10
-71.0
 20
378.27636699999988
 30
0.0
 40
6.0
  0
LINE
  8
SIZE
  6
CONTINUOUS
 62
    30
 10
-71.0
 20
378.27636699999988
 30
0.0
 11
-59.0
 21
378.27636699999988
 31
0.0
  0
TEXT
  8
SIZE
  6
CONTINUOUS
 62
    30
 10
-328.70973260682342
 20
413.85134480047549
 30
0.0
 40
64.0
  1
φ142
 41
0.9
 72
     1
 11
-219.8183040353949
 21
413.85134480047549
 31
0.0
  0
POINT
  8
DEFPOINTS
  6
CONTINUOUS
 62
    30
 10
-71.0
 20
55.0
 30
0.0
  0
POINT
  8
DEFPOINTS
  6
CONTINUOUS
 62
    30
 10
71.0
 20
55.0
 30
0.0
  0
POINT
  8
DEFPOINTS
  6
CONTINUOUS
 62
    30
 10
71.0
 20
378.27636699999988
 30
0.0
  0
LINE
  8
NOTE
  6
CONTINUOUS
 62
     4
 10
-105.0
 20
-20.0
 30
0.0
 11
-105.0
 21
20.0
 31
0.0
  0
LINE
  8
NOTE
  6
CONTINUOUS
 62
     4
 10
-125.0
 20
0.0
 30
0.0
 11
-85.0
 21
0.0
 31
0.0
  0
LINE
  8
NOTE
  6
CONTINUOUS
 62
     4
 10
105.0
 20
-20.0
 30
0.0
 11
105.0
 21
20.0
 31
0.0
  0
LINE
  8
NOTE
  6
CONTINUOUS
 62
     4
 10
85.0
 20
0.0
 30
0.0
 11
125.0
 21
0.0
 31
0.0
  0
LINE
  8
SIZE
  6
CONTINUOUS
 62
    30
 10
-105.0
 20
40.0
 30
0.0
 11
-105.0
 21
526.25358700000004
 31
0.0
  0
LINE
  8
SIZE
  6
CONTINUOUS
 62
    30
 10
105.0
 20
40.0
 30
0.0
 11
105.0
 21
526.25358700000004
 31
0.0
  0
LINE
  8
SIZE
  6
CONTINUOUS
 62
    30
 10
-93.0
 20
506.25358699999998
 30
0.0
 11
93.0
 21
506.25358699999998
 31
0.0
  0
CIRCLE
  8
SIZE
  6
CONTINUOUS
 62
    30
 10
-105.0
 20
506.25358699999998
 30
0.0
 40
6.0
  0
LINE
  8
SIZE
  6
CONTINUOUS
 62
    30
 10
-105.0
 20
506.25358699999998
 30
0.0
 11
-93.0
 21
506.25358699999998
 31
0.0
  0
CIRCLE
  8
SIZE
  6
CONTINUOUS
 62
    30
 10
105.0
 20
506.25358699999998
 30
0.0
 40
6.0
  0
LINE
  8
SIZE
  6
CONTINUOUS
 62
    30
 10
105.0
 20
506.25358699999998
 30
0.0
 11
93.0
 21
506.25358699999998
 31
0.0
  0
TEXT
  8
SIZE
  6
CONTINUOUS
 62
    30
 10
-68.571428571428555
 20
531.25358700000004
 30
0.0
 40
64.0
  1
210
 41
0.9
 72
     1
 11
0.0
 21
531.25358700000004
 31
0.0
  0
POINT
  8
DEFPOINTS
  6
CONTINUOUS
 62
    30
 10
-105.0
 20
20.0
 30
0.0
  0
POINT
  8
DEFPOINTS
  6
CONTINUOUS
 62
    30
 10
105.0
 20
20.0
 30
0.0
  0
POINT
  8
DEFPOINTS
  6
CONTINUOUS
 62
    30
 10
105.0
 20
506.25358699999998
 30
0.0
  0
LINE
  8
SIZE
  6
CONTINUOUS
 62
    30
 10
-67.265507999999954
 20
86.5
 30
0.0
 11
-400.88717241745292
 21
86.5
 31
0.0
  0
LINE
  8
SIZE
  6
CONTINUOUS
 62
    30
 10
-133.2483280000001
 20
0.0
 30
0.0
 11
-400.88717241745292
 21
0.0
 31
0.0
  0
LINE
  8
SIZE
  6
CONTINUOUS
 62
    30
 10
-380.88717241745292
 20
12.0
 30
0.0
 11
-380.88717241745292
 21
74.5
 31
0.0
  0
LINE
  8
SIZE
  6
CONTINUOUS
 62
    30
 10
-380.88717241745292
 20
86.5
 30
0.0
 11
-380.88717241745292
 21
324.04285699999991
 31
0.0
  0
CIRCLE
  8
SIZE
  6
CONTINUOUS
 62
    30
 10
-380.88717241745292
 20
0.0
 30
0.0
 40
6.0
  0
LINE
  8
SIZE
  6
CONTINUOUS
 62
    30
 10
-380.88717241745292
 20
0.0
 30
0.0
 11
-380.88717241745292
 21
12.0
 31
0.0
  0
CIRCLE
  8
SIZE
  6
CONTINUOUS
 62
    30
 10
-380.88717241745292
 20
86.5
 30
0.0
 40
6.0
  0
LINE
  8
SIZE
  6
CONTINUOUS
 62
    30
 10
-380.88717241745292
 20
86.5
 30
0.0
 11
-380.88717241745292
 21
74.5
 31
0.0
  0
TEXT
  8
SIZE
  6
CONTINUOUS
 62
    30
 10
-405.88717241745292
 20
123.5000004285714
 30
0.0
 40
64.0
  1
86.5
 50
90.0
 41
0.9
 72
     1
 11
-405.88717241745292
 21
211.27142900000001
 31
0.0
  0
POINT
  8
DEFPOINTS
  6
CONTINUOUS
 62
    30
 10
-47.265507999999933
 20
86.5
 30
0.0
  0
POINT
  8
DEFPOINTS
  6
CONTINUOUS
 62
    30
 10
-113.2483280000001
 20
0.0
 30
0.0
  0
POINT
  8
DEFPOINTS
  6
CONTINUOUS
 62
    30
 10
-380.88717241745292
 20
0.0
 30
0.0
  0
TEXT
  8
NOTE
  6
CONTINUOUS
 62
     4
 10
253.27220705191391
 20
119.4609269610751
 30
0.0
 40
64.0
  1
2-φ4×10
 41
0.9
  0
LINE
  8
NOTE
  6
CONTINUOUS
 62
     4
 10
243.30223100000009
 20
89.984348000000026
 30
0.0
 11
658.84392169638647
 21
89.984348000000026
 31
0.0
  0
LINE
  8
NOTE
  6
CONTINUOUS
 62
     4
 10
132.07801599999991
 20
29.441146
 30
0.0
 11
105.0
 21
0.0
 31
0.0
  0
LINE
  8
NOTE
  6
CONTINUOUS
 62
     4
 10
105.0
 20
0.0
 30
0.0
 11
143.1708229999999
 21
11.957771999999981
 31
0.0
  0
LINE
  8
NOTE
  6
CONTINUOUS
 62
     4
 10
105.0
 20
0.0
 30
0.0
 11
243.30223100000009
 21
89.984348000000026
 31
0.0
  0
LINE
  8
OUTLINE
  6
CONTINUOUS
 62
     3
 10
71.0
 20
0.0
 30
0.0
 11
71.0
 21
55.0
 31
0.0
  0
LINE
  8
OUTLINE
  6
CONTINUOUS
 62
     3
 10
71.0
 20
55.0
 30
0.0
 11
-71.0
 21
55.0
 31
0.0
  0
LINE
  8
OUTLINE
  6
CONTINUOUS
 62
     3
 10
-71.0
 20
55.0
 30
0.0
 11
-71.0
 21
0.0
 31
0.0
  0
LINE
  8
OUTLINE
  6
CONTINUOUS
 62
     3
 10
23.0
 20
59.421824000000022
 30
0.0
 11
23.0
 21
80.0
 31
0.0
  0
ARC
  8
OUTLINE
  6
CONTINUOUS
 62
     3
 10
20.0
 20
80.0
 30
0.0
 40
3.0
 50
0.0
 51
90.0
  0
LINE
  8
OUTLINE
  6
CONTINUOUS
 62
     3
 10
20.0
 20
83.0
 30
0.0
 11
-20.0
 21
83.0
 31
0.0
  0
LINE
  8
OUTLINE
  6
CONTINUOUS
 62
     3
 10
-23.0
 20
80.0
 30
0.0
 11
-23.0
 21
59.421824000000022
 31
0.0
  0
ARC
  8
OUTLINE
  6
CONTINUOUS
 62
     3
 10
-20.0
 20
80.0
 30
0.0
 40
3.0
 50
90.0
 51
180.0
  0
LINE
  8
OUTLINE
  6
CONTINUOUS
 62
     3
 10
93.999996999999865
 20
-58.0
 30
0.0
 11
-93.999996999999865
 21
-58.0
 31
0.0
  0
LINE
  8
OUTLINE
  6
CONTINUOUS
 62
     3
 10
113.480423
 20
-51.71123799999998
 30
0.0
 11
108.879019
 21
-53.706729999999993
 31
0.0
  0
LINE
  8
OUTLINE
  6
CONTINUOUS
 62
     3
 10
108.879019
 20
-53.706729999999993
 30
0.0
 11
103.976754
 21
-55.470106999999977
 31
0.0
  0
LINE
  8
OUTLINE
  6
CONTINUOUS
 62
     3
 10
103.976754
 20
-55.470106999999977
 30
0.0
 11
98.971191000000076
 21
-56.910253000000012
 31
0.0
  0
LINE
  8
OUTLINE
  6
CONTINUOUS
 62
     3
 10
98.971191000000076
 20
-56.910253000000012
 30
0.0
 11
93.999995999999996
 21
-58.0
 31
0.0
  0
ARC
  8
OUTLINE
  6
CONTINUOUS
 62
     3
 10
112.584603
 20
-49.937127000000032
 30
0.0
 40
1.9874510000000001
 50
296.79106999999613
 51
355.32066800000251
  0
LINE
  8
OUTLINE
  6
CONTINUOUS
 62
     3
 10
114.99999800000001
 20
-0.3026179999999954
 30
0.0
 11
114.5654340000001
 21
-50.098907999999987
 31
0.0
  0
ARC
  8
OUTLINE
  6
CONTINUOUS
 62
     3
 10
114.7
 20
-0.3000000000000114
 30
0.0
 40
0.3
 50
359.50001599999842
 51
90.0
  0
LINE
  8
OUTLINE
  6
CONTINUOUS
 62
     3
 10
-114.7
 20
0.0
 30
0.0
 11
114.7
 21
0.0
 31
0.0
  0
LINE
  8
OUTLINE
  6
CONTINUOUS
 62
     3
 10
-93.999995999999996
 20
-58.0
 30
0.0
 11
-98.971191000000076
 21
-56.910253000000012
 31
0.0
  0
LINE
  8
OUTLINE
  6
CONTINUOUS
 62
     3
 10
-98.971191000000076
 20
-56.910253000000012
 30
0.0
 11
-103.976754
 21
-55.470106999999977
 31
0.0
  0
LINE
  8
OUTLINE
  6
CONTINUOUS
 62
     3
 10
-103.976754
 20
-55.470106999999977
 30
0.0
 11
-108.879019
 21
-53.706729999999993
 31
0.0
  0
LINE
  8
OUTLINE
  6
CONTINUOUS
 62
     3
 10
-108.879019
 20
-53.706729999999993
 30
0.0
 11
-113.480423
 21
-51.71123799999998
 31
0.0
  0
ARC
  8
OUTLINE
  6
CONTINUOUS
 62
     3
 10
-112.712863
 20
-50.083095000000007
 30
0.0
 40
1.8
 50
180.50000000000131
 51
244.75926800000781
  0
LINE
  8
OUTLINE
  6
CONTINUOUS
 62
     3
 10
-114.9999889999999
 20
-0.3026179999999954
 30
0.0
 11
-114.512794
 21
-50.098913000000039
 31
0.0
  0
ARC
  8
OUTLINE
  6
CONTINUOUS
 62
     3
 10
-114.7
 20
-0.3000000000000114
 30
0.0
 40
0.3
 50
90.0
 51
180.50000000000131
  0
LINE
  8
OUTLINE
  6
CONTINUOUS
 62
     3
 10
26.509825000000092
 20
55.0
 30
0.0
 11
26.509825000000092
 21
57.209607000000013
 31
0.0
  0
ARC
  8
OUTLINE
  6
CONTINUOUS
 62
     3
 10
26.158298000000048
 20
58.14693299999999
 30
0.0
 40
1.104803
 50
0.0
 51
74.016410000006061
  0
LINE
  8
OUTLINE
  6
CONTINUOUS
 62
     3
 10
27.263100000000119
 20
57.209607000000013
 30
0.0
 11
27.263100000000119
 21
58.14693299999999
 31
0.0
  0
LINE
  8
OUTLINE
  6
CONTINUOUS
 62
     3
 10
26.86707500000011
 20
59.081119999999999
 30
0.0
 11
26.86707500000011
 21
59.081498000000011
 31
0.0
  0
LINE
  8
OUTLINE
  6
CONTINUOUS
 62
     3
 10
27.263100000000119
 20
57.209607000000013
 30
0.0
 11
21.236899999999881
 21
57.209607000000013
 31
0.0
  0
ARC
  8
OUTLINE
  6
CONTINUOUS
 62
     3
 10
24.25
 20
51.484715999999992
 30
0.0
 40
8.0349339999999998
 50
74.016410000006061
 51
98.949894000004633
  0
LINE
  8
OUTLINE
  6
CONTINUOUS
 62
     3
 10
22.54257600000005
 20
55.0
 30
0.0
 11
31.398381999999859
 21
55.0
 31
0.0
  0
LINE
  8
OUTLINE
  6
CONTINUOUS
 62
     3
 10
-26.509825000000092
 20
55.0
 30
0.0
 11
-26.509825000000092
 21
57.209607000000013
 31
0.0
  0
ARC
  8
OUTLINE
  6
CONTINUOUS
 62
     3
 10
-26.158298000000048
 20
58.14693299999999
 30
0.0
 40
1.104803
 50
105.9836079999959
 51
180.0
  0
LINE
  8
OUTLINE
  6
CONTINUOUS
 62
     3
 10
-27.263100000000119
 20
57.209607000000013
 30
0.0
 11
-27.263100000000119
 21
58.14693299999999
 31
0.0
  0
LINE
  8
OUTLINE
  6
CONTINUOUS
 62
     3
 10
-21.236899999999881
 20
57.209607000000013
 30
0.0
 11
-27.263100000000119
 21
57.209607000000013
 31
0.0
  0
ARC
  8
OUTLINE
  6
CONTINUOUS
 62
     3
 10
-24.25
 20
51.484715999999992
 30
0.0
 40
8.0349339999999998
 50
81.050105999995353
 51
105.9836079999959
  0
LINE
  8
OUTLINE
  6
CONTINUOUS
 62
     3
 10
-25.95742399999995
 20
55.0
 30
0.0
 11
-17.101618000000141
 21
55.0
 31
0.0
  0
LINE
  8
OUTLINE
  6
CONTINUOUS
 62
     3
 10
-21.236899999999881
 20
57.209607000000013
 30
0.0
 11
21.236899999999881
 21
57.209607000000013
 31
0.0
  0
POINT
  8
ARRANGE
  6
CONTINUOUS
 62
     1
 10
0.0
 20
0.0
 30
0.0
  0
LINE
  8
NOTE
  6
CONTINUOUS
 62
     4
 10
88.0
 20
-20.0
 30
0.0
 11
88.0
 21
20.0
 31
0.0
  0
LINE
  8
NOTE
  6
CONTINUOUS
 62
     4
 10
68.0
 20
0.0
 30
0.0
 11
108.0
 21
0.0
 31
0.0
  0
LINE
  8
NOTE
  6
CONTINUOUS
 62
     4
 10
103.219801
 20
36.991317999999978
 30
0.0
 11
88.0
 21
0.0
 31
0.0
  0
LINE
  8
NOTE
  6
CONTINUOUS
 62
     4
 10
88.0
 20
0.0
 30
0.0
 11
119.6763940000001
 21
24.425520000000009
 31
0.0
  0
TEXT
  8
NOTE
  6
CONTINUOUS
 62
     4
 10
248.36871943920119
 20
235.68318979603831
 30
0.0
 40
64.0
  1
EL
 41
0.9
  0
LINE
  8
NOTE
  6
CONTINUOUS
 62
     4
 10
247.04783843920131
 20
219.8416537960384
 30
0.0
 11
348.75584543920132
 21
219.8416537960384
 31
0.0
  0
LINE
  8
NOTE
  6
CONTINUOUS
 62
     4
 10
247.04783843920131
 20
219.8416537960384
 30
0.0
 11
88.0
 21
0.0
 31
0.0
  0
LINE
  8
DETAIL
  6
CONTINUOUS
 62
     5
 10
-3.543998000000101
 20
86.496486000000004
 30
0.0
 11
-3.4829260000001341
 21
86.5
 31
0.0
  0
LINE
  8
DETAIL
  6
CONTINUOUS
 62
     5
 10
-3.6052660000000292
 20
86.485807000000023
 30
0.0
 11
-3.543998000000101
 21
86.496486000000004
 31
0.0
  0
LINE
  8
DETAIL
  6
CONTINUOUS
 62
     5
 10
-3.6651139999999032
 20
86.468097999999998
 30
0.0
 11
-3.6052660000000292
 21
86.485807000000023
 31
0.0
  0
LINE
  8
DETAIL
  6
CONTINUOUS
 62
     5
 10
-3.7212009999998368
 20
86.444329000000039
 30
0.0
 11
-3.6651139999999032
 21
86.468097999999998
 31
0.0
  0
LINE
  8
DETAIL
  6
CONTINUOUS
 62
     5
 10
-3.771384000000126
 20
86.416290000000004
 30
0.0
 11
-3.7212009999998368
 21
86.444329000000039
 31
0.0
  0
LINE
  8
DETAIL
  6
CONTINUOUS
 62
     5
 10
-3.8141049999999268
 20
86.386380000000045
 30
0.0
 11
-3.771384000000126
 21
86.416290000000004
 31
0.0
  0
LINE
  8
DETAIL
  6
CONTINUOUS
 62
     5
 10
-3.849015000000009
 20
86.356848000000014
 30
0.0
 11
-3.8141049999999268
 21
86.386380000000045
 31
0.0
  0
LINE
  8
DETAIL
  6
CONTINUOUS
 62
     5
 10
-3.877066000000013
 20
86.328953000000013
 30
0.0
 11
-3.849015000000009
 21
86.356848000000014
 31
0.0
  0
LINE
  8
DETAIL
  6
CONTINUOUS
 62
     5
 10
-3.8997730000000961
 20
86.302931999999998
 30
0.0
 11
-3.877066000000013
 21
86.328953000000013
 31
0.0
  0
LINE
  8
DETAIL
  6
CONTINUOUS
 62
     5
 10
-3.9184239999999591
 20
86.278630000000021
 30
0.0
 11
-3.8997730000000961
 21
86.302931999999998
 31
0.0
  0
LINE
  8
DETAIL
  6
CONTINUOUS
 62
     5
 10
-3.9339129999998481
 20
86.255887000000044
 30
0.0
 11
-3.9184239999999591
 21
86.278630000000021
 31
0.0
  0
LINE
  8
DETAIL
  6
CONTINUOUS
 62
     5
 10
-3.946885999999949
 20
86.234548000000032
 30
0.0
 11
-3.9339129999998481
 21
86.255887000000044
 31
0.0
  0
LINE
  8
DETAIL
  6
CONTINUOUS
 62
     5
 10
-3.9577759999999671
 20
86.214562999999998
 30
0.0
 11
-3.946885999999949
 21
86.234548000000032
 31
0.0
  0
LINE
  8
DETAIL
  6
CONTINUOUS
 62
     5
 10
-3.9668980000001279
 20
86.195948999999985
 30
0.0
 11
-3.9577759999999671
 21
86.214562999999998
 31
0.0
  0
LINE
  8
DETAIL
  6
CONTINUOUS
 62
     5
 10
-3.9695139999998901
 20
86.188987999999981
 30
0.0
 11
-3.968781000000035
 21
86.190989999999999
 31
0.0
  0
LINE
  8
DETAIL
  6
CONTINUOUS
 62
     5
 10
-3.9920160000001488
 20
86.106056000000024
 30
0.0
 11
-4.0
 21
86.017226999999977
 31
0.0
  0
LINE
  8
DETAIL
  6
CONTINUOUS
 62
     5
 10
-3.9668980000001279
 20
86.195948999999985
 30
0.0
 11
-3.9920160000001488
 21
86.106056000000024
 31
0.0
  0
LINE
  8
DETAIL
  6
CONTINUOUS
 62
     5
 10
3.9964159999999538
 20
83.0
 30
0.0
 11
3.9960249999999178
 21
86.061546000000021
 31
0.0
  0
LINE
  8
DETAIL
  6
CONTINUOUS
 62
     5
 10
-4.0
 20
86.017226999999977
 30
0.0
 11
-4.0
 21
83.0
 31
0.0
  0
LINE
  8
DETAIL
  6
CONTINUOUS
 62
     5
 10
3.9920499999998369
 20
86.10586499999998
 30
0.0
 11
3.9668970000000172
 21
86.195948999999985
 31
0.0
  0
LINE
  8
DETAIL
  6
CONTINUOUS
 62
     5
 10
4.0
 20
86.017226999999977
 30
0.0
 11
3.9920499999998369
 21
86.10586499999998
 31
0.0
  0
LINE
  8
DETAIL
  6
CONTINUOUS
 62
     5
 10
3.9673480000001291
 20
86.194975999999983
 30
0.0
 11
3.9666979999999512
 21
86.196822999999981
 31
0.0
  0
LINE
  8
DETAIL
  6
CONTINUOUS
 62
     5
 10
3.9568730000000869
 20
86.216305000000034
 30
0.0
 11
3.9668970000000172
 21
86.195948999999985
 31
0.0
  0
LINE
  8
DETAIL
  6
CONTINUOUS
 62
     5
 10
3.9444680000001431
 20
86.23870799999996
 30
0.0
 11
3.9568730000000869
 21
86.216305000000034
 31
0.0
  0
LINE
  8
DETAIL
  6
CONTINUOUS
 62
     5
 10
3.9290639999999271
 20
86.263293999999959
 30
0.0
 11
3.9444680000001431
 21
86.23870799999996
 31
0.0
  0
LINE
  8
DETAIL
  6
CONTINUOUS
 62
     5
 10
3.909916000000067
 20
86.290087999999983
 30
0.0
 11
3.9290639999999271
 21
86.263293999999959
 31
0.0
  0
LINE
  8
DETAIL
  6
CONTINUOUS
 62
     5
 10
3.8861019999999371
 20
86.319011000000003
 30
0.0
 11
3.909916000000067
 21
86.290087999999983
 31
0.0
  0
LINE
  8
DETAIL
  6
CONTINUOUS
 62
     5
 10
3.856342000000041
 20
86.349957000000032
 30
0.0
 11
3.8861019999999371
 21
86.319011000000003
 31
0.0
  0
LINE
  8
DETAIL
  6
CONTINUOUS
 62
     5
 10
3.819081000000097
 20
86.382473000000005
 30
0.0
 11
3.856342000000041
 21
86.349957000000032
 31
0.0
  0
LINE
  8
DETAIL
  6
CONTINUOUS
 62
     5
 10
3.7735179999999668
 20
86.414935000000014
 30
0.0
 11
3.819081000000097
 21
86.382473000000005
 31
0.0
  0
LINE
  8
DETAIL
  6
CONTINUOUS
 62
     5
 10
3.720859000000019
 20
86.444498000000024
 30
0.0
 11
3.7735179999999668
 21
86.414935000000014
 31
0.0
  0
LINE
  8
DETAIL
  6
CONTINUOUS
 62
     5
 10
3.6640179999999418
 20
86.468493000000024
 30
0.0
 11
3.720859000000019
 21
86.444498000000024
 31
0.0
  0
LINE
  8
DETAIL
  6
CONTINUOUS
 62
     5
 10
3.605105000000095
 20
86.485843999999986
 30
0.0
 11
3.6640179999999418
 21
86.468493000000024
 31
0.0
  0
LINE
  8
DETAIL
  6
CONTINUOUS
 62
     5
 10
3.544479000000138
 20
86.496428000000037
 30
0.0
 11
3.605105000000095
 21
86.485843999999986
 31
0.0
  0
LINE
  8
DETAIL
  6
CONTINUOUS
 62
     5
 10
3.4829260000001341
 20
86.500001999999981
 30
0.0
 11
3.544479000000138
 21
86.496428000000037
 31
0.0
  0
LINE
  8
DETAIL
  6
CONTINUOUS
 62
     5
 10
-3.4829260000001341
 20
86.500000999999983
 30
0.0
 11
3.4829260000001341
 21
86.500001999999981
 31
0.0
  0
LINE
  8
DETAIL
  6
CONTINUOUS
 62
     5
 10
-1.60000100000002
 20
86.500000999999983
 30
0.0
 11
-1.60000100000002
 21
83.0
 31
0.0
  0
LINE
  8
DETAIL
  6
CONTINUOUS
 62
     5
 10
1.599999000000025
 20
86.500000999999983
 30
0.0
 11
1.599999000000025
 21
83.0
 31
0.0
  0
LINE
  8
OUTLINE
  6
CONTINUOUS
 62
     3
 10
-49.274163000000037
 20
86.362996000000024
 30
0.0
 11
-49.59701399999993
 21
86.181139000000044
 31
0.0
  0
LINE
  8
OUTLINE
  6
CONTINUOUS
 62
     3
 10
-49.59701399999993
 20
86.181139000000044
 30
0.0
 11
-49.896012000000162
 21
85.926881999999964
 31
0.0
  0
LINE
  8
OUTLINE
  6
CONTINUOUS
 62
     3
 10
-49.896012000000162
 20
85.926881999999964
 30
0.0
 11
-50.162546999999897
 21
85.605978999999977
 31
0.0
  0
LINE
  8
OUTLINE
  6
CONTINUOUS
 62
     3
 10
-50.162546999999897
 20
85.605978999999977
 30
0.0
 11
-50.389772999999877
 21
85.225684999999999
 31
0.0
  0
LINE
  8
OUTLINE
  6
CONTINUOUS
 62
     3
 10
-50.389772999999877
 20
85.225684999999999
 30
0.0
 11
-50.570890999999847
 21
84.797320000000013
 31
0.0
  0
LINE
  8
OUTLINE
  6
CONTINUOUS
 62
     3
 10
-50.570890999999847
 20
84.797320000000013
 30
0.0
 11
-50.70070399999986
 21
84.336088000000032
 31
0.0
  0
LINE
  8
OUTLINE
  6
CONTINUOUS
 62
     3
 10
-50.70070399999986
 20
84.336088000000032
 30
0.0
 11
-50.776843000000113
 21
83.859167000000014
 31
0.0
  0
LINE
  8
OUTLINE
  6
CONTINUOUS
 62
     3
 10
-50.776843000000113
 20
83.859167000000014
 30
0.0
 11
-50.798802000000023
 21
83.513885000000016
 31
0.0
  0
LINE
  8
OUTLINE
  6
CONTINUOUS
 62
     3
 10
-51.5
 20
55.0
 30
0.0
 11
-50.798808000000008
 21
83.513885000000016
 31
0.0
  0
LINE
  8
OUTLINE
  6
CONTINUOUS
 62
     3
 10
-48.938454999999983
 20
86.469041000000004
 30
0.0
 11
-49.274163000000037
 21
86.362996000000024
 31
0.0
  0
LINE
  8
OUTLINE
  6
CONTINUOUS
 62
     3
 10
-48.628987000000038
 20
86.499989000000042
 30
0.0
 11
-48.938454999999983
 21
86.469041000000004
 31
0.0
  0
LINE
  8
OUTLINE
  6
CONTINUOUS
 62
     3
 10
-48.628987000000038
 20
86.5
 30
0.0
 11
-44.304970000000132
 21
86.5
 31
0.0
  0
LINE
  8
OUTLINE
  6
CONTINUOUS
 62
     3
 10
-42.072341000000037
 20
86.5
 30
0.0
 11
-44.29349000000002
 21
86.5
 31
0.0
  0
LINE
  8
OUTLINE
  6
CONTINUOUS
 62
     3
 10
-41.766250000000127
 20
86.469743999999977
 30
0.0
 11
-42.072186999999992
 21
86.499990000000025
 31
0.0
  0
LINE
  8
OUTLINE
  6
CONTINUOUS
 62
     3
 10
-41.431037999999937
 20
86.364738999999986
 30
0.0
 11
-41.766250000000127
 21
86.469743999999977
 31
0.0
  0
LINE
  8
OUTLINE
  6
CONTINUOUS
 62
     3
 10
-40.809267000000098
 20
85.931036000000006
 30
0.0
 11
-41.108273000000047
 21
86.184004000000016
 31
0.0
  0
LINE
  8
OUTLINE
  6
CONTINUOUS
 62
     3
 10
-41.108273000000047
 20
86.184004000000016
 30
0.0
 11
-41.431037999999937
 21
86.364738999999986
 31
0.0
  0
LINE
  8
OUTLINE
  6
CONTINUOUS
 62
     3
 10
-40.31578300000001
 20
85.234323000000032
 30
0.0
 11
-40.542832999999973
 21
85.611921999999979
 31
0.0
  0
LINE
  8
OUTLINE
  6
CONTINUOUS
 62
     3
 10
-40.542832999999973
 20
85.611921999999979
 30
0.0
 11
-40.809267000000098
 21
85.931036000000006
 31
0.0
  0
LINE
  8
OUTLINE
  6
CONTINUOUS
 62
     3
 10
-40.003561999999867
 20
84.350095000000024
 30
0.0
 11
-40.134399999999907
 21
84.809043999999972
 31
0.0
  0
LINE
  8
OUTLINE
  6
CONTINUOUS
 62
     3
 10
-39.9023830000001
 20
83.513885000000016
 30
0.0
 11
-39.925813999999953
 21
83.873307000000025
 31
0.0
  0
LINE
  8
OUTLINE
  6
CONTINUOUS
 62
     3
 10
-39.925813999999953
 20
83.873307000000025
 30
0.0
 11
-40.003561999999867
 21
84.350095000000024
 31
0.0
  0
LINE
  8
OUTLINE
  6
CONTINUOUS
 62
     3
 10
-40.134399999999907
 20
84.809043999999972
 30
0.0
 11
-40.31578300000001
 21
85.234323000000032
 31
0.0
  0
LINE
  8
OUTLINE
  6
CONTINUOUS
 62
     3
 10
-39.902374000000009
 20
83.513885000000016
 30
0.0
 11
-39.202285999999972
 21
55.0
 31
0.0
  0
LINE
  8
OUTLINE
  6
CONTINUOUS
 62
     3
 10
49.274163000000037
 20
86.362996000000024
 30
0.0
 11
49.59701399999993
 21
86.181139000000044
 31
0.0
  0
LINE
  8
OUTLINE
  6
CONTINUOUS
 62
     3
 10
49.59701399999993
 20
86.181139000000044
 30
0.0
 11
49.896012000000162
 21
85.926881999999964
 31
0.0
  0
LINE
  8
OUTLINE
  6
CONTINUOUS
 62
     3
 10
49.896012000000162
 20
85.926881999999964
 30
0.0
 11
50.162546999999897
 21
85.605978999999977
 31
0.0
  0
LINE
  8
OUTLINE
  6
CONTINUOUS
 62
     3
 10
50.162546999999897
 20
85.605978999999977
 30
0.0
 11
50.389772999999877
 21
85.225684999999999
 31
0.0
  0
LINE
  8
OUTLINE
  6
CONTINUOUS
 62
     3
 10
50.389772999999877
 20
85.225684999999999
 30
0.0
 11
50.570890999999847
 21
84.797320000000013
 31
0.0
  0
LINE
  8
OUTLINE
  6
CONTINUOUS
 62
     3
 10
50.570890999999847
 20
84.797320000000013
 30
0.0
 11
50.70070399999986
 21
84.336088000000032
 31
0.0
  0
LINE
  8
OUTLINE
  6
CONTINUOUS
 62
     3
 10
50.70070399999986
 20
84.336088000000032
 30
0.0
 11
50.776843000000113
 21
83.859167000000014
 31
0.0
  0
LINE
  8
OUTLINE
  6
CONTINUOUS
 62
     3
 10
50.776843000000113
 20
83.859167000000014
 30
0.0
 11
50.798802000000023
 21
83.513885000000016
 31
0.0
  0
LINE
  8
OUTLINE
  6
CONTINUOUS
 62
     3
 10
51.5
 20
55.0
 30
0.0
 11
50.798808000000008
 21
83.513885000000016
 31
0.0
  0
LINE
  8
OUTLINE
  6
CONTINUOUS
 62
     3
 10
48.938454999999983
 20
86.469041000000004
 30
0.0
 11
49.274163000000037
 21
86.362996000000024
 31
0.0
  0
LINE
  8
OUTLINE
  6
CONTINUOUS
 62
     3
 10
48.628987000000038
 20
86.499989000000042
 30
0.0
 11
48.938454999999983
 21
86.469041000000004
 31
0.0
  0
LINE
  8
OUTLINE
  6
CONTINUOUS
 62
     3
 10
48.628987000000038
 20
86.5
 30
0.0
 11
44.304970000000132
 21
86.5
 31
0.0
  0
LINE
  8
OUTLINE
  6
CONTINUOUS
 62
     3
 10
42.072341000000037
 20
86.5
 30
0.0
 11
44.29349000000002
 21
86.5
 31
0.0
  0
LINE
  8
OUTLINE
  6
CONTINUOUS
 62
     3
 10
41.766250000000127
 20
86.469743999999977
 30
0.0
 11
42.072186999999992
 21
86.499990000000025
 31
0.0
  0
LINE
  8
OUTLINE
  6
CONTINUOUS
 62
     3
 10
41.431037999999937
 20
86.364738999999986
 30
0.0
 11
41.766250000000127
 21
86.469743999999977
 31
0.0
  0
LINE
  8
OUTLINE
  6
CONTINUOUS
 62
     3
 10
40.809267000000098
 20
85.931036000000006
 30
0.0
 11
41.108273000000047
 21
86.184004000000016
 31
0.0
  0
LINE
  8
OUTLINE
  6
CONTINUOUS
 62
     3
 10
41.108273000000047
 20
86.184004000000016
 30
0.0
 11
41.431037999999937
 21
86.364738999999986
 31
0.0
  0
LINE
  8
OUTLINE
  6
CONTINUOUS
 62
     3
 10
40.31578300000001
 20
85.234323000000032
 30
0.0
 11
40.542832999999973
 21
85.611921999999979
 31
0.0
  0
LINE
  8
OUTLINE
  6
CONTINUOUS
 62
     3
 10
40.542832999999973
 20
85.611921999999979
 30
0.0
 11
40.809267000000098
 21
85.931036000000006
 31
0.0
  0
LINE
  8
OUTLINE
  6
CONTINUOUS
 62
     3
 10
40.003561999999867
 20
84.350095000000024
 30
0.0
 11
40.134399999999907
 21
84.809043999999972
 31
0.0
  0
LINE
  8
OUTLINE
  6
CONTINUOUS
 62
     3
 10
39.9023830000001
 20
83.513885000000016
 30
0.0
 11
39.925813999999953
 21
83.873307000000025
 31
0.0
  0
LINE
  8
OUTLINE
  6
CONTINUOUS
 62
     3
 10
39.925813999999953
 20
83.873307000000025
 30
0.0
 11
40.003561999999867
 21
84.350095000000024
 31
0.0
  0
LINE
  8
OUTLINE
  6
CONTINUOUS
 62
     3
 10
40.134399999999907
 20
84.809043999999972
 30
0.0
 11
40.31578300000001
 21
85.234323000000032
 31
0.0
  0
LINE
  8
OUTLINE
  6
CONTINUOUS
 62
     3
 10
39.902374000000009
 20
83.513885000000016
 30
0.0
 11
39.202285999999972
 21
55.0
 31
0.0
  0
LINE
  8
SIZE
  6
CONTINUOUS
 62
    30
 10
-114.9999889999999
 20
19.697382000000001
 30
0.0
 11
-114.9999889999999
 21
661.37616702032938
 31
0.0
  0
LINE
  8
SIZE
  6
CONTINUOUS
 62
    30
 10
114.99999800000001
 20
19.697382000000001
 30
0.0
 11
114.99999800000001
 21
661.37616702032938
 31
0.0
  0
LINE
  8
SIZE
  6
CONTINUOUS
 62
    30
 10
-102.9999889999999
 20
641.37616702032938
 30
0.0
 11
102.99999800000001
 21
641.37616702032938
 31
0.0
  0
CIRCLE
  8
SIZE
  6
CONTINUOUS
 62
    30
 10
-114.9999889999999
 20
641.37616702032938
 30
0.0
 40
6.0
  0
LINE
  8
SIZE
  6
CONTINUOUS
 62
    30
 10
-114.9999889999999
 20
641.37616702032938
 30
0.0
 11
-102.9999889999999
 21
641.37616702032938
 31
0.0
  0
CIRCLE
  8
SIZE
  6
CONTINUOUS
 62
    30
 10
114.99999800000001
 20
641.37616702032938
 30
0.0
 40
6.0
  0
LINE
  8
SIZE
  6
CONTINUOUS
 62
    30
 10
114.99999800000001
 20
641.37616702032938
 30
0.0
 11
102.99999800000001
 21
641.37616702032938
 31
0.0
  0
TEXT
  8
SIZE
  6
CONTINUOUS
 62
    30
 10
-74.057138357142776
 20
666.37616702032938
 30
0.0
 40
64.0
  1
230
 41
0.9
 72
     1
 11
0.0000045000000881
 21
666.37616702032938
 31
0.0
  0
POINT
  8
DEFPOINTS
  6
CONTINUOUS
 62
    30
 10
-114.9999889999999
 20
-0.3026179999999954
 30
0.0
  0
POINT
  8
DEFPOINTS
  6
CONTINUOUS
 62
    30
 10
114.99999800000001
 20
-0.3026179999999954
 30
0.0
  0
POINT
  8
DEFPOINTS
  6
CONTINUOUS
 62
    30
 10
114.99999800000001
 20
641.37616702032938
 30
0.0
  0
ENDSEC
  0
EOF
