  0
SECTION
  2
HEADER
  9
$ACADVER
  1
AC1009
  9
$DWGCODEPAGE
  3
dos932
  9
$INSBASE
 10
0.0
 20
0.0
 30
0.0
  9
$EXTMIN
 10
-340.34269551088067
 20
-431.30491991912089
 30
-0.0015257624927045
  9
$EXTMAX
 10
1027.372753267842
 20
520.70618469815963
 30
0.0022888765696933
  9
$LIMMIN
 10
-2970.0
 20
-2100.0
  9
$LIMMAX
 10
2970.0
 20
2100.0
  9
$ORTHOMODE
 70
     1
  9
$REGENMODE
 70
     1
  9
$FILLMODE
 70
     1
  9
$QTEXTMODE
 70
     0
  9
$MIRRTEXT
 70
     0
  9
$LTSCALE
 40
20.0
  9
$ATTMODE
 70
     1
  9
$TEXTSIZE
 40
64.0
  9
$TRACEWID
 40
0.05
  9
$TEXTSTYLE
  7
STANDARD
  9
$CLAYER
  8
SIZE
  9
$CELTYPE
  6
CONTINUOUS
  9
$CECOLOR
 62
     7
  9
$DIMSCALE
 40
1.0
  9
$DIMASZ
 40
12.0
  9
$DIMEXO
 40
20.0
  9
$DIMDLI
 40
200.0
  9
$DIMRND
 40
0.0
  9
$DIMDLE
 40
0.0
  9
$DIMEXE
 40
20.0
  9
$DIMTP
 40
0.0
  9
$DIMTM
 40
0.0
  9
$DIMTXT
 40
64.0
  9
$DIMCEN
 40
0.09
  9
$DIMTSZ
 40
0.0
  9
$DIMTOL
 70
     0
  9
$DIMLIM
 70
     0
  9
$DIMTIH
 70
     0
  9
$DIMTOH
 70
     0
  9
$DIMSE1
 70
     0
  9
$DIMSE2
 70
     0
  9
$DIMTAD
 70
     1
  9
$DIMZIN
 70
     8
  9
$DIMBLK
  1

  9
$DIMASO
 70
     1
  9
$DIMSHO
 70
     0
  9
$DIMPOST
  1

  9
$DIMAPOST
  1

  9
$DIMALT
 70
     0
  9
$DIMALTD
 70
     2
  9
$DIMALTF
 40
25.399999999999999
  9
$DIMLFAC
 40
1.0
  9
$DIMTOFL
 70
     1
  9
$DIMTVP
 40
0.0
  9
$DIMTIX
 70
     1
  9
$DIMSOXD
 70
     0
  9
$DIMSAH
 70
     0
  9
$DIMBLK1
  1

  9
$DIMBLK2
  1

  9
$DIMSTYLE
  2
STANDARD
  9
$DIMCLRD
 70
     7
  9
$DIMCLRE
 70
     7
  9
$DIMCLRT
 70
     7
  9
$DIMTFAC
 40
1.0
  9
$DIMGAP
 40
25.0
  9
$LUNITS
 70
     2
  9
$LUPREC
 70
     4
  9
$SKETCHINC
 40
0.1
  9
$FILLETRAD
 40
3.0
  9
$AUNITS
 70
     1
  9
$AUPREC
 70
     3
  9
$MENU
  1
ACAD
  9
$ELEVATION
 40
0.0
  9
$PELEVATION
 40
0.0
  9
$THICKNESS
 40
50.0
  9
$LIMCHECK
 70
     0
  9
$CHAMFERA
 40
0.0
  9
$CHAMFERB
 40
0.0
  9
$SKPOLY
 70
     0
  9
$TDCREATE
 40
2453019.623009259
  9
$TDUPDATE
 40
2459356.664534931
  9
$TDINDWG
 40
1.8241496644
  9
$TDUSRTIMER
 40
1.8241496644
  9
$USRTIMER
 70
     1
  9
$ANGBASE
 50
0.0
  9
$ANGDIR
 70
     0
  9
$PDMODE
 70
     3
  9
$PDSIZE
 40
-2.0
  9
$PLINEWID
 40
0.0
  9
$SPLFRAME
 70
     0
  9
$SPLINETYPE
 70
     6
  9
$SPLINESEGS
 70
     8
  9
$SURFTAB1
 70
     6
  9
$SURFTAB2
 70
     6
  9
$SURFTYPE
 70
     6
  9
$SURFU
 70
     6
  9
$SURFV
 70
     6
  9
$UCSNAME
  2

  9
$UCSORG
 10
0.0
 20
0.0
 30
0.0
  9
$UCSXDIR
 10
1.0
 20
0.0
 30
0.0
  9
$UCSYDIR
 10
0.0
 20
1.0
 30
0.0
  9
$PUCSNAME
  2

  9
$PUCSORG
 10
0.0
 20
0.0
 30
0.0
  9
$PUCSXDIR
 10
1.0
 20
0.0
 30
0.0
  9
$PUCSYDIR
 10
0.0
 20
1.0
 30
0.0
  9
$USERI1
 70
     0
  9
$USERI2
 70
     0
  9
$USERI3
 70
     0
  9
$USERI4
 70
     0
  9
$USERI5
 70
     0
  9
$USERR1
 40
20.0
  9
$USERR2
 40
0.0
  9
$USERR3
 40
0.0
  9
$USERR4
 40
0.0
  9
$USERR5
 40
0.0
  9
$WORLDVIEW
 70
     1
  9
$SHADEDGE
 70
     3
  9
$SHADEDIF
 70
    70
  9
$TILEMODE
 70
     1
  9
$MAXACTVP
 70
    48
  9
$PINSBASE
 10
0.0
 20
0.0
 30
0.0
  9
$PLIMCHECK
 70
     0
  9
$PEXTMIN
 10
-100000000000000000000.0
 20
-100000000000000000000.0
 30
-100000000000000000000.0
  9
$PEXTMAX
 10
100000000000000000000.0
 20
100000000000000000000.0
 30
100000000000000000000.0
  9
$PLIMMIN
 10
0.0
 20
0.0
  9
$PLIMMAX
 10
12.0
 20
9.0
  9
$UNITMODE
 70
     0
  9
$VISRETAIN
 70
     0
  9
$PLINEGEN
 70
     0
  9
$PSLTSCALE
 70
     0
  9
$TREEDEPTH
 70
  3020
  9
$ATTDIA
 70
     0
  9
$ATTREQ
 70
     1
  9
$BLIPMODE
 70
     1
  9
$COORDS
 70
     1
  9
$DRAGMODE
 70
     2
  9
$OSMODE
 70
     0
  9
$HANDLING
 70
     0
  9
$HANDSEED
  5
293
  0
ENDSEC
  0
SECTION
  2
TABLES
  0
TABLE
  2
LTYPE
 70
     2
  0
LTYPE
  2
CONTINUOUS
 70
     0
  3
実線
 72
    65
 73
     0
 40
0.0
  0
LTYPE
  2
DASHDOT
 70
     0
  3
____ _ ____ _ ____ _ ____ _ ____ _ ____ _ ____
 72
    65
 73
     4
 40
5.5
 49
4.0
 49
-0.6
 49
0.3
 49
-0.6
  0
ENDTAB
  0
TABLE
  2
LAYER
 70
    12
  0
LAYER
  2
SIZE
 70
     0
 62
    30
  6
CONTINUOUS
  0
LAYER
  2
BASIS
 70
     0
 62
     6
  6
DASHDOT
  0
LAYER
  2
OUTLINE
 70
     0
 62
     3
  6
CONTINUOUS
  0
LAYER
  2
DETAIL
 70
     0
 62
     5
  6
CONTINUOUS
  0
LAYER
  2
ARRANGE
 70
     0
 62
     1
  6
CONTINUOUS
  0
LAYER
  2
DEFPOINTS
 70
     0
 62
     7
  6
CONTINUOUS
  0
LAYER
  2
ETC
 70
     0
 62
    61
  6
CONTINUOUS
  0
LAYER
  2
FIX
 70
     0
 62
    11
  6
CONTINUOUS
  0
LAYER
  2
NOTE
 70
     0
 62
     4
  6
CONTINUOUS
  0
LAYER
  2
0
 70
    64
 62
     7
  6
CONTINUOUS
  0
LAYER
  2
SERVICESPACE
 70
    64
 62
     2
  6
DASHDOT
  0
LAYER
  2
SYMBOLLINE
 70
    64
 62
    15
  6
CONTINUOUS
  0
ENDTAB
  0
TABLE
  2
STYLE
 70
     1
  0
STYLE
  2
STANDARD
 70
     0
 40
64.0
 41
0.9
 50
0.0
 71
     0
 42
64.0
  3
SIMPLEX.shx
  4
BIGFONT.shx
  0
ENDTAB
  0
TABLE
  2
APPID
 70
    18
  0
APPID
  2
ACAD
 70
     0
  0
APPID
  2
ACADANNOTATIVE
 70
     0
  0
APPID
  2
AUTOCAD_POSTSCRIPT_FIGURE
 70
     0
  0
APPID
  2
ACAD_EXEMPT_FROM_CAD_STANDARDS
 70
     0
  0
APPID
  2
ACAD_PSEXT
 70
     0
  0
APPID
  2
ACAUTHENVIRON
 70
     0
  0
APPID
  2
GENIUS_GENOENT_13
 70
     0
  0
APPID
  2
GENIUS_GENCFG_13
 70
     0
  0
APPID
  2
GENIUS_GENCFG0_13
 70
     0
  0
APPID
  2
GENIUS_GENCFG1_13
 70
     0
  0
APPID
  2
GENIUS_GENCFG2_13
 70
     0
  0
APPID
  2
GENIUS_GENCFG3_13
 70
     0
  0
APPID
  2
GENIUS_GENCFG4_13
 70
     0
  0
APPID
  2
GENIUS_GEVCFG0_13
 70
     0
  0
APPID
  2
CONTENTBLOCKICON
 70
     0
  0
APPID
  2
CONTENTBLOCKDESCRIPTION
 70
     0
  0
APPID
  2
ACAD_NAV_VCDISPLAY
 70
     0
  0
APPID
  2
ACAD_MLEADERVER
 70
     0
  0
ENDTAB
  0
TABLE
  2
DIMSTYLE
 70
     1
  0
DIMSTYLE
  2
STANDARD
 70
     0
  3

  4

  5

  6

  7

 40
1.0
 41
12.0
 42
20.0
 43
200.0
 44
20.0
 45
0.0
 46
0.0
 47
0.0
 48
0.0
140
64.0
141
0.09
142
0.0
143
25.399999999999999
144
1.0
145
0.0
146
1.0
147
25.0
 71
     0
 72
     0
 73
     0
 74
     0
 75
     0
 76
     0
 77
     1
 78
     8
170
     0
171
     2
172
     1
173
     0
174
     1
175
     0
176
     7
177
     7
178
     7
  0
ENDTAB
  0
TABLE
  2
VIEW
 70
     1
  0
VIEW
  2
ALL
 70
     0
 40
4282.6198079999986
 10
0.0
 20
41.309904000000003
 41
5940.0
 11
0.0
 21
0.0
 31
1.0
 12
0.0
 22
0.0
 32
0.0
 42
50.0
 43
0.0
 44
0.0
 50
0.0
 71
     0
  0
ENDTAB
  0
TABLE
  2
UCS
 70
     0
  0
ENDTAB
  0
TABLE
  2
VPORT
 70
     1
  0
VPORT
  2
*ACTIVE
 70
     0
 10
0.0
 20
0.0
 11
1.0
 21
1.0
 12
343.51502887848068
 22
44.700632389519342
 13
0.0
 23
0.0
 14
1.0
 24
1.0
 15
0.0
 25
0.0
 16
0.0
 26
0.0
 36
1.0
 17
0.0
 27
0.0
 37
0.0
 40
958.39330196667015
 41
1.767337807606264
 42
50.0
 43
0.0
 44
0.0
 50
0.0
 51
0.0
 71
     0
 72
  1000
 73
     1
 74
     0
 75
     0
 76
     0
 77
     0
 78
     0
  0
ENDTAB
  0
ENDSEC
  0
SECTION
  2
BLOCKS
  0
ENDSEC
  0
SECTION
  2
ENTITIES
  0
TEXT
  8
ETC
  6
CONTINUOUS
 62
    61
 10
415.70568690306033
 20
456.3944371096643
 30
0.0
 40
64.0
  1
V-12PEAD7_3
 41
0.9
  0
TEXT
  8
ETC
  6
CONTINUOUS
 62
    61
 10
411.51969290305988
 20
338.43912709483311
 30
0.0
 40
64.0
  1
換気扇
 41
0.9
  0
TEXT
  8
ETC
  6
CONTINUOUS
 62
    61
 10
462.22109115161578
 20
230.29035420860779
 30
0.0
 40
40.0
  1
V-12PEAD7
 41
0.9
  0
ARC
  8
DETAIL
  6
CONTINUOUS
 62
     5
 10
113.499313
 20
103.499313
 30
0.0
 40
1.5006870000000001
 50
0.0
 51
90.0
  0
LINE
  8
DETAIL
  6
CONTINUOUS
 62
     5
 10
55.075205000000103
 20
104.93627600000001
 30
0.0
 11
44.970581000000038
 21
104.93627600000001
 31
0.0
  0
ARC
  8
DETAIL
  6
CONTINUOUS
 62
     5
 10
55.525411000000076
 20
106.464529
 30
0.0
 40
2.5011450000000002
 50
0.0
 51
90.0
  0
LINE
  8
DETAIL
  6
CONTINUOUS
 62
     5
 10
54.423389000000043
 20
108.96567400000001
 30
0.0
 11
55.525411000000076
 21
108.96567400000001
 31
0.0
  0
LINE
  8
DETAIL
  6
CONTINUOUS
 62
     5
 10
55.125485999999903
 20
104.959129
 30
0.0
 11
57.930841999999977
 21
104.959129
 31
0.0
  0
LINE
  8
DETAIL
  6
CONTINUOUS
 62
     5
 10
58.026556000000021
 20
106.464529
 30
0.0
 11
58.026556000000021
 21
105.0
 31
0.0
  0
LINE
  8
DETAIL
  6
CONTINUOUS
 62
     5
 10
58.020741999999927
 20
104.999989
 30
0.0
 11
57.930841999999977
 21
104.959129
 31
0.0
  0
LINE
  8
DETAIL
  6
CONTINUOUS
 62
     5
 10
55.125485999999903
 20
104.959129
 30
0.0
 11
55.075205000000103
 21
104.93627600000001
 31
0.0
  0
LINE
  8
DETAIL
  6
CONTINUOUS
 62
     5
 10
113.499313
 20
105.0
 30
0.0
 11
58.020792000000021
 21
105.0
 31
0.0
  0
LINE
  8
DETAIL
  6
CONTINUOUS
 62
     5
 10
42.024992999999988
 20
105.0
 30
0.0
 11
-42.024992999999988
 21
105.0
 31
0.0
  0
ARC
  8
DETAIL
  6
CONTINUOUS
 62
     5
 10
44.520375000000058
 20
106.464529
 30
0.0
 40
2.5011450000000002
 50
90.0
 51
180.0
  0
LINE
  8
DETAIL
  6
CONTINUOUS
 62
     5
 10
44.520375000000058
 20
108.96567400000001
 30
0.0
 11
45.622395999999981
 21
108.96567400000001
 31
0.0
  0
LINE
  8
DETAIL
  6
CONTINUOUS
 62
     5
 10
42.114943999999923
 20
104.959129
 30
0.0
 11
44.920299999999997
 21
104.959129
 31
0.0
  0
LINE
  8
DETAIL
  6
CONTINUOUS
 62
     5
 10
44.920299999999997
 20
104.959129
 30
0.0
 11
44.970581000000038
 21
104.93627600000001
 31
0.0
  0
LINE
  8
DETAIL
  6
CONTINUOUS
 62
     5
 10
42.114943999999923
 20
104.959129
 30
0.0
 11
42.025043000000103
 21
104.999989
 31
0.0
  0
LINE
  8
DETAIL
  6
CONTINUOUS
 62
     5
 10
42.01922999999988
 20
105.0
 30
0.0
 11
42.01922999999988
 21
106.464529
 31
0.0
  0
LINE
  8
DETAIL
  6
CONTINUOUS
 62
     5
 10
-44.920299999999997
 20
104.959129
 30
0.0
 11
-42.114943999999923
 21
104.959129
 31
0.0
  0
LINE
  8
DETAIL
  6
CONTINUOUS
 62
     5
 10
-55.075205000000103
 20
104.93627600000001
 30
0.0
 11
-44.970581000000038
 21
104.93627600000001
 31
0.0
  0
LINE
  8
DETAIL
  6
CONTINUOUS
 62
     5
 10
-44.920299999999997
 20
104.959129
 30
0.0
 11
-44.970581000000038
 21
104.93627600000001
 31
0.0
  0
ARC
  8
DETAIL
  6
CONTINUOUS
 62
     5
 10
-44.520375000000058
 20
106.464529
 30
0.0
 40
2.5011450000000002
 50
0.0
 51
90.0
  0
LINE
  8
DETAIL
  6
CONTINUOUS
 62
     5
 10
-45.622395999999981
 20
108.96567400000001
 30
0.0
 11
-44.520375000000058
 21
108.96567400000001
 31
0.0
  0
LINE
  8
DETAIL
  6
CONTINUOUS
 62
     5
 10
-42.01922999999988
 20
106.464529
 30
0.0
 11
-42.01922999999988
 21
105.0
 31
0.0
  0
LINE
  8
DETAIL
  6
CONTINUOUS
 62
     5
 10
-42.025043000000103
 20
104.999989
 30
0.0
 11
-42.114943999999923
 21
104.959129
 31
0.0
  0
LINE
  8
DETAIL
  6
CONTINUOUS
 62
     5
 10
-55.125485999999903
 20
104.959129
 30
0.0
 11
-55.075205000000103
 21
104.93627600000001
 31
0.0
  0
LINE
  8
DETAIL
  6
CONTINUOUS
 62
     5
 10
-58.026556000000021
 20
105.0
 30
0.0
 11
-58.026556000000021
 21
106.464529
 31
0.0
  0
LINE
  8
DETAIL
  6
CONTINUOUS
 62
     5
 10
-58.020792000000021
 20
105.0
 30
0.0
 11
-113.499313
 21
105.0
 31
0.0
  0
LINE
  8
DETAIL
  6
CONTINUOUS
 62
     5
 10
-57.930841999999977
 20
104.959129
 30
0.0
 11
-55.125485999999903
 21
104.959129
 31
0.0
  0
LINE
  8
DETAIL
  6
CONTINUOUS
 62
     5
 10
-57.930841999999977
 20
104.959129
 30
0.0
 11
-58.020741999999927
 21
104.999989
 31
0.0
  0
ARC
  8
DETAIL
  6
CONTINUOUS
 62
     5
 10
-55.525411000000076
 20
106.464529
 30
0.0
 40
2.5011450000000002
 50
90.0
 51
180.0
  0
LINE
  8
DETAIL
  6
CONTINUOUS
 62
     5
 10
-55.525411000000076
 20
108.96567400000001
 30
0.0
 11
-54.423389000000043
 21
108.96567400000001
 31
0.0
  0
ARC
  8
DETAIL
  6
CONTINUOUS
 62
     5
 10
-113.499313
 20
103.499313
 30
0.0
 40
1.5006870000000001
 50
90.0
 51
180.0
  0
LINE
  8
DETAIL
  6
CONTINUOUS
 62
     5
 10
-115.0
 20
103.499313
 30
0.0
 11
-115.0
 21
-123.499313
 31
0.0
  0
LINE
  8
DETAIL
  6
CONTINUOUS
 62
     5
 10
-113.499313
 20
-125.0
 30
0.0
 11
-10.30210799999986
 21
-125.0
 31
0.0
  0
ARC
  8
DETAIL
  6
CONTINUOUS
 62
     5
 10
-113.499313
 20
-123.499313
 30
0.0
 40
1.5006870000000001
 50
180.0
 51
270.0
  0
LINE
  8
DETAIL
  6
CONTINUOUS
 62
     5
 10
67.030675999999858
 20
-125.0
 30
0.0
 11
113.499313
 21
-125.0
 31
0.0
  0
LINE
  8
DETAIL
  6
CONTINUOUS
 62
     5
 10
-10.124229999999899
 20
-124.83181
 30
0.0
 11
-10.134865999999869
 21
-124.832747
 31
0.0
  0
LINE
  8
DETAIL
  6
CONTINUOUS
 62
     5
 10
-10.30210799999986
 20
-124.999989
 30
0.0
 11
-10.134865999999869
 21
-124.832747
 31
0.0
  0
LINE
  8
DETAIL
  6
CONTINUOUS
 62
     5
 10
10.134865999999869
 20
-124.832747
 30
0.0
 11
10.124229999999899
 21
-124.83181
 31
0.0
  0
LINE
  8
DETAIL
  6
CONTINUOUS
 62
     5
 10
35.0160249999999
 20
-124.98953400000001
 30
0.0
 11
35.033071000000049
 21
-124.990664
 31
0.0
  0
LINE
  8
DETAIL
  6
CONTINUOUS
 62
     5
 10
20.009156999999959
 20
-124.98953400000001
 30
0.0
 11
20.026202999999899
 21
-124.990664
 31
0.0
  0
LINE
  8
DETAIL
  6
CONTINUOUS
 62
     5
 10
10.09586899999999
 20
-124.831035
 30
0.0
 11
10.09175600000003
 21
-124.830843
 31
0.0
  0
LINE
  8
DETAIL
  6
CONTINUOUS
 62
     5
 10
10.109204999999969
 20
-124.83144900000001
 30
0.0
 11
10.11021400000004
 21
-124.831491
 31
0.0
  0
LINE
  8
DETAIL
  6
CONTINUOUS
 62
     5
 10
10.104039999999941
 20
-124.83126799999999
 30
0.0
 11
10.109204999999969
 21
-124.83144900000001
 31
0.0
  0
LINE
  8
DETAIL
  6
CONTINUOUS
 62
     5
 10
10.09586899999999
 20
-124.831035
 30
0.0
 11
10.104039999999941
 21
-124.83126799999999
 31
0.0
  0
LINE
  8
DETAIL
  6
CONTINUOUS
 62
     5
 10
10.124229999999899
 20
-124.83181
 30
0.0
 11
10.104039999999941
 21
-124.83126799999999
 31
0.0
  0
LINE
  8
DETAIL
  6
CONTINUOUS
 62
     5
 10
10.07201499999996
 20
-124.83051500000001
 30
0.0
 11
10.09586899999999
 21
-124.831035
 31
0.0
  0
LINE
  8
DETAIL
  6
CONTINUOUS
 62
     5
 10
35.033071000000049
 20
-124.990664
 30
0.0
 11
35.083044999999863
 21
-124.99171699999999
 31
0.0
  0
LINE
  8
DETAIL
  6
CONTINUOUS
 62
     5
 10
20.026202999999899
 20
-124.990664
 30
0.0
 11
20.076178000000031
 21
-124.99171699999999
 31
0.0
  0
LINE
  8
DETAIL
  6
CONTINUOUS
 62
     5
 10
10.03773700000011
 20
-124.829973
 30
0.0
 11
10.07201499999996
 21
-124.83051500000001
 31
0.0
  0
LINE
  8
DETAIL
  6
CONTINUOUS
 62
     5
 10
35.083044999999863
 20
-124.99171699999999
 30
0.0
 11
35.162542999999907
 21
-124.992621
 31
0.0
  0
LINE
  8
DETAIL
  6
CONTINUOUS
 62
     5
 10
20.076178000000031
 20
-124.99171699999999
 30
0.0
 11
20.15567499999997
 21
-124.992621
 31
0.0
  0
LINE
  8
DETAIL
  6
CONTINUOUS
 62
     5
 10
9.9670960000000832
 20
-124.829183
 30
0.0
 11
10.03773700000011
 21
-124.829973
 31
0.0
  0
LINE
  8
DETAIL
  6
CONTINUOUS
 62
     5
 10
9.9670960000000832
 20
-124.829183
 30
0.0
 11
9.9555749999999517
 21
-124.829058
 31
0.0
  0
LINE
  8
DETAIL
  6
CONTINUOUS
 62
     5
 10
10.09175600000003
 20
-124.830843
 30
0.0
 11
10.085187000000129
 21
-124.83077900000001
 31
0.0
  0
LINE
  8
DETAIL
  6
CONTINUOUS
 62
     5
 10
9.8000620000000236
 20
-124.828104
 30
0.0
 11
9.9670960000000832
 21
-124.829183
 31
0.0
  0
LINE
  8
DETAIL
  6
CONTINUOUS
 62
     5
 10
35.162542999999907
 20
-124.992621
 30
0.0
 11
35.386788000000017
 21
-124.993751
 31
0.0
  0
LINE
  8
DETAIL
  6
CONTINUOUS
 62
     5
 10
20.15567499999997
 20
-124.992621
 30
0.0
 11
20.37992000000008
 21
-124.993751
 31
0.0
  0
LINE
  8
DETAIL
  6
CONTINUOUS
 62
     5
 10
9.8000620000000236
 20
-124.828104
 30
0.0
 11
9.7628529999999483
 21
-124.82795900000001
 31
0.0
  0
LINE
  8
DETAIL
  6
CONTINUOUS
 62
     5
 10
-9.7797370000000665
 20
-124.82802100000001
 30
0.0
 11
9.8000620000000236
 21
-124.828104
 31
0.0
  0
LINE
  8
DETAIL
  6
CONTINUOUS
 62
     5
 10
35.386788000000017
 20
-124.993751
 30
0.0
 11
66.659914000000072
 21
-124.993751
 31
0.0
  0
LINE
  8
DETAIL
  6
CONTINUOUS
 62
     5
 10
20.37992000000008
 20
-124.993751
 30
0.0
 11
34.145033000000012
 21
-124.993751
 31
0.0
  0
LINE
  8
DETAIL
  6
CONTINUOUS
 62
     5
 10
34.515796000000137
 20
-125.0
 30
0.0
 11
35.0160249999999
 21
-125.0
 31
0.0
  0
LINE
  8
DETAIL
  6
CONTINUOUS
 62
     5
 10
10.30210799999986
 20
-125.0
 30
0.0
 11
20.009156999999959
 21
-125.0
 31
0.0
  0
LINE
  8
DETAIL
  6
CONTINUOUS
 62
     5
 10
-9.504349999999933
 20
-125.934003
 30
0.0
 11
9.504349999999933
 21
-125.934003
 31
0.0
  0
LINE
  8
DETAIL
  6
CONTINUOUS
 62
     5
 10
34.145033000000012
 20
-124.993751
 30
0.0
 11
34.369278000000122
 21
-124.992621
 31
0.0
  0
LINE
  8
DETAIL
  6
CONTINUOUS
 62
     5
 10
66.659914000000072
 20
-124.993751
 30
0.0
 11
66.884158999999954
 21
-124.992621
 31
0.0
  0
LINE
  8
DETAIL
  6
CONTINUOUS
 62
     5
 10
-9.9654479999999239
 20
-124.829168
 30
0.0
 11
-9.7797370000000665
 21
-124.82802100000001
 31
0.0
  0
LINE
  8
DETAIL
  6
CONTINUOUS
 62
     5
 10
34.369278000000122
 20
-124.992621
 30
0.0
 11
34.448775999999953
 21
-124.99171699999999
 31
0.0
  0
LINE
  8
DETAIL
  6
CONTINUOUS
 62
     5
 10
66.884158999999954
 20
-124.992621
 30
0.0
 11
66.963655999999901
 21
-124.99171699999999
 31
0.0
  0
LINE
  8
DETAIL
  6
CONTINUOUS
 62
     5
 10
-10.05972999999994
 20
-124.830303
 30
0.0
 11
-9.9654479999999239
 21
-124.829168
 31
0.0
  0
LINE
  8
DETAIL
  6
CONTINUOUS
 62
     5
 10
-10.07558599999993
 20
-124.83058200000001
 30
0.0
 11
-10.09175600000003
 21
-124.830843
 31
0.0
  0
LINE
  8
DETAIL
  6
CONTINUOUS
 62
     5
 10
-10.07558599999993
 20
-124.83058200000001
 30
0.0
 11
-10.05972999999994
 21
-124.830303
 31
0.0
  0
LINE
  8
DETAIL
  6
CONTINUOUS
 62
     5
 10
34.448775999999953
 20
-124.99171699999999
 30
0.0
 11
34.498749999999973
 21
-124.990664
 31
0.0
  0
LINE
  8
DETAIL
  6
CONTINUOUS
 62
     5
 10
66.963655999999901
 20
-124.99171699999999
 30
0.0
 11
67.013631000000032
 21
-124.990664
 31
0.0
  0
LINE
  8
DETAIL
  6
CONTINUOUS
 62
     5
 10
-10.11051099999986
 20
-124.831501
 30
0.0
 11
-10.124229999999899
 21
-124.83181
 31
0.0
  0
LINE
  8
DETAIL
  6
CONTINUOUS
 62
     5
 10
-10.09872700000005
 20
-124.831112
 30
0.0
 11
-10.07558599999993
 21
-124.83058200000001
 31
0.0
  0
LINE
  8
DETAIL
  6
CONTINUOUS
 62
     5
 10
-10.10608899999988
 20
-124.831335
 30
0.0
 11
-10.09872700000005
 21
-124.831112
 31
0.0
  0
LINE
  8
DETAIL
  6
CONTINUOUS
 62
     5
 10
-10.11051099999986
 20
-124.831501
 30
0.0
 11
-10.11020800000006
 21
-124.831491
 31
0.0
  0
LINE
  8
DETAIL
  6
CONTINUOUS
 62
     5
 10
-10.11020800000006
 20
-124.831491
 30
0.0
 11
-10.10608899999988
 21
-124.831335
 31
0.0
  0
LINE
  8
DETAIL
  6
CONTINUOUS
 62
     5
 10
-10.09175600000003
 20
-124.830843
 30
0.0
 11
-10.09872700000005
 21
-124.831112
 31
0.0
  0
LINE
  8
DETAIL
  6
CONTINUOUS
 62
     5
 10
-10.109527000000069
 20
-124.83143699999999
 30
0.0
 11
-10.11051099999986
 21
-124.831501
 31
0.0
  0
LINE
  8
DETAIL
  6
CONTINUOUS
 62
     5
 10
34.498749999999973
 20
-124.990664
 30
0.0
 11
34.515796000000137
 21
-124.98953400000001
 31
0.0
  0
LINE
  8
DETAIL
  6
CONTINUOUS
 62
     5
 10
67.013631000000032
 20
-124.990664
 30
0.0
 11
67.030675999999858
 21
-124.98953400000001
 31
0.0
  0
LINE
  8
DETAIL
  6
CONTINUOUS
 62
     5
 10
10.134865999999869
 20
-124.832747
 30
0.0
 11
10.30210799999986
 21
-124.999989
 31
0.0
  0
LINE
  8
DETAIL
  6
CONTINUOUS
 62
     5
 10
9.504349999999933
 20
-124.827563
 30
0.0
 11
9.504349999999933
 21
-125.934003
 31
0.0
  0
LINE
  8
DETAIL
  6
CONTINUOUS
 62
     5
 10
-9.504349999999933
 20
-124.827563
 30
0.0
 11
-9.504349999999933
 21
-125.934003
 31
0.0
  0
LINE
  8
DETAIL
  6
CONTINUOUS
 62
     5
 10
115.0
 20
-123.499313
 30
0.0
 11
115.0
 21
103.499313
 31
0.0
  0
ARC
  8
DETAIL
  6
CONTINUOUS
 62
     5
 10
113.499313
 20
-123.499313
 30
0.0
 40
1.5006870000000001
 50
270.0
 51
0.0
  0
ARC
  8
DETAIL
  6
CONTINUOUS
 62
     5
 10
46.271175999999969
 20
108.20409599999989
 30
0.0
 40
1.0004580000000001
 50
90.0
 51
180.0
  0
LINE
  8
DETAIL
  6
CONTINUOUS
 62
     5
 10
45.270717999999988
 20
104.93627600000001
 30
0.0
 11
45.270717999999988
 21
108.20409599999989
 31
0.0
  0
ARC
  8
DETAIL
  6
CONTINUOUS
 62
     5
 10
53.774609999999932
 20
108.20409599999989
 30
0.0
 40
1.0004580000000001
 50
0.0
 51
90.0
  0
LINE
  8
DETAIL
  6
CONTINUOUS
 62
     5
 10
46.271175999999969
 20
109.204554
 30
0.0
 11
53.774609999999932
 21
109.204554
 31
0.0
  0
LINE
  8
DETAIL
  6
CONTINUOUS
 62
     5
 10
54.775067999999933
 20
104.93627600000001
 30
0.0
 11
54.775067999999933
 21
108.20409599999989
 31
0.0
  0
ARC
  8
DETAIL
  6
CONTINUOUS
 62
     5
 10
-53.774609999999932
 20
108.20409599999989
 30
0.0
 40
1.0004580000000001
 50
90.0
 51
180.0
  0
LINE
  8
DETAIL
  6
CONTINUOUS
 62
     5
 10
-53.774609999999932
 20
109.204554
 30
0.0
 11
-46.271175999999969
 21
109.204554
 31
0.0
  0
LINE
  8
DETAIL
  6
CONTINUOUS
 62
     5
 10
-45.270717999999988
 20
104.93627600000001
 30
0.0
 11
-45.270717999999988
 21
108.20409599999989
 31
0.0
  0
LINE
  8
DETAIL
  6
CONTINUOUS
 62
     5
 10
-54.775067999999933
 20
104.93627600000001
 30
0.0
 11
-54.775067999999933
 21
108.20409599999989
 31
0.0
  0
ARC
  8
DETAIL
  6
CONTINUOUS
 62
     5
 10
-46.271175999999969
 20
108.20409599999989
 30
0.0
 40
1.0004580000000001
 50
0.0
 51
90.0
  0
POINT
  8
ARRANGE
  6
CONTINUOUS
 62
     1
 10
0.0
 20
0.0
 30
0.0
  0
CIRCLE
  8
ARRANGE
  6
CONTINUOUS
 62
     1
 10
0.0
 20
0.0
 30
0.0
 40
40.0
  0
ARC
  8
OUTLINE
  6
CONTINUOUS
 62
     3
 10
113.499313
 20
103.499313
 30
0.0
 40
1.5006870000000001
 50
0.0
 51
90.0
  0
LINE
  8
OUTLINE
  6
CONTINUOUS
 62
     3
 10
113.499313
 20
105.0
 30
0.0
 11
-113.499313
 21
105.0
 31
0.0
  0
ARC
  8
OUTLINE
  6
CONTINUOUS
 62
     3
 10
-113.499313
 20
103.499313
 30
0.0
 40
1.5006870000000001
 50
90.0
 51
180.0
  0
LINE
  8
OUTLINE
  6
CONTINUOUS
 62
     3
 10
-115.0
 20
103.499313
 30
0.0
 11
-115.0
 21
-123.499313
 31
0.0
  0
ARC
  8
OUTLINE
  6
CONTINUOUS
 62
     3
 10
-113.499313
 20
-123.499313
 30
0.0
 40
1.5006870000000001
 50
180.0
 51
270.0
  0
LINE
  8
OUTLINE
  6
CONTINUOUS
 62
     3
 10
-113.499313
 20
-125.0
 30
0.0
 11
113.499313
 21
-125.0
 31
0.0
  0
LINE
  8
OUTLINE
  6
CONTINUOUS
 62
     3
 10
115.0
 20
-123.499313
 30
0.0
 11
115.0
 21
103.499313
 31
0.0
  0
ARC
  8
OUTLINE
  6
CONTINUOUS
 62
     3
 10
113.499313
 20
-123.499313
 30
0.0
 40
1.5006870000000001
 50
270.0
 51
0.0
  0
LINE
  8
SIZE
  6
CONTINUOUS
 62
    30
 10
-115.0
 20
-143.499313
 30
0.0
 11
-115.0
 21
-431.02870899999999
 31
0.0
  0
LINE
  8
SIZE
  6
CONTINUOUS
 62
    30
 10
115.0
 20
-143.499313
 30
0.0
 11
115.0
 21
-431.02870899999999
 31
0.0
  0
LINE
  8
SIZE
  6
CONTINUOUS
 62
    30
 10
-127.0
 20
-411.02870899999999
 30
0.0
 11
-139.0
 21
-411.02870899999999
 31
0.0
  0
LINE
  8
SIZE
  6
CONTINUOUS
 62
    30
 10
127.0
 20
-411.02870899999999
 30
0.0
 11
139.0
 21
-411.02870899999999
 31
0.0
  0
LINE
  8
SIZE
  6
CONTINUOUS
 62
    30
 10
-115.0
 20
-411.02870899999999
 30
0.0
 11
115.0
 21
-411.02870899999999
 31
0.0
  0
CIRCLE
  8
SIZE
  6
CONTINUOUS
 62
    30
 10
-115.0
 20
-411.02870899999999
 30
0.0
 40
6.0
  0
LINE
  8
SIZE
  6
CONTINUOUS
 62
    30
 10
-115.0
 20
-411.02870899999999
 30
0.0
 11
-127.0
 21
-411.02870899999999
 31
0.0
  0
CIRCLE
  8
SIZE
  6
CONTINUOUS
 62
    30
 10
115.0
 20
-411.02870899999999
 30
0.0
 40
6.0
  0
LINE
  8
SIZE
  6
CONTINUOUS
 62
    30
 10
115.0
 20
-411.02870899999999
 30
0.0
 11
127.0
 21
-411.02870899999999
 31
0.0
  0
TEXT
  8
SIZE
  6
CONTINUOUS
 62
    30
 10
-110.5371428571429
 20
-386.02870899999999
 30
0.0
 40
64.0
  1
□230
 41
0.9
 72
     1
 11
0.0
 21
-386.02870899999999
 31
0.0
  0
POINT
  8
DEFPOINTS
  6
CONTINUOUS
 62
    30
 10
-115.0
 20
-123.499313
 30
0.0
  0
POINT
  8
DEFPOINTS
  6
CONTINUOUS
 62
    30
 10
115.0
 20
-123.499313
 30
0.0
  0
POINT
  8
DEFPOINTS
  6
CONTINUOUS
 62
    30
 10
115.0
 20
-411.02870899999999
 30
0.0
  0
CIRCLE
  8
DETAIL
  6
CONTINUOUS
 62
     5
 10
0.0
 20
0.0
 30
0.0
 40
71.0
  0
ARC
  8
DETAIL
  6
CONTINUOUS
 62
     5
 10
0.0000000000000005
 20
-0.0000000000000081
 30
0.0
 40
60.000000000000007
 50
36.034993000000853
 51
151.585771999998
  0
CIRCLE
  8
DETAIL
  6
CONTINUOUS
 62
     5
 10
0.0
 20
0.0
 30
0.0
 40
23.0
  0
LINE
  8
BASIS
  6
DASHDOT
 62
     6
 10
-125.0
 20
0.0
 30
0.0
 11
125.0
 21
0.0
 31
0.0
  0
LINE
  8
BASIS
  6
DASHDOT
 62
     6
 10
0.0
 20
-159.779325
 30
0.0
 11
0.0
 21
115.0
 31
0.0
  0
LINE
  8
NOTE
  6
CONTINUOUS
 62
     4
 10
-105.0
 20
-14.0
 30
0.0
 11
-105.0
 21
26.0
 31
0.0
  0
LINE
  8
NOTE
  6
CONTINUOUS
 62
     4
 10
-125.0
 20
6.0
 30
0.0
 11
-85.0
 21
6.0
 31
0.0
  0
LINE
  8
NOTE
  6
CONTINUOUS
 62
     4
 10
105.0
 20
-14.0
 30
0.0
 11
105.0
 21
26.0
 31
0.0
  0
LINE
  8
NOTE
  6
CONTINUOUS
 62
     4
 10
85.0
 20
6.0
 30
0.0
 11
125.0
 21
6.0
 31
0.0
  0
ARC
  8
DETAIL
  6
CONTINUOUS
 62
     5
 10
-105.0
 20
0.0
 30
0.0
 40
2.0
 50
180.0
 51
0.0
  0
ARC
  8
DETAIL
  6
CONTINUOUS
 62
     5
 10
-105.0
 20
6.0
 30
0.0
 40
2.0
 50
0.0
 51
180.0
  0
LINE
  8
DETAIL
  6
CONTINUOUS
 62
     5
 10
-107.0
 20
6.0
 30
0.0
 11
-107.0
 21
0.0
 31
0.0
  0
LINE
  8
DETAIL
  6
CONTINUOUS
 62
     5
 10
-103.0
 20
6.0
 30
0.0
 11
-103.0
 21
0.0
 31
0.0
  0
ARC
  8
DETAIL
  6
CONTINUOUS
 62
     5
 10
105.0
 20
0.0
 30
0.0
 40
2.0
 50
180.0
 51
0.0
  0
ARC
  8
DETAIL
  6
CONTINUOUS
 62
     5
 10
105.0
 20
6.0
 30
0.0
 40
2.0
 50
0.0
 51
180.0
  0
LINE
  8
DETAIL
  6
CONTINUOUS
 62
     5
 10
103.0
 20
6.0
 30
0.0
 11
103.0
 21
0.0
 31
0.0
  0
LINE
  8
DETAIL
  6
CONTINUOUS
 62
     5
 10
107.0
 20
6.0
 30
0.0
 11
107.0
 21
0.0
 31
0.0
  0
ARC
  8
FIX
  6
CONTINUOUS
 62
    11
 10
-105.0
 20
0.0
 30
0.0
 40
2.0
 50
180.0
 51
0.0
  0
ARC
  8
FIX
  6
CONTINUOUS
 62
    11
 10
-105.0
 20
6.0
 30
0.0
 40
2.0
 50
0.0
 51
180.0
  0
LINE
  8
FIX
  6
CONTINUOUS
 62
    11
 10
-107.0
 20
6.0
 30
0.0
 11
-107.0
 21
0.0
 31
0.0
  0
LINE
  8
FIX
  6
CONTINUOUS
 62
    11
 10
-103.0
 20
6.0
 30
0.0
 11
-103.0
 21
0.0
 31
0.0
  0
ARC
  8
FIX
  6
CONTINUOUS
 62
    11
 10
105.0
 20
0.0
 30
0.0
 40
2.0
 50
180.0
 51
0.0
  0
ARC
  8
FIX
  6
CONTINUOUS
 62
    11
 10
105.0
 20
6.0
 30
0.0
 40
2.0
 50
0.0
 51
180.0
  0
LINE
  8
FIX
  6
CONTINUOUS
 62
    11
 10
103.0
 20
6.0
 30
0.0
 11
103.0
 21
0.0
 31
0.0
  0
LINE
  8
FIX
  6
CONTINUOUS
 62
    11
 10
107.0
 20
6.0
 30
0.0
 11
107.0
 21
0.0
 31
0.0
  0
LINE
  8
SIZE
  6
CONTINUOUS
 62
    30
 10
-133.499313
 20
105.0
 30
0.0
 11
-271.01274599999999
 21
105.0
 31
0.0
  0
LINE
  8
SIZE
  6
CONTINUOUS
 62
    30
 10
-145.0
 20
0.0
 30
0.0
 11
-271.01274599999999
 21
0.0
 31
0.0
  0
LINE
  8
SIZE
  6
CONTINUOUS
 62
    30
 10
-251.01274599999991
 20
117.0
 30
0.0
 11
-251.01274599999991
 21
129.0
 31
0.0
  0
LINE
  8
SIZE
  6
CONTINUOUS
 62
    30
 10
-251.01274599999991
 20
-12.0
 30
0.0
 11
-251.01274599999991
 21
-24.0
 31
0.0
  0
LINE
  8
SIZE
  6
CONTINUOUS
 62
    30
 10
-251.01274599999991
 20
105.0
 30
0.0
 11
-251.01274599999991
 21
0.0
 31
0.0
  0
CIRCLE
  8
SIZE
  6
CONTINUOUS
 62
    30
 10
-251.01274599999991
 20
105.0
 30
0.0
 40
6.0
  0
LINE
  8
SIZE
  6
CONTINUOUS
 62
    30
 10
-251.01274599999991
 20
105.0
 30
0.0
 11
-251.01274599999991
 21
117.0
 31
0.0
  0
CIRCLE
  8
SIZE
  6
CONTINUOUS
 62
    30
 10
-251.01274599999991
 20
0.0
 30
0.0
 40
6.0
  0
LINE
  8
SIZE
  6
CONTINUOUS
 62
    30
 10
-251.01274599999991
 20
0.0
 30
0.0
 11
-251.01274599999991
 21
-12.0
 31
0.0
  0
TEXT
  8
SIZE
  6
CONTINUOUS
 62
    30
 10
-276.01274599999999
 20
-16.071428571428569
 30
0.0
 40
64.0
  1
105
 50
90.0
 41
0.9
 72
     1
 11
-276.01274599999999
 21
52.5
 31
0.0
  0
POINT
  8
DEFPOINTS
  6
CONTINUOUS
 62
    30
 10
-113.499313
 20
105.0
 30
0.0
  0
POINT
  8
DEFPOINTS
  6
CONTINUOUS
 62
    30
 10
-125.0
 20
0.0
 30
0.0
  0
POINT
  8
DEFPOINTS
  6
CONTINUOUS
 62
    30
 10
-251.01274599999991
 20
0.0
 30
0.0
  0
LINE
  8
SIZE
  6
CONTINUOUS
 62
    30
 10
-105.0
 20
-34.0
 30
0.0
 11
-105.0
 21
-313.43458600000002
 31
0.0
  0
LINE
  8
SIZE
  6
CONTINUOUS
 62
    30
 10
105.0
 20
-34.0
 30
0.0
 11
105.0
 21
-313.43458600000002
 31
0.0
  0
LINE
  8
SIZE
  6
CONTINUOUS
 62
    30
 10
-93.0
 20
-293.43458600000002
 30
0.0
 11
93.0
 21
-293.43458600000002
 31
0.0
  0
CIRCLE
  8
SIZE
  6
CONTINUOUS
 62
    30
 10
-105.0
 20
-293.43458600000002
 30
0.0
 40
6.0
  0
LINE
  8
SIZE
  6
CONTINUOUS
 62
    30
 10
-105.0
 20
-293.43458600000002
 30
0.0
 11
-93.0
 21
-293.43458600000002
 31
0.0
  0
CIRCLE
  8
SIZE
  6
CONTINUOUS
 62
    30
 10
105.0
 20
-293.43458600000002
 30
0.0
 40
6.0
  0
LINE
  8
SIZE
  6
CONTINUOUS
 62
    30
 10
105.0
 20
-293.43458600000002
 30
0.0
 11
93.0
 21
-293.43458600000002
 31
0.0
  0
TEXT
  8
SIZE
  6
CONTINUOUS
 62
    30
 10
-68.571428571428555
 20
-268.43458600000002
 30
0.0
 40
64.0
  1
210
 41
0.9
 72
     1
 11
0.0
 21
-268.43458600000002
 31
0.0
  0
POINT
  8
DEFPOINTS
  6
CONTINUOUS
 62
    30
 10
-105.0
 20
-14.0
 30
0.0
  0
POINT
  8
DEFPOINTS
  6
CONTINUOUS
 62
    30
 10
105.0
 20
-14.0
 30
0.0
  0
POINT
  8
DEFPOINTS
  6
CONTINUOUS
 62
    30
 10
105.0
 20
-293.43458600000002
 30
0.0
  0
LINE
  8
SIZE
  6
CONTINUOUS
 62
    30
 10
-145.0
 20
6.0
 30
0.0
 11
-197.26771000000011
 21
6.0
 31
0.0
  0
LINE
  8
SIZE
  6
CONTINUOUS
 62
    30
 10
-145.0
 20
0.0
 30
0.0
 11
-197.26771000000011
 21
0.0
 31
0.0
  0
LINE
  8
SIZE
  6
CONTINUOUS
 62
    30
 10
-177.26771000000011
 20
18.0
 30
0.0
 11
-177.26771000000011
 21
30.0
 31
0.0
  0
LINE
  8
SIZE
  6
CONTINUOUS
 62
    30
 10
-177.26771000000011
 20
-12.0
 30
0.0
 11
-177.26771000000011
 21
-111.843352
 31
0.0
  0
LINE
  8
SIZE
  6
CONTINUOUS
 62
    30
 10
-177.26771000000011
 20
6.0
 30
0.0
 11
-177.26771000000011
 21
0.0
 31
0.0
  0
CIRCLE
  8
SIZE
  6
CONTINUOUS
 62
    30
 10
-177.26771000000011
 20
6.0
 30
0.0
 40
6.0
  0
LINE
  8
SIZE
  6
CONTINUOUS
 62
    30
 10
-177.26771000000011
 20
6.0
 30
0.0
 11
-177.26771000000011
 21
18.0
 31
0.0
  0
CIRCLE
  8
SIZE
  6
CONTINUOUS
 62
    30
 10
-177.26771000000011
 20
0.0
 30
0.0
 40
6.0
  0
LINE
  8
SIZE
  6
CONTINUOUS
 62
    30
 10
-177.26771000000011
 20
0.0
 30
0.0
 11
-177.26771000000011
 21
-12.0
 31
0.0
  0
TEXT
  8
SIZE
  6
CONTINUOUS
 62
    30
 10
-202.26771000000011
 20
-86.843351428571395
 30
0.0
 40
64.0
  1
6
 50
90.0
 41
0.9
 72
     1
 11
-202.26771000000011
 21
-69.014779999999973
 31
0.0
  0
POINT
  8
DEFPOINTS
  6
CONTINUOUS
 62
    30
 10
-125.0
 20
6.0
 30
0.0
  0
POINT
  8
DEFPOINTS
  6
CONTINUOUS
 62
    30
 10
-125.0
 20
0.0
 30
0.0
  0
POINT
  8
DEFPOINTS
  6
CONTINUOUS
 62
    30
 10
-177.26771000000011
 20
0.0
 30
0.0
  0
LINE
  8
SIZE
  6
CONTINUOUS
 62
    30
 10
173.377489
 20
365.67978399999993
 30
0.0
 11
35.558090999999877
 21
74.997480999999979
 31
0.0
  0
LINE
  8
SIZE
  6
CONTINUOUS
 62
    30
 10
-35.558090999999877
 20
-74.997480999999979
 30
0.0
 11
-40.699020000000012
 21
-85.840490000000003
 31
0.0
  0
TEXT
  8
SIZE
  6
CONTINUOUS
 62
    30
 10
52.887433892463072
 20
169.90301588096429
 30
0.0
 40
64.0
  1
φ142
 50
64.633240000000001
 41
0.9
 72
     1
 11
99.537718999999925
 21
268.29556700000001
 31
0.0
  0
LINE
  8
SIZE
  6
CONTINUOUS
 62
    30
 10
-30.417161999999959
 20
-64.154471999999998
 30
0.0
 11
30.417161999999959
 21
64.154471999999998
 31
0.0
  0
CIRCLE
  8
SIZE
  6
CONTINUOUS
 62
    30
 10
-30.417161999999959
 20
-64.154471999999998
 30
0.0
 40
6.0
  0
LINE
  8
SIZE
  6
CONTINUOUS
 62
    30
 10
-30.417161999999959
 20
-64.154471999999998
 30
0.0
 11
-35.558090999999877
 21
-74.997480999999979
 31
0.0
  0
CIRCLE
  8
SIZE
  6
CONTINUOUS
 62
    30
 10
30.417161999999959
 20
64.154471999999998
 30
0.0
 40
6.0
  0
LINE
  8
SIZE
  6
CONTINUOUS
 62
    30
 10
30.417161999999959
 20
64.154471999999998
 30
0.0
 11
35.558090999999877
 21
74.997480999999979
 31
0.0
  0
POINT
  8
DEFPOINTS
  6
CONTINUOUS
 62
    30
 10
30.417161999999959
 20
64.154471999999998
 30
0.0
  0
POINT
  8
DEFPOINTS
  6
CONTINUOUS
 62
    30
 10
-30.417161999999959
 20
-64.154471999999998
 30
0.0
  0
LINE
  8
SIZE
  6
CONTINUOUS
 62
    30
 10
362.49864600000001
 20
304.50886400000002
 30
0.0
 11
55.130000999999993
 21
46.310721999999998
 31
0.0
  0
LINE
  8
SIZE
  6
CONTINUOUS
 62
    30
 10
-55.130000999999993
 20
-46.310721999999998
 30
0.0
 11
-64.318334999999934
 21
-54.029176000000007
 31
0.0
  0
TEXT
  8
SIZE
  6
CONTINUOUS
 62
    30
 10
171.44203035850251
 20
176.66614408842011
 30
0.0
 40
64.0
  1
φ120
 50
40.031182000000001
 41
0.9
 72
     1
 11
254.8195989999999
 21
246.705592
 31
0.0
  0
LINE
  8
SIZE
  6
CONTINUOUS
 62
    30
 10
-45.941667999999943
 20
-38.59226799999999
 30
0.0
 11
45.941667999999943
 21
38.59226799999999
 31
0.0
  0
CIRCLE
  8
SIZE
  6
CONTINUOUS
 62
    30
 10
-45.941667999999943
 20
-38.59226799999999
 30
0.0
 40
6.0
  0
LINE
  8
SIZE
  6
CONTINUOUS
 62
    30
 10
-45.941667999999943
 20
-38.59226799999999
 30
0.0
 11
-55.130001999999877
 21
-46.310721999999998
 31
0.0
  0
CIRCLE
  8
SIZE
  6
CONTINUOUS
 62
    30
 10
45.941667999999943
 20
38.59226799999999
 30
0.0
 40
6.0
  0
LINE
  8
SIZE
  6
CONTINUOUS
 62
    30
 10
45.941667999999943
 20
38.59226799999999
 30
0.0
 11
55.130001999999877
 21
46.310721999999998
 31
0.0
  0
POINT
  8
DEFPOINTS
  6
CONTINUOUS
 62
    30
 10
45.941667999999943
 20
38.59226799999999
 30
0.0
  0
POINT
  8
DEFPOINTS
  6
CONTINUOUS
 62
    30
 10
-45.941667999999943
 20
-38.59226799999999
 30
0.0
  0
LINE
  8
SIZE
  6
CONTINUOUS
 62
    30
 10
415.86898500000012
 20
141.85028299999999
 30
0.0
 11
33.125989000000118
 21
11.299064999999979
 31
0.0
  0
LINE
  8
SIZE
  6
CONTINUOUS
 62
    30
 10
-33.125989000000118
 20
-11.299064999999979
 30
0.0
 11
-44.483470000000118
 21
-15.17303099999998
 31
0.0
  0
TEXT
  8
SIZE
  6
CONTINUOUS
 62
    30
 10
235.6458144533417
 20
106.7916472647378
 30
0.0
 40
64.0
  1
φ46
 50
18.834157000000001
 41
0.9
 72
     1
 11
316.64089799999999
 21
134.41851500000001
 31
0.0
  0
LINE
  8
SIZE
  6
CONTINUOUS
 62
    30
 10
-21.768507
 20
-7.4250999999999854
 30
0.0
 11
21.768507
 21
7.4250999999999854
 31
0.0
  0
CIRCLE
  8
SIZE
  6
CONTINUOUS
 62
    30
 10
-21.768507
 20
-7.4250999999999854
 30
0.0
 40
6.0
  0
LINE
  8
SIZE
  6
CONTINUOUS
 62
    30
 10
-21.768507
 20
-7.4250999999999854
 30
0.0
 11
-33.125989000000118
 21
-11.299064999999979
 31
0.0
  0
CIRCLE
  8
SIZE
  6
CONTINUOUS
 62
    30
 10
21.768507
 20
7.4250999999999854
 30
0.0
 40
6.0
  0
LINE
  8
SIZE
  6
CONTINUOUS
 62
    30
 10
21.768507
 20
7.4250999999999854
 30
0.0
 11
33.125989000000118
 21
11.299064999999979
 31
0.0
  0
POINT
  8
DEFPOINTS
  6
CONTINUOUS
 62
    30
 10
21.768507
 20
7.4250999999999854
 30
0.0
  0
POINT
  8
DEFPOINTS
  6
CONTINUOUS
 62
    30
 10
-21.768507
 20
-7.4250999999999854
 30
0.0
  0
TEXT
  8
NOTE
  6
CONTINUOUS
 62
     4
 10
213.33873974484999
 20
-86.19740346508587
 30
0.0
 40
64.0
  1
2-φ4×10
 41
0.9
  0
LINE
  8
NOTE
  6
CONTINUOUS
 62
     4
 10
207.271131
 20
-121.422465
 30
0.0
 11
626.95022717872871
 21
-121.422465
 31
0.0
  0
LINE
  8
NOTE
  6
CONTINUOUS
 62
     4
 10
139.94962699999999
 20
-19.170525999999999
 30
0.0
 11
107.0
 21
3.5081440000000161
 31
0.0
  0
LINE
  8
NOTE
  6
CONTINUOUS
 62
     4
 10
107.0
 20
3.5081440000000161
 30
0.0
 11
124.19587899999991
 21
-32.60697399999998
 31
0.0
  0
LINE
  8
NOTE
  6
CONTINUOUS
 62
     4
 10
107.0
 20
3.5081440000000161
 30
0.0
 11
207.271131
 21
-121.422465
 31
0.0
  0
LINE
  8
NOTE
  6
CONTINUOUS
 62
     4
 10
-88.0
 20
41.0
 30
0.0
 11
-88.0
 21
81.0
 31
0.0
  0
LINE
  8
NOTE
  6
CONTINUOUS
 62
     4
 10
-108.0
 20
61.0
 30
0.0
 11
-68.0
 21
61.0
 31
0.0
  0
TEXT
  8
NOTE
  6
CONTINUOUS
 62
     4
 10
-256.53721100000013
 20
188.41193799999999
 30
0.0
 40
64.0
  1
EL
 41
0.9
  0
LINE
  8
NOTE
  6
CONTINUOUS
 62
     4
 10
-260.87956800000012
 20
175.28165300000001
 30
0.0
 11
-167.91474099999999
 21
175.28165300000001
 31
0.0
  0
LINE
  8
NOTE
  6
CONTINUOUS
 62
     4
 10
-118.6257430000001
 20
86.730601999999962
 30
0.0
 11
-88.0
 21
61.0
 31
0.0
  0
LINE
  8
NOTE
  6
CONTINUOUS
 62
     4
 10
-88.0
 20
61.0
 30
0.0
 11
-101.6573699999999
 21
98.596227000000013
 31
0.0
  0
LINE
  8
NOTE
  6
CONTINUOUS
 62
     4
 10
-167.91474099999999
 20
175.28165300000001
 30
0.0
 11
-88.0
 21
61.0
 31
0.0
  0
LINE
  8
DETAIL
  6
CONTINUOUS
 62
     5
 10
4.0000002828719214
 20
-59.86651816948288
 30
0.0
 11
4.0000002121539406
 21
-50.562264377112157
 31
0.0
  0
LINE
  8
DETAIL
  6
CONTINUOUS
 62
     5
 10
-4.0000002828719481
 20
-59.86651816948288
 30
0.0
 11
-4.000000212153962
 21
-50.562264377112157
 31
0.0
  0
LINE
  8
DETAIL
  6
CONTINUOUS
 62
     5
 10
-52.973203107690097
 20
28.175161978441452
 30
0.0
 11
-45.057957830767577
 21
23.293389983831091
 31
0.0
  0
LINE
  8
DETAIL
  6
CONTINUOUS
 62
     5
 10
-48.519471464765253
 20
35.296754649398437
 30
0.0
 11
-40.67492659857394
 21
30.306428987048829
 31
0.0
  0
LINE
  8
DETAIL
  6
CONTINUOUS
 62
     5
 10
52.77182616911908
 20
28.550558011644519
 30
0.0
 11
44.906925126839312
 21
23.574937008733389
 31
0.0
  0
LINE
  8
DETAIL
  6
CONTINUOUS
 62
     5
 10
48.289259641234217
 20
35.611057317938013
 30
0.0
 11
40.502267730925681
 21
30.542155988453501
 31
0.0
  0
ARC
  8
DETAIL
  6
CONTINUOUS
 62
     5
 10
0.0000000000000136
 20
0.0000000000000028
 30
0.0
 40
60.000000000000007
 50
151.58577199999809
 51
273.8225539999994
  0
ARC
  8
DETAIL
  6
CONTINUOUS
 62
     5
 10
-0.0000000000000057
 20
0.0000000000000089
 30
0.0
 40
60.000000000000007
 50
273.8225539999994
 51
36.03499300000081
  0
LINE
  8
DETAIL
  6
CONTINUOUS
 62
     5
 10
-110.5
 20
-122.5
 30
0.0
 11
110.5
 21
-122.5
 31
0.0
  0
LINE
  8
DETAIL
  6
CONTINUOUS
 62
     5
 10
112.5
 20
-120.5
 30
0.0
 11
112.5
 21
100.5
 31
0.0
  0
LINE
  8
DETAIL
  6
CONTINUOUS
 62
     5
 10
110.5
 20
102.5
 30
0.0
 11
-110.5
 21
102.5
 31
0.0
  0
LINE
  8
DETAIL
  6
CONTINUOUS
 62
     5
 10
-112.5
 20
100.5
 30
0.0
 11
-112.5
 21
-120.5
 31
0.0
  0
ARC
  8
DETAIL
  6
CONTINUOUS
 62
     5
 10
-110.5
 20
100.5
 30
0.0
 40
2.0
 50
90.0
 51
180.0
  0
ARC
  8
DETAIL
  6
CONTINUOUS
 62
     5
 10
110.5
 20
100.5
 30
0.0
 40
2.0
 50
0.0
 51
90.0
  0
ARC
  8
DETAIL
  6
CONTINUOUS
 62
     5
 10
110.5
 20
-120.5
 30
0.0
 40
2.0
 50
270.0
 51
0.0
  0
ARC
  8
DETAIL
  6
CONTINUOUS
 62
     5
 10
-110.5
 20
-120.5
 30
0.0
 40
2.0
 50
180.0
 51
270.0
  0
LINE
  8
DETAIL
  6
CONTINUOUS
 62
     5
 10
-23.0
 20
-109.5
 30
0.0
 11
-23.0
 21
-122.5
 31
0.0
  0
LINE
  8
DETAIL
  6
CONTINUOUS
 62
     5
 10
23.0
 20
-109.5
 30
0.0
 11
23.0
 21
-122.5
 31
0.0
  0
LINE
  8
DETAIL
  6
CONTINUOUS
 62
     5
 10
21.0
 20
-107.5
 30
0.0
 11
-21.0
 21
-107.5
 31
0.0
  0
LINE
  8
DETAIL
  6
CONTINUOUS
 62
     5
 10
-20.5
 20
-112.0
 30
0.0
 11
-20.5
 21
-122.5
 31
0.0
  0
LINE
  8
DETAIL
  6
CONTINUOUS
 62
     5
 10
20.5
 20
-112.0
 30
0.0
 11
20.5
 21
-122.5
 31
0.0
  0
LINE
  8
DETAIL
  6
CONTINUOUS
 62
     5
 10
18.5
 20
-110.0
 30
0.0
 11
-18.5
 21
-110.0
 31
0.0
  0
ARC
  8
DETAIL
  6
CONTINUOUS
 62
     5
 10
-21.0
 20
-109.5
 30
0.0
 40
2.0
 50
90.0
 51
180.0
  0
ARC
  8
DETAIL
  6
CONTINUOUS
 62
     5
 10
-18.5
 20
-112.0
 30
0.0
 40
2.0
 50
90.0
 51
180.0
  0
ARC
  8
DETAIL
  6
CONTINUOUS
 62
     5
 10
18.5
 20
-112.0
 30
0.0
 40
2.0
 50
0.0
 51
90.0
  0
ARC
  8
DETAIL
  6
CONTINUOUS
 62
     5
 10
21.0
 20
-109.5
 30
0.0
 40
2.0
 50
0.0
 51
90.0
  0
LINE
  8
DETAIL
  6
CONTINUOUS
 62
     5
 10
-45.057957830767577
 20
23.293389983831091
 30
0.0
 11
-40.67492659857394
 21
30.306428987048829
 31
0.0
  0
LINE
  8
DETAIL
  6
CONTINUOUS
 62
     5
 10
40.502267730925681
 20
30.542155988453501
 30
0.0
 11
44.906925126839312
 21
23.574937008733389
 31
0.0
  0
LINE
  8
DETAIL
  6
CONTINUOUS
 62
     5
 10
-4.000000212153962
 20
-50.562264377112157
 30
0.0
 11
4.0000002121539406
 21
-50.562264377112157
 31
0.0
  0
ENDSEC
  0
EOF
