  0
SECTION
  2
HEADER
  9
$ACADVER
  1
AC1009
  9
$DWGCODEPAGE
  3
dos932
  9
$INSBASE
 10
0.0
 20
0.0
 30
0.0
  9
$EXTMIN
 10
-278.34355721043357
 20
-330.19350010636123
 30
0.0
  9
$EXTMAX
 10
781.48502844711504
 20
400.40447735569637
 30
50.0
  9
$LIMMIN
 10
-2970.0
 20
-2100.0
  9
$LIMMAX
 10
2970.0
 20
2100.0
  9
$ORTHOMODE
 70
     1
  9
$REGENMODE
 70
     1
  9
$FILLMODE
 70
     1
  9
$QTEXTMODE
 70
     0
  9
$MIRRTEXT
 70
     0
  9
$LTSCALE
 40
20.0
  9
$ATTMODE
 70
     1
  9
$TEXTSIZE
 40
64.0
  9
$TRACEWID
 40
0.05
  9
$TEXTSTYLE
  7
STANDARD
  9
$CLAYER
  8
SIZE
  9
$CELTYPE
  6
CONTINUOUS
  9
$CECOLOR
 62
     7
  9
$DIMSCALE
 40
1.0
  9
$DIMASZ
 40
12.0
  9
$DIMEXO
 40
20.0
  9
$DIMDLI
 40
200.0
  9
$DIMRND
 40
0.0
  9
$DIMDLE
 40
0.0
  9
$DIMEXE
 40
20.0
  9
$DIMTP
 40
0.0
  9
$DIMTM
 40
0.0
  9
$DIMTXT
 40
64.0
  9
$DIMCEN
 40
0.09
  9
$DIMTSZ
 40
0.0
  9
$DIMTOL
 70
     0
  9
$DIMLIM
 70
     0
  9
$DIMTIH
 70
     0
  9
$DIMTOH
 70
     0
  9
$DIMSE1
 70
     0
  9
$DIMSE2
 70
     0
  9
$DIMTAD
 70
     1
  9
$DIMZIN
 70
     8
  9
$DIMBLK
  1

  9
$DIMASO
 70
     1
  9
$DIMSHO
 70
     0
  9
$DIMPOST
  1

  9
$DIMAPOST
  1

  9
$DIMALT
 70
     0
  9
$DIMALTD
 70
     2
  9
$DIMALTF
 40
25.399999999999999
  9
$DIMLFAC
 40
1.0
  9
$DIMTOFL
 70
     1
  9
$DIMTVP
 40
0.0
  9
$DIMTIX
 70
     1
  9
$DIMSOXD
 70
     0
  9
$DIMSAH
 70
     0
  9
$DIMBLK1
  1

  9
$DIMBLK2
  1

  9
$DIMSTYLE
  2
STANDARD
  9
$DIMCLRD
 70
     7
  9
$DIMCLRE
 70
     7
  9
$DIMCLRT
 70
     7
  9
$DIMTFAC
 40
1.0
  9
$DIMGAP
 40
25.0
  9
$LUNITS
 70
     2
  9
$LUPREC
 70
     4
  9
$SKETCHINC
 40
0.1
  9
$FILLETRAD
 40
3.0
  9
$AUNITS
 70
     1
  9
$AUPREC
 70
     3
  9
$MENU
  1
ACAD
  9
$ELEVATION
 40
0.0
  9
$PELEVATION
 40
0.0
  9
$THICKNESS
 40
50.0
  9
$LIMCHECK
 70
     0
  9
$CHAMFERA
 40
0.0
  9
$CHAMFERB
 40
0.0
  9
$SKPOLY
 70
     0
  9
$TDCREATE
 40
2453019.623009259
  9
$TDUPDATE
 40
2459356.665233322
  9
$TDINDWG
 40
1.7961198264
  9
$TDUSRTIMER
 40
1.7961198264
  9
$USRTIMER
 70
     1
  9
$ANGBASE
 50
0.0
  9
$ANGDIR
 70
     0
  9
$PDMODE
 70
     3
  9
$PDSIZE
 40
-2.0
  9
$PLINEWID
 40
0.0
  9
$SPLFRAME
 70
     0
  9
$SPLINETYPE
 70
     6
  9
$SPLINESEGS
 70
     8
  9
$SURFTAB1
 70
     6
  9
$SURFTAB2
 70
     6
  9
$SURFTYPE
 70
     6
  9
$SURFU
 70
     6
  9
$SURFV
 70
     6
  9
$UCSNAME
  2

  9
$UCSORG
 10
0.0
 20
0.0
 30
0.0
  9
$UCSXDIR
 10
1.0
 20
0.0
 30
0.0
  9
$UCSYDIR
 10
0.0
 20
1.0
 30
0.0
  9
$PUCSNAME
  2

  9
$PUCSORG
 10
0.0
 20
0.0
 30
0.0
  9
$PUCSXDIR
 10
1.0
 20
0.0
 30
0.0
  9
$PUCSYDIR
 10
0.0
 20
1.0
 30
0.0
  9
$USERI1
 70
     0
  9
$USERI2
 70
     0
  9
$USERI3
 70
     0
  9
$USERI4
 70
     0
  9
$USERI5
 70
     0
  9
$USERR1
 40
20.0
  9
$USERR2
 40
0.0
  9
$USERR3
 40
0.0
  9
$USERR4
 40
0.0
  9
$USERR5
 40
0.0
  9
$WORLDVIEW
 70
     1
  9
$SHADEDGE
 70
     3
  9
$SHADEDIF
 70
    70
  9
$TILEMODE
 70
     1
  9
$MAXACTVP
 70
    48
  9
$PINSBASE
 10
0.0
 20
0.0
 30
0.0
  9
$PLIMCHECK
 70
     0
  9
$PEXTMIN
 10
-100000000000000000000.0
 20
-100000000000000000000.0
 30
-100000000000000000000.0
  9
$PEXTMAX
 10
100000000000000000000.0
 20
100000000000000000000.0
 30
100000000000000000000.0
  9
$PLIMMIN
 10
0.0
 20
0.0
  9
$PLIMMAX
 10
12.0
 20
9.0
  9
$UNITMODE
 70
     0
  9
$VISRETAIN
 70
     0
  9
$PLINEGEN
 70
     0
  9
$PSLTSCALE
 70
     0
  9
$TREEDEPTH
 70
  3020
  9
$ATTDIA
 70
     0
  9
$ATTREQ
 70
     1
  9
$BLIPMODE
 70
     1
  9
$COORDS
 70
     1
  9
$DRAGMODE
 70
     2
  9
$OSMODE
 70
     0
  9
$HANDLING
 70
     0
  9
$HANDSEED
  5
258
  0
ENDSEC
  0
SECTION
  2
TABLES
  0
TABLE
  2
LTYPE
 70
     2
  0
LTYPE
  2
CONTINUOUS
 70
     0
  3
実線
 72
    65
 73
     0
 40
0.0
  0
LTYPE
  2
DASHDOT
 70
     0
  3
____ _ ____ _ ____ _ ____ _ ____ _ ____ _ ____
 72
    65
 73
     4
 40
5.5
 49
4.0
 49
-0.6
 49
0.3
 49
-0.6
  0
ENDTAB
  0
TABLE
  2
LAYER
 70
    12
  0
LAYER
  2
SIZE
 70
     0
 62
    30
  6
CONTINUOUS
  0
LAYER
  2
BASIS
 70
     0
 62
     6
  6
DASHDOT
  0
LAYER
  2
OUTLINE
 70
     0
 62
     3
  6
CONTINUOUS
  0
LAYER
  2
DETAIL
 70
     0
 62
     5
  6
CONTINUOUS
  0
LAYER
  2
ARRANGE
 70
     0
 62
     1
  6
CONTINUOUS
  0
LAYER
  2
DEFPOINTS
 70
     0
 62
     7
  6
CONTINUOUS
  0
LAYER
  2
ETC
 70
     0
 62
    61
  6
CONTINUOUS
  0
LAYER
  2
0
 70
    64
 62
     7
  6
CONTINUOUS
  0
LAYER
  2
FIX
 70
    64
 62
    11
  6
CONTINUOUS
  0
LAYER
  2
NOTE
 70
    64
 62
     4
  6
CONTINUOUS
  0
LAYER
  2
SERVICESPACE
 70
    64
 62
     2
  6
DASHDOT
  0
LAYER
  2
SYMBOLLINE
 70
    64
 62
    15
  6
CONTINUOUS
  0
ENDTAB
  0
TABLE
  2
STYLE
 70
     1
  0
STYLE
  2
STANDARD
 70
     0
 40
64.0
 41
0.9
 50
0.0
 71
     0
 42
64.0
  3
SIMPLEX.shx
  4
BIGFONT.shx
  0
ENDTAB
  0
TABLE
  2
APPID
 70
    18
  0
APPID
  2
ACAD
 70
     0
  0
APPID
  2
ACADANNOTATIVE
 70
     0
  0
APPID
  2
AUTOCAD_POSTSCRIPT_FIGURE
 70
     0
  0
APPID
  2
ACAD_EXEMPT_FROM_CAD_STANDARDS
 70
     0
  0
APPID
  2
ACAD_PSEXT
 70
     0
  0
APPID
  2
ACAUTHENVIRON
 70
     0
  0
APPID
  2
GENIUS_GENOENT_13
 70
     0
  0
APPID
  2
GENIUS_GENCFG_13
 70
     0
  0
APPID
  2
GENIUS_GENCFG0_13
 70
     0
  0
APPID
  2
GENIUS_GENCFG1_13
 70
     0
  0
APPID
  2
GENIUS_GENCFG2_13
 70
     0
  0
APPID
  2
GENIUS_GENCFG3_13
 70
     0
  0
APPID
  2
GENIUS_GENCFG4_13
 70
     0
  0
APPID
  2
GENIUS_GEVCFG0_13
 70
     0
  0
APPID
  2
CONTENTBLOCKICON
 70
     0
  0
APPID
  2
CONTENTBLOCKDESCRIPTION
 70
     0
  0
APPID
  2
ACAD_NAV_VCDISPLAY
 70
     0
  0
APPID
  2
ACAD_MLEADERVER
 70
     0
  0
ENDTAB
  0
TABLE
  2
DIMSTYLE
 70
     1
  0
DIMSTYLE
  2
STANDARD
 70
     0
  3

  4

  5

  6

  7

 40
1.0
 41
12.0
 42
20.0
 43
200.0
 44
20.0
 45
0.0
 46
0.0
 47
0.0
 48
0.0
140
64.0
141
0.09
142
0.0
143
25.399999999999999
144
1.0
145
0.0
146
1.0
147
25.0
 71
     0
 72
     0
 73
     0
 74
     0
 75
     0
 76
     0
 77
     1
 78
     8
170
     0
171
     2
172
     1
173
     0
174
     1
175
     0
176
     7
177
     7
178
     7
  0
ENDTAB
  0
TABLE
  2
VIEW
 70
     1
  0
VIEW
  2
ALL
 70
     0
 40
4282.6198079999986
 10
0.0
 20
41.309904000000003
 41
5940.0
 11
0.0
 21
0.0
 31
1.0
 12
0.0
 22
0.0
 32
0.0
 42
50.0
 43
0.0
 44
0.0
 50
0.0
 71
     0
  0
ENDTAB
  0
TABLE
  2
UCS
 70
     0
  0
ENDTAB
  0
TABLE
  2
VPORT
 70
     1
  0
VPORT
  2
*ACTIVE
 70
     0
 10
0.0
 20
0.0
 11
1.0
 21
1.0
 12
439.14517578776127
 22
35.0875952689521
 13
0.0
 23
0.0
 14
1.0
 24
1.0
 15
0.0
 25
0.0
 16
0.0
 26
0.0
 36
1.0
 17
0.0
 27
0.0
 37
0.0
 40
816.03319380128221
 41
1.767337807606264
 42
50.0
 43
0.0
 44
0.0
 50
0.0
 51
0.0
 71
     0
 72
  1000
 73
     1
 74
     0
 75
     0
 76
     0
 77
     0
 78
     0
  0
ENDTAB
  0
ENDSEC
  0
SECTION
  2
BLOCKS
  0
ENDSEC
  0
SECTION
  2
ENTITIES
  0
TEXT
  8
ETC
  6
CONTINUOUS
 62
    61
 10
169.82788558997211
 20
336.40447735569637
 30
0.0
 40
64.0
  1
V-12PEHD7_2
 41
0.9
  0
TEXT
  8
ETC
  6
CONTINUOUS
 62
    61
 10
165.64189158997169
 20
218.44916734086519
 30
0.0
 40
64.0
  1
換気扇
 41
0.9
  0
TEXT
  8
ETC
  6
CONTINUOUS
 62
    61
 10
216.34328983852771
 20
110.3003944546399
 30
0.0
 40
40.0
  1
V-12PEHD7
 41
0.9
  0
LINE
  8
DETAIL
  6
CONTINUOUS
 62
     5
 10
114.57898400000001
 20
-78.655272999999966
 30
0.0
 11
114.59460799999999
 21
-78.655272999999966
 31
0.0
  0
LINE
  8
DETAIL
  6
CONTINUOUS
 62
     5
 10
-114.59460799999999
 20
-78.655272999999966
 30
0.0
 11
-114.57898400000001
 21
-78.655272999999966
 31
0.0
  0
LINE
  8
DETAIL
  6
CONTINUOUS
 62
     5
 10
-114.64202299999999
 20
100.717354
 30
0.0
 11
-114.64203500000011
 21
100.717184
 31
0.0
  0
ARC
  8
DETAIL
  6
CONTINUOUS
 62
     5
 10
113.499313
 20
103.499313
 30
0.0
 40
1.500687
 50
0.0
 51
90.0
  0
LINE
  8
DETAIL
  6
CONTINUOUS
 62
     5
 10
55.075204999999983
 20
104.93627600000001
 30
0.0
 11
44.970581000000038
 21
104.93627600000001
 31
0.0
  0
ARC
  8
DETAIL
  6
CONTINUOUS
 62
     5
 10
55.525411000000076
 20
106.464529
 30
0.0
 40
2.501145
 50
0.0
 51
90.0
  0
LINE
  8
DETAIL
  6
CONTINUOUS
 62
     5
 10
54.423389000000043
 20
108.96567400000001
 30
0.0
 11
55.525411000000076
 21
108.96567400000001
 31
0.0
  0
LINE
  8
DETAIL
  6
CONTINUOUS
 62
     5
 10
55.125486000000024
 20
104.959129
 30
0.0
 11
57.930841999999977
 21
104.959129
 31
0.0
  0
LINE
  8
DETAIL
  6
CONTINUOUS
 62
     5
 10
58.026556000000021
 20
106.464529
 30
0.0
 11
58.026556000000021
 21
105.0
 31
0.0
  0
LINE
  8
DETAIL
  6
CONTINUOUS
 62
     5
 10
58.020741999999927
 20
104.999989
 30
0.0
 11
57.930841999999977
 21
104.959129
 31
0.0
  0
LINE
  8
DETAIL
  6
CONTINUOUS
 62
     5
 10
55.125486000000024
 20
104.959129
 30
0.0
 11
55.075204999999983
 21
104.93627600000001
 31
0.0
  0
LINE
  8
DETAIL
  6
CONTINUOUS
 62
     5
 10
113.499313
 20
105.0
 30
0.0
 11
58.020792000000021
 21
105.0
 31
0.0
  0
LINE
  8
DETAIL
  6
CONTINUOUS
 62
     5
 10
42.024992999999988
 20
105.0
 30
0.0
 11
-42.024992999999988
 21
105.0
 31
0.0
  0
ARC
  8
DETAIL
  6
CONTINUOUS
 62
     5
 10
44.520375000000058
 20
106.464529
 30
0.0
 40
2.501145
 50
90.0
 51
180.0
  0
LINE
  8
DETAIL
  6
CONTINUOUS
 62
     5
 10
44.520375000000058
 20
108.96567400000001
 30
0.0
 11
45.622395999999981
 21
108.96567400000001
 31
0.0
  0
LINE
  8
DETAIL
  6
CONTINUOUS
 62
     5
 10
42.114943999999923
 20
104.959129
 30
0.0
 11
44.920299999999997
 21
104.959129
 31
0.0
  0
LINE
  8
DETAIL
  6
CONTINUOUS
 62
     5
 10
44.920299999999997
 20
104.959129
 30
0.0
 11
44.970581000000038
 21
104.93627600000001
 31
0.0
  0
LINE
  8
DETAIL
  6
CONTINUOUS
 62
     5
 10
42.114943999999923
 20
104.959129
 30
0.0
 11
42.025042999999982
 21
104.999989
 31
0.0
  0
LINE
  8
DETAIL
  6
CONTINUOUS
 62
     5
 10
42.019229999999993
 20
105.0
 30
0.0
 11
42.019229999999993
 21
106.464529
 31
0.0
  0
LINE
  8
DETAIL
  6
CONTINUOUS
 62
     5
 10
-44.920299999999997
 20
104.959129
 30
0.0
 11
-42.114943999999923
 21
104.959129
 31
0.0
  0
LINE
  8
DETAIL
  6
CONTINUOUS
 62
     5
 10
-55.075204999999983
 20
104.93627600000001
 30
0.0
 11
-44.970581000000038
 21
104.93627600000001
 31
0.0
  0
LINE
  8
DETAIL
  6
CONTINUOUS
 62
     5
 10
-44.920299999999997
 20
104.959129
 30
0.0
 11
-44.970581000000038
 21
104.93627600000001
 31
0.0
  0
ARC
  8
DETAIL
  6
CONTINUOUS
 62
     5
 10
-44.520375000000058
 20
106.464529
 30
0.0
 40
2.501145
 50
0.0
 51
90.0
  0
LINE
  8
DETAIL
  6
CONTINUOUS
 62
     5
 10
-45.622395999999981
 20
108.96567400000001
 30
0.0
 11
-44.520375000000058
 21
108.96567400000001
 31
0.0
  0
LINE
  8
DETAIL
  6
CONTINUOUS
 62
     5
 10
-42.019229999999993
 20
106.464529
 30
0.0
 11
-42.019229999999993
 21
105.0
 31
0.0
  0
LINE
  8
DETAIL
  6
CONTINUOUS
 62
     5
 10
-42.025042999999982
 20
104.999989
 30
0.0
 11
-42.114943999999923
 21
104.959129
 31
0.0
  0
LINE
  8
DETAIL
  6
CONTINUOUS
 62
     5
 10
-55.125486000000024
 20
104.959129
 30
0.0
 11
-55.075204999999983
 21
104.93627600000001
 31
0.0
  0
LINE
  8
DETAIL
  6
CONTINUOUS
 62
     5
 10
-58.026556000000021
 20
105.0
 30
0.0
 11
-58.026556000000021
 21
106.464529
 31
0.0
  0
LINE
  8
DETAIL
  6
CONTINUOUS
 62
     5
 10
-58.020792000000021
 20
105.0
 30
0.0
 11
-113.499313
 21
105.0
 31
0.0
  0
LINE
  8
DETAIL
  6
CONTINUOUS
 62
     5
 10
-57.930841999999977
 20
104.959129
 30
0.0
 11
-55.125486000000024
 21
104.959129
 31
0.0
  0
LINE
  8
DETAIL
  6
CONTINUOUS
 62
     5
 10
-57.930841999999977
 20
104.959129
 30
0.0
 11
-58.020741999999927
 21
104.999989
 31
0.0
  0
ARC
  8
DETAIL
  6
CONTINUOUS
 62
     5
 10
-55.525411000000076
 20
106.464529
 30
0.0
 40
2.501145
 50
90.0
 51
180.0
  0
LINE
  8
DETAIL
  6
CONTINUOUS
 62
     5
 10
-55.525411000000076
 20
108.96567400000001
 30
0.0
 11
-54.423389000000043
 21
108.96567400000001
 31
0.0
  0
ARC
  8
DETAIL
  6
CONTINUOUS
 62
     5
 10
-113.499313
 20
103.499313
 30
0.0
 40
1.500687
 50
90.0
 51
180.0
  0
LINE
  8
DETAIL
  6
CONTINUOUS
 62
     5
 10
-115.0
 20
103.499313
 30
0.0
 11
-115.0
 21
-123.499313
 31
0.0
  0
LINE
  8
DETAIL
  6
CONTINUOUS
 62
     5
 10
-96.74253299999998
 20
-86.521311999999966
 30
0.0
 11
-99.804051999999956
 21
-85.8399
 31
0.0
  0
LINE
  8
DETAIL
  6
CONTINUOUS
 62
     5
 10
-99.804051999999956
 20
-85.8399
 30
0.0
 11
-103.12003199999999
 21
-84.967023999999981
 31
0.0
  0
LINE
  8
DETAIL
  6
CONTINUOUS
 62
     5
 10
-103.12003199999999
 20
-84.967023999999981
 30
0.0
 11
-106.58869
 21
-83.897713000000024
 31
0.0
  0
LINE
  8
DETAIL
  6
CONTINUOUS
 62
     5
 10
-94.043034000000034
 20
-87.025941999999986
 30
0.0
 11
-94.043036000000043
 21
-121.19497
 31
0.0
  0
LINE
  8
DETAIL
  6
CONTINUOUS
 62
     5
 10
93.433299000000034
 20
-86.882818999999984
 30
0.0
 11
-93.433299000000034
 21
-86.882805000000033
 31
0.0
  0
LINE
  8
DETAIL
  6
CONTINUOUS
 62
     5
 10
-93.824546999999939
 20
-86.908296000000007
 30
0.0
 11
-93.863646000000003
 21
-86.915674999999965
 31
0.0
  0
LINE
  8
DETAIL
  6
CONTINUOUS
 62
     5
 10
-93.863646000000003
 20
-86.915674999999965
 30
0.0
 11
-93.900087999999982
 21
-86.924199999999985
 31
0.0
  0
LINE
  8
DETAIL
  6
CONTINUOUS
 62
     5
 10
-93.425162
 20
-86.882218999999964
 30
0.0
 11
-93.49979600000006
 21
-86.882870000000025
 31
0.0
  0
LINE
  8
DETAIL
  6
CONTINUOUS
 62
     5
 10
-93.49979600000006
 20
-86.882870000000025
 30
0.0
 11
-93.567753000000039
 21
-86.884726999999998
 31
0.0
  0
LINE
  8
DETAIL
  6
CONTINUOUS
 62
     5
 10
-93.567753000000039
 20
-86.884726999999998
 30
0.0
 11
-93.629419999999982
 21
-86.887653999999998
 31
0.0
  0
LINE
  8
DETAIL
  6
CONTINUOUS
 62
     5
 10
-93.629419999999982
 20
-86.887653999999998
 30
0.0
 11
-93.685307999999964
 21
-86.891533999999979
 31
0.0
  0
LINE
  8
DETAIL
  6
CONTINUOUS
 62
     5
 10
-93.685307999999964
 20
-86.891533999999979
 30
0.0
 11
-93.736024999999927
 21
-86.89628399999998
 31
0.0
  0
LINE
  8
DETAIL
  6
CONTINUOUS
 62
     5
 10
-93.736024999999927
 20
-86.89628399999998
 30
0.0
 11
-93.782218999999941
 21
-86.901864999999987
 31
0.0
  0
LINE
  8
DETAIL
  6
CONTINUOUS
 62
     5
 10
-93.782218999999941
 20
-86.901864999999987
 30
0.0
 11
-93.824546999999939
 21
-86.908296000000007
 31
0.0
  0
LINE
  8
DETAIL
  6
CONTINUOUS
 62
     5
 10
-93.900087999999982
 20
-86.924199999999985
 30
0.0
 11
-93.934958999999921
 21
-86.934434000000024
 31
0.0
  0
LINE
  8
DETAIL
  6
CONTINUOUS
 62
     5
 10
-93.934958999999921
 20
-86.934434000000024
 30
0.0
 11
-93.968380000000025
 21
-86.947127000000023
 31
0.0
  0
LINE
  8
DETAIL
  6
CONTINUOUS
 62
     5
 10
-94.043034000000034
 20
-87.029057999999964
 30
0.0
 11
-96.74253299999998
 21
-86.521311999999966
 31
0.0
  0
LINE
  8
DETAIL
  6
CONTINUOUS
 62
     5
 10
-93.968380000000025
 20
-86.947127000000023
 30
0.0
 11
-93.997799999999984
 21
-86.962330000000023
 31
0.0
  0
LINE
  8
DETAIL
  6
CONTINUOUS
 62
     5
 10
-93.997799999999984
 20
-86.962330000000023
 30
0.0
 11
-94.021387000000004
 21
-86.980311000000043
 31
0.0
  0
LINE
  8
DETAIL
  6
CONTINUOUS
 62
     5
 10
-94.021387000000004
 20
-86.980311000000043
 30
0.0
 11
-94.037405000000035
 21
-87.001813999999968
 31
0.0
  0
LINE
  8
DETAIL
  6
CONTINUOUS
 62
     5
 10
-94.037405000000035
 20
-87.001813999999968
 30
0.0
 11
-94.043034000000034
 21
-87.025941999999986
 31
0.0
  0
LINE
  8
DETAIL
  6
CONTINUOUS
 62
     5
 10
-110.110124
 20
-82.640550000000033
 30
0.0
 11
-113.708736
 21
-81.170137000000025
 31
0.0
  0
LINE
  8
DETAIL
  6
CONTINUOUS
 62
     5
 10
-106.58869
 20
-83.897713000000024
 30
0.0
 11
-110.110124
 21
-82.640550000000033
 31
0.0
  0
LINE
  8
DETAIL
  6
CONTINUOUS
 62
     5
 10
-114.08392499999999
 20
-80.944349999999986
 30
0.0
 11
-114.208423
 21
-80.834594999999979
 31
0.0
  0
LINE
  8
DETAIL
  6
CONTINUOUS
 62
     5
 10
-113.95795099999999
 20
-81.034789999999987
 30
0.0
 11
-114.08392499999999
 21
-80.944349999999986
 31
0.0
  0
LINE
  8
DETAIL
  6
CONTINUOUS
 62
     5
 10
-114.208423
 20
-80.834594999999979
 30
0.0
 11
-114.32736300000001
 21
-80.702349000000012
 31
0.0
  0
LINE
  8
DETAIL
  6
CONTINUOUS
 62
     5
 10
-114.32736300000001
 20
-80.702349000000012
 30
0.0
 11
-114.433228
 21
-80.547001000000023
 31
0.0
  0
LINE
  8
DETAIL
  6
CONTINUOUS
 62
     5
 10
-114.51661300000001
 20
-80.372346999999976
 30
0.0
 11
-114.5700469999999
 21
-80.184788000000026
 31
0.0
  0
LINE
  8
DETAIL
  6
CONTINUOUS
 62
     5
 10
-114.433228
 20
-80.547001000000023
 30
0.0
 11
-114.51661300000001
 21
-80.372346999999976
 31
0.0
  0
LINE
  8
DETAIL
  6
CONTINUOUS
 62
     5
 10
-114.5700469999999
 20
-80.184788000000026
 30
0.0
 11
-114.58947000000001
 21
-79.992079999999987
 31
0.0
  0
LINE
  8
DETAIL
  6
CONTINUOUS
 62
     5
 10
-113.8326999999999
 20
-81.109078999999994
 30
0.0
 11
-113.95795099999999
 21
-81.034789999999987
 31
0.0
  0
LINE
  8
DETAIL
  6
CONTINUOUS
 62
     5
 10
-113.708736
 20
-81.170137000000025
 30
0.0
 11
-113.8326999999999
 21
-81.109078999999994
 31
0.0
  0
LINE
  8
DETAIL
  6
CONTINUOUS
 62
     5
 10
94.043036000000043
 20
-121.19497
 30
0.0
 11
-94.043036000000043
 21
-121.19497
 31
0.0
  0
LINE
  8
DETAIL
  6
CONTINUOUS
 62
     5
 10
-113.499313
 20
-125.0
 30
0.0
 11
-10.302107999999979
 21
-125.0
 31
0.0
  0
LINE
  8
DETAIL
  6
CONTINUOUS
 62
     5
 10
-94.04297700000005
 20
-120.46998600000011
 30
0.0
 11
-94.043036000000043
 21
-120.464101
 31
0.0
  0
LINE
  8
DETAIL
  6
CONTINUOUS
 62
     5
 10
-94.042816999999999
 20
-120.475848
 30
0.0
 11
-94.04297700000005
 21
-120.46998600000011
 31
0.0
  0
LINE
  8
DETAIL
  6
CONTINUOUS
 62
     5
 10
-94.042552999999998
 20
-120.48169
 30
0.0
 11
-94.042816999999999
 21
-120.475848
 31
0.0
  0
ARC
  8
DETAIL
  6
CONTINUOUS
 62
     5
 10
-113.499313
 20
-123.499313
 30
0.0
 40
1.500687
 50
180.0
 51
270.0
  0
LINE
  8
DETAIL
  6
CONTINUOUS
 62
     5
 10
-94.043036000000043
 20
-121.19497
 30
0.0
 11
-112.141111
 21
-123.587625
 31
0.0
  0
LINE
  8
DETAIL
  6
CONTINUOUS
 62
     5
 10
67.030675999999971
 20
-125.0
 30
0.0
 11
113.499313
 21
-125.0
 31
0.0
  0
LINE
  8
DETAIL
  6
CONTINUOUS
 62
     5
 10
-10.12423000000001
 20
-124.83181
 30
0.0
 11
-10.13486599999999
 21
-124.8327469999999
 31
0.0
  0
LINE
  8
DETAIL
  6
CONTINUOUS
 62
     5
 10
-10.302107999999979
 20
-124.9999889999999
 30
0.0
 11
-10.13486599999999
 21
-124.8327469999999
 31
0.0
  0
LINE
  8
DETAIL
  6
CONTINUOUS
 62
     5
 10
10.13486599999999
 20
-124.8327469999999
 30
0.0
 11
10.12423000000001
 21
-124.83181
 31
0.0
  0
LINE
  8
DETAIL
  6
CONTINUOUS
 62
     5
 10
35.016025000000013
 20
-124.98953400000001
 30
0.0
 11
35.033071000000049
 21
-124.9906639999999
 31
0.0
  0
LINE
  8
DETAIL
  6
CONTINUOUS
 62
     5
 10
20.009156999999959
 20
-124.98953400000001
 30
0.0
 11
20.02620300000001
 21
-124.9906639999999
 31
0.0
  0
LINE
  8
DETAIL
  6
CONTINUOUS
 62
     5
 10
10.09586899999999
 20
-124.831035
 30
0.0
 11
10.09175600000003
 21
-124.830843
 31
0.0
  0
LINE
  8
DETAIL
  6
CONTINUOUS
 62
     5
 10
10.109204999999969
 20
-124.83144900000001
 30
0.0
 11
10.11021400000004
 21
-124.8314909999999
 31
0.0
  0
LINE
  8
DETAIL
  6
CONTINUOUS
 62
     5
 10
10.104039999999941
 20
-124.83126799999999
 30
0.0
 11
10.109204999999969
 21
-124.83144900000001
 31
0.0
  0
LINE
  8
DETAIL
  6
CONTINUOUS
 62
     5
 10
10.09586899999999
 20
-124.831035
 30
0.0
 11
10.104039999999941
 21
-124.83126799999999
 31
0.0
  0
LINE
  8
DETAIL
  6
CONTINUOUS
 62
     5
 10
10.12423000000001
 20
-124.83181
 30
0.0
 11
10.104039999999941
 21
-124.83126799999999
 31
0.0
  0
LINE
  8
DETAIL
  6
CONTINUOUS
 62
     5
 10
10.07201499999996
 20
-124.83051500000001
 30
0.0
 11
10.09586899999999
 21
-124.831035
 31
0.0
  0
LINE
  8
DETAIL
  6
CONTINUOUS
 62
     5
 10
35.033071000000049
 20
-124.9906639999999
 30
0.0
 11
35.08304499999997
 21
-124.99171699999999
 31
0.0
  0
LINE
  8
DETAIL
  6
CONTINUOUS
 62
     5
 10
20.02620300000001
 20
-124.9906639999999
 30
0.0
 11
20.076178000000031
 21
-124.99171699999999
 31
0.0
  0
LINE
  8
DETAIL
  6
CONTINUOUS
 62
     5
 10
10.037736999999989
 20
-124.829973
 30
0.0
 11
10.07201499999996
 21
-124.83051500000001
 31
0.0
  0
LINE
  8
DETAIL
  6
CONTINUOUS
 62
     5
 10
35.08304499999997
 20
-124.99171699999999
 30
0.0
 11
35.162543000000028
 21
-124.992621
 31
0.0
  0
LINE
  8
DETAIL
  6
CONTINUOUS
 62
     5
 10
20.076178000000031
 20
-124.99171699999999
 30
0.0
 11
20.15567499999997
 21
-124.992621
 31
0.0
  0
LINE
  8
DETAIL
  6
CONTINUOUS
 62
     5
 10
9.967096000000083
 20
-124.8291830000001
 30
0.0
 11
10.037736999999989
 21
-124.829973
 31
0.0
  0
LINE
  8
DETAIL
  6
CONTINUOUS
 62
     5
 10
9.967096000000083
 20
-124.8291830000001
 30
0.0
 11
9.955574999999952
 21
-124.829058
 31
0.0
  0
LINE
  8
DETAIL
  6
CONTINUOUS
 62
     5
 10
10.09175600000003
 20
-124.830843
 30
0.0
 11
10.085187000000021
 21
-124.83077900000001
 31
0.0
  0
LINE
  8
DETAIL
  6
CONTINUOUS
 62
     5
 10
9.800062000000024
 20
-124.8281039999999
 30
0.0
 11
9.967096000000083
 21
-124.8291830000001
 31
0.0
  0
LINE
  8
DETAIL
  6
CONTINUOUS
 62
     5
 10
35.162543000000028
 20
-124.992621
 30
0.0
 11
35.386788000000017
 21
-124.993751
 31
0.0
  0
LINE
  8
DETAIL
  6
CONTINUOUS
 62
     5
 10
20.15567499999997
 20
-124.992621
 30
0.0
 11
20.37992000000008
 21
-124.993751
 31
0.0
  0
LINE
  8
DETAIL
  6
CONTINUOUS
 62
     5
 10
9.800062000000024
 20
-124.8281039999999
 30
0.0
 11
9.762852999999948
 21
-124.82795900000001
 31
0.0
  0
LINE
  8
DETAIL
  6
CONTINUOUS
 62
     5
 10
-9.779737000000067
 20
-124.82802100000001
 30
0.0
 11
9.800062000000024
 21
-124.8281039999999
 31
0.0
  0
LINE
  8
DETAIL
  6
CONTINUOUS
 62
     5
 10
35.386788000000017
 20
-124.993751
 30
0.0
 11
66.659914000000072
 21
-124.993751
 31
0.0
  0
LINE
  8
DETAIL
  6
CONTINUOUS
 62
     5
 10
20.37992000000008
 20
-124.993751
 30
0.0
 11
34.145033000000012
 21
-124.993751
 31
0.0
  0
LINE
  8
DETAIL
  6
CONTINUOUS
 62
     5
 10
34.515796000000023
 20
-125.0
 30
0.0
 11
35.016025000000013
 21
-125.0
 31
0.0
  0
LINE
  8
DETAIL
  6
CONTINUOUS
 62
     5
 10
10.302107999999979
 20
-125.0
 30
0.0
 11
20.009156999999959
 21
-125.0
 31
0.0
  0
LINE
  8
DETAIL
  6
CONTINUOUS
 62
     5
 10
-9.504349999999933
 20
-125.9340030000001
 30
0.0
 11
9.504349999999933
 21
-125.9340030000001
 31
0.0
  0
LINE
  8
DETAIL
  6
CONTINUOUS
 62
     5
 10
34.145033000000012
 20
-124.993751
 30
0.0
 11
34.369278000000008
 21
-124.992621
 31
0.0
  0
LINE
  8
DETAIL
  6
CONTINUOUS
 62
     5
 10
66.659914000000072
 20
-124.993751
 30
0.0
 11
66.884158999999954
 21
-124.992621
 31
0.0
  0
LINE
  8
DETAIL
  6
CONTINUOUS
 62
     5
 10
-9.965447999999924
 20
-124.829168
 30
0.0
 11
-9.779737000000067
 21
-124.82802100000001
 31
0.0
  0
LINE
  8
DETAIL
  6
CONTINUOUS
 62
     5
 10
34.369278000000008
 20
-124.992621
 30
0.0
 11
34.448775999999953
 21
-124.99171699999999
 31
0.0
  0
LINE
  8
DETAIL
  6
CONTINUOUS
 62
     5
 10
66.884158999999954
 20
-124.992621
 30
0.0
 11
66.963656000000015
 21
-124.99171699999999
 31
0.0
  0
LINE
  8
DETAIL
  6
CONTINUOUS
 62
     5
 10
-10.05972999999994
 20
-124.830303
 30
0.0
 11
-9.965447999999924
 21
-124.829168
 31
0.0
  0
LINE
  8
DETAIL
  6
CONTINUOUS
 62
     5
 10
-10.07558599999993
 20
-124.83058200000001
 30
0.0
 11
-10.09175600000003
 21
-124.830843
 31
0.0
  0
LINE
  8
DETAIL
  6
CONTINUOUS
 62
     5
 10
-10.07558599999993
 20
-124.83058200000001
 30
0.0
 11
-10.05972999999994
 21
-124.830303
 31
0.0
  0
LINE
  8
DETAIL
  6
CONTINUOUS
 62
     5
 10
34.448775999999953
 20
-124.99171699999999
 30
0.0
 11
34.498749999999973
 21
-124.9906639999999
 31
0.0
  0
LINE
  8
DETAIL
  6
CONTINUOUS
 62
     5
 10
66.963656000000015
 20
-124.99171699999999
 30
0.0
 11
67.013631000000032
 21
-124.9906639999999
 31
0.0
  0
LINE
  8
DETAIL
  6
CONTINUOUS
 62
     5
 10
-10.11051099999997
 20
-124.831501
 30
0.0
 11
-10.12423000000001
 21
-124.83181
 31
0.0
  0
LINE
  8
DETAIL
  6
CONTINUOUS
 62
     5
 10
-10.09872700000005
 20
-124.8311120000001
 30
0.0
 11
-10.07558599999993
 21
-124.83058200000001
 31
0.0
  0
LINE
  8
DETAIL
  6
CONTINUOUS
 62
     5
 10
-10.106089000000001
 20
-124.8313350000001
 30
0.0
 11
-10.09872700000005
 21
-124.8311120000001
 31
0.0
  0
LINE
  8
DETAIL
  6
CONTINUOUS
 62
     5
 10
-10.11051099999997
 20
-124.831501
 30
0.0
 11
-10.11020800000006
 21
-124.8314909999999
 31
0.0
  0
LINE
  8
DETAIL
  6
CONTINUOUS
 62
     5
 10
-10.11020800000006
 20
-124.8314909999999
 30
0.0
 11
-10.106089000000001
 21
-124.8313350000001
 31
0.0
  0
LINE
  8
DETAIL
  6
CONTINUOUS
 62
     5
 10
-10.09175600000003
 20
-124.830843
 30
0.0
 11
-10.09872700000005
 21
-124.8311120000001
 31
0.0
  0
LINE
  8
DETAIL
  6
CONTINUOUS
 62
     5
 10
-10.109527000000069
 20
-124.83143700000009
 30
0.0
 11
-10.11051099999997
 21
-124.831501
 31
0.0
  0
LINE
  8
DETAIL
  6
CONTINUOUS
 62
     5
 10
34.498749999999973
 20
-124.9906639999999
 30
0.0
 11
34.515796000000023
 21
-124.98953400000001
 31
0.0
  0
LINE
  8
DETAIL
  6
CONTINUOUS
 62
     5
 10
67.013631000000032
 20
-124.9906639999999
 30
0.0
 11
67.030675999999971
 21
-124.98953400000001
 31
0.0
  0
LINE
  8
DETAIL
  6
CONTINUOUS
 62
     5
 10
10.13486599999999
 20
-124.8327469999999
 30
0.0
 11
10.302107999999979
 21
-124.9999889999999
 31
0.0
  0
LINE
  8
DETAIL
  6
CONTINUOUS
 62
     5
 10
9.504349999999933
 20
-124.8275630000001
 30
0.0
 11
9.504349999999933
 21
-125.9340030000001
 31
0.0
  0
LINE
  8
DETAIL
  6
CONTINUOUS
 62
     5
 10
-9.504349999999933
 20
-124.8275630000001
 30
0.0
 11
-9.504349999999933
 21
-125.9340030000001
 31
0.0
  0
LINE
  8
DETAIL
  6
CONTINUOUS
 62
     5
 10
114.20683099999999
 20
-80.836157000000014
 30
0.0
 11
114.082474
 21
-80.945497000000003
 31
0.0
  0
LINE
  8
DETAIL
  6
CONTINUOUS
 62
     5
 10
113.70860500000001
 20
-81.170194999999978
 30
0.0
 11
110.114968
 21
-82.638697999999977
 31
0.0
  0
LINE
  8
DETAIL
  6
CONTINUOUS
 62
     5
 10
114.082474
 20
-80.945497000000003
 30
0.0
 11
113.956889
 21
-81.035480000000007
 31
0.0
  0
LINE
  8
DETAIL
  6
CONTINUOUS
 62
     5
 10
113.956889
 20
-81.035480000000007
 30
0.0
 11
113.83214
 21
-81.109379999999987
 31
0.0
  0
LINE
  8
DETAIL
  6
CONTINUOUS
 62
     5
 10
113.83214
 20
-81.109379999999987
 30
0.0
 11
113.70860500000001
 21
-81.170194999999978
 31
0.0
  0
LINE
  8
DETAIL
  6
CONTINUOUS
 62
     5
 10
114.5161419999999
 20
-80.373581000000001
 30
0.0
 11
114.432261
 21
-80.548667000000023
 31
0.0
  0
LINE
  8
DETAIL
  6
CONTINUOUS
 62
     5
 10
114.432261
 20
-80.548667000000023
 30
0.0
 11
114.325952
 21
-80.704131000000032
 31
0.0
  0
LINE
  8
DETAIL
  6
CONTINUOUS
 62
     5
 10
114.325952
 20
-80.704131000000032
 30
0.0
 11
114.20683099999999
 21
-80.836157000000014
 31
0.0
  0
LINE
  8
DETAIL
  6
CONTINUOUS
 62
     5
 10
114.56992700000001
 20
-80.185408999999979
 30
0.0
 11
114.5161419999999
 21
-80.373581000000001
 31
0.0
  0
LINE
  8
DETAIL
  6
CONTINUOUS
 62
     5
 10
110.114968
 20
-82.638697999999977
 30
0.0
 11
106.59410200000001
 21
-83.895915000000002
 31
0.0
  0
LINE
  8
DETAIL
  6
CONTINUOUS
 62
     5
 10
106.59410200000001
 20
-83.895915000000002
 30
0.0
 11
103.123372
 21
-84.966071999999983
 31
0.0
  0
LINE
  8
DETAIL
  6
CONTINUOUS
 62
     5
 10
103.123372
 20
-84.966071999999983
 30
0.0
 11
99.804456999999957
 21
-85.83980200000002
 31
0.0
  0
LINE
  8
DETAIL
  6
CONTINUOUS
 62
     5
 10
114.58947000000001
 20
-79.992078999999976
 30
0.0
 11
114.56992700000001
 21
-80.185408999999979
 31
0.0
  0
LINE
  8
DETAIL
  6
CONTINUOUS
 62
     5
 10
94.043034000000034
 20
-87.025941999999986
 30
0.0
 11
94.043036000000043
 21
-121.19497
 31
0.0
  0
LINE
  8
DETAIL
  6
CONTINUOUS
 62
     5
 10
94.043034000000034
 20
-87.025941999999986
 30
0.0
 11
94.037684999999996
 21
-87.002399999999966
 31
0.0
  0
LINE
  8
DETAIL
  6
CONTINUOUS
 62
     5
 10
94.037684999999996
 20
-87.002399999999966
 30
0.0
 11
94.021901999999969
 21
-86.980814000000024
 31
0.0
  0
LINE
  8
DETAIL
  6
CONTINUOUS
 62
     5
 10
96.741089000000002
 20
-86.52160600000002
 30
0.0
 11
94.043034000000034
 21
-87.029087000000004
 31
0.0
  0
LINE
  8
DETAIL
  6
CONTINUOUS
 62
     5
 10
99.804456999999957
 20
-85.83980200000002
 30
0.0
 11
96.741089000000002
 21
-86.52160600000002
 31
0.0
  0
LINE
  8
DETAIL
  6
CONTINUOUS
 62
     5
 10
94.021901999999969
 20
-86.980814000000024
 30
0.0
 11
93.998082999999966
 21
-86.962505000000021
 31
0.0
  0
LINE
  8
DETAIL
  6
CONTINUOUS
 62
     5
 10
93.998082999999966
 20
-86.962505000000021
 30
0.0
 11
93.968930999999998
 21
-86.947368999999981
 31
0.0
  0
LINE
  8
DETAIL
  6
CONTINUOUS
 62
     5
 10
93.968930999999998
 20
-86.947368999999981
 30
0.0
 11
93.936081999999942
 21
-86.934806999999964
 31
0.0
  0
LINE
  8
DETAIL
  6
CONTINUOUS
 62
     5
 10
93.936081999999942
 20
-86.934806999999964
 30
0.0
 11
93.901086999999961
 21
-86.924460999999994
 31
0.0
  0
LINE
  8
DETAIL
  6
CONTINUOUS
 62
     5
 10
93.901086999999961
 20
-86.924460999999994
 30
0.0
 11
93.864510999999993
 21
-86.91585699999996
 31
0.0
  0
LINE
  8
DETAIL
  6
CONTINUOUS
 62
     5
 10
93.864510999999993
 20
-86.91585699999996
 30
0.0
 11
93.825603000000001
 21
-86.908475999999993
 31
0.0
  0
LINE
  8
DETAIL
  6
CONTINUOUS
 62
     5
 10
93.825603000000001
 20
-86.908475999999993
 30
0.0
 11
93.783648999999983
 21
-86.902060000000006
 31
0.0
  0
LINE
  8
DETAIL
  6
CONTINUOUS
 62
     5
 10
93.783648999999983
 20
-86.902060000000006
 30
0.0
 11
93.737881999999999
 21
-86.896483000000003
 31
0.0
  0
LINE
  8
DETAIL
  6
CONTINUOUS
 62
     5
 10
93.737881999999999
 20
-86.896483000000003
 30
0.0
 11
93.687506999999982
 21
-86.891713999999979
 31
0.0
  0
LINE
  8
DETAIL
  6
CONTINUOUS
 62
     5
 10
93.687506999999982
 20
-86.891713999999979
 30
0.0
 11
93.631740000000036
 21
-86.887790999999979
 31
0.0
  0
LINE
  8
DETAIL
  6
CONTINUOUS
 62
     5
 10
93.631740000000036
 20
-86.887790999999979
 30
0.0
 11
93.569836000000024
 21
-86.884806000000026
 31
0.0
  0
LINE
  8
DETAIL
  6
CONTINUOUS
 62
     5
 10
93.569836000000024
 20
-86.884806000000026
 30
0.0
 11
93.501140999999961
 21
-86.882894999999962
 31
0.0
  0
LINE
  8
DETAIL
  6
CONTINUOUS
 62
     5
 10
93.501140999999961
 20
-86.882894999999962
 30
0.0
 11
93.425162
 21
-86.882218999999964
 31
0.0
  0
LINE
  8
DETAIL
  6
CONTINUOUS
 62
     5
 10
115.0
 20
-123.499313
 30
0.0
 11
115.0
 21
103.499313
 31
0.0
  0
LINE
  8
DETAIL
  6
CONTINUOUS
 62
     5
 10
94.042552000000001
 20
-120.48169
 30
0.0
 11
94.042816999999999
 21
-120.475848
 31
0.0
  0
LINE
  8
DETAIL
  6
CONTINUOUS
 62
     5
 10
94.042816999999999
 20
-120.475848
 30
0.0
 11
94.042975999999967
 21
-120.46998600000011
 31
0.0
  0
LINE
  8
DETAIL
  6
CONTINUOUS
 62
     5
 10
94.042975999999967
 20
-120.46998600000011
 30
0.0
 11
94.043036000000043
 21
-120.464101
 31
0.0
  0
ARC
  8
DETAIL
  6
CONTINUOUS
 62
     5
 10
113.499313
 20
-123.499313
 30
0.0
 40
1.500687
 50
270.0
 51
0.0
  0
LINE
  8
DETAIL
  6
CONTINUOUS
 62
     5
 10
94.043036000000043
 20
-121.19497
 30
0.0
 11
112.141111
 21
-123.587625
 31
0.0
  0
LINE
  8
DETAIL
  6
CONTINUOUS
 62
     5
 10
113.82989600000001
 20
-78.990630000000024
 30
0.0
 11
114.26724
 21
-78.795934000000003
 31
0.0
  0
LINE
  8
DETAIL
  6
CONTINUOUS
 62
     5
 10
113.55475199999999
 20
-79.11155100000002
 30
0.0
 11
113.82989600000001
 21
-78.990630000000024
 31
0.0
  0
LINE
  8
DETAIL
  6
CONTINUOUS
 62
     5
 10
114.26724
 20
-78.795934000000003
 30
0.0
 11
114.57898400000001
 21
-78.655272999999966
 31
0.0
  0
LINE
  8
DETAIL
  6
CONTINUOUS
 62
     5
 10
111.18909499999999
 20
-80.102373999999998
 30
0.0
 11
108.806865
 21
-81.014549000000002
 31
0.0
  0
LINE
  8
DETAIL
  6
CONTINUOUS
 62
     5
 10
113.554751
 20
-79.11155100000002
 30
0.0
 11
111.18909499999999
 21
-80.102373999999998
 31
0.0
  0
LINE
  8
DETAIL
  6
CONTINUOUS
 62
     5
 10
99.124466999999981
 20
-83.90463699999998
 30
0.0
 11
96.644252000000037
 21
-84.447419999999966
 31
0.0
  0
LINE
  8
DETAIL
  6
CONTINUOUS
 62
     5
 10
101.572318
 20
-83.292280000000005
 30
0.0
 11
99.124466999999981
 21
-83.90463699999998
 31
0.0
  0
LINE
  8
DETAIL
  6
CONTINUOUS
 62
     5
 10
106.409406
 20
-81.849451999999985
 30
0.0
 11
103.99803199999999
 21
-82.608205999999981
 31
0.0
  0
LINE
  8
DETAIL
  6
CONTINUOUS
 62
     5
 10
103.99803199999999
 20
-82.608205999999981
 30
0.0
 11
101.572318
 21
-83.292280000000005
 31
0.0
  0
LINE
  8
DETAIL
  6
CONTINUOUS
 62
     5
 10
108.806865
 20
-81.014549000000002
 30
0.0
 11
106.409406
 21
-81.849451999999985
 31
0.0
  0
LINE
  8
DETAIL
  6
CONTINUOUS
 62
     5
 10
-94.120869999999968
 20
-84.921294999999986
 30
0.0
 11
94.043039000000022
 21
-84.921168999999978
 31
0.0
  0
LINE
  8
DETAIL
  6
CONTINUOUS
 62
     5
 10
94.120869999999968
 20
-84.921294999999986
 30
0.0
 11
94.043039000000022
 21
-84.921168999999978
 31
0.0
  0
LINE
  8
DETAIL
  6
CONTINUOUS
 62
     5
 10
96.644252000000037
 20
-84.447419999999966
 30
0.0
 11
94.120869999999968
 21
-84.921294999999986
 31
0.0
  0
LINE
  8
DETAIL
  6
CONTINUOUS
 62
     5
 10
94.043038000000024
 20
103.265607
 30
0.0
 11
94.043039000000022
 21
-84.921168999999978
 31
0.0
  0
LINE
  8
DETAIL
  6
CONTINUOUS
 62
     5
 10
-96.644252000000037
 20
-84.447419999999966
 30
0.0
 11
-94.120869999999968
 21
-84.921294999999986
 31
0.0
  0
LINE
  8
DETAIL
  6
CONTINUOUS
 62
     5
 10
-94.043038000000024
 20
103.265607
 30
0.0
 11
-94.043039000000022
 21
-84.921168999999978
 31
0.0
  0
LINE
  8
DETAIL
  6
CONTINUOUS
 62
     5
 10
-101.572318
 20
-83.292280000000005
 30
0.0
 11
-99.124466999999981
 21
-83.90463699999998
 31
0.0
  0
LINE
  8
DETAIL
  6
CONTINUOUS
 62
     5
 10
-99.124466999999981
 20
-83.90463699999998
 30
0.0
 11
-96.644252000000037
 21
-84.447419999999966
 31
0.0
  0
LINE
  8
DETAIL
  6
CONTINUOUS
 62
     5
 10
-103.99803199999999
 20
-82.608205999999981
 30
0.0
 11
-101.572318
 21
-83.292280000000005
 31
0.0
  0
LINE
  8
DETAIL
  6
CONTINUOUS
 62
     5
 10
-106.409406
 20
-81.849451999999985
 30
0.0
 11
-103.99803199999999
 21
-82.608205999999981
 31
0.0
  0
LINE
  8
DETAIL
  6
CONTINUOUS
 62
     5
 10
-111.18909499999999
 20
-80.102373999999998
 30
0.0
 11
-108.806865
 21
-81.014549000000002
 31
0.0
  0
LINE
  8
DETAIL
  6
CONTINUOUS
 62
     5
 10
-108.806865
 20
-81.014549000000002
 30
0.0
 11
-106.409406
 21
-81.849451999999985
 31
0.0
  0
LINE
  8
DETAIL
  6
CONTINUOUS
 62
     5
 10
-113.82989600000001
 20
-78.990630000000024
 30
0.0
 11
-114.26724
 21
-78.795934000000003
 31
0.0
  0
LINE
  8
DETAIL
  6
CONTINUOUS
 62
     5
 10
-113.55475199999999
 20
-79.11155100000002
 30
0.0
 11
-113.82989600000001
 21
-78.990630000000024
 31
0.0
  0
LINE
  8
DETAIL
  6
CONTINUOUS
 62
     5
 10
-113.554751
 20
-79.11155100000002
 30
0.0
 11
-111.18909499999999
 21
-80.102373999999998
 31
0.0
  0
LINE
  8
DETAIL
  6
CONTINUOUS
 62
     5
 10
-114.26724
 20
-78.795934000000003
 30
0.0
 11
-114.57898400000001
 21
-78.655272999999966
 31
0.0
  0
ARC
  8
DETAIL
  6
CONTINUOUS
 62
     5
 10
46.271175999999969
 20
108.20409600000001
 30
0.0
 40
1.000458
 50
90.0
 51
180.0
  0
LINE
  8
DETAIL
  6
CONTINUOUS
 62
     5
 10
45.270717999999988
 20
104.93627600000001
 30
0.0
 11
45.270717999999988
 21
108.20409600000001
 31
0.0
  0
ARC
  8
DETAIL
  6
CONTINUOUS
 62
     5
 10
53.774609999999932
 20
108.20409600000001
 30
0.0
 40
1.000458
 50
0.0
 51
90.0
  0
LINE
  8
DETAIL
  6
CONTINUOUS
 62
     5
 10
46.271175999999969
 20
109.204554
 30
0.0
 11
53.774609999999932
 21
109.204554
 31
0.0
  0
LINE
  8
DETAIL
  6
CONTINUOUS
 62
     5
 10
54.775068000000033
 20
104.93627600000001
 30
0.0
 11
54.775068000000033
 21
108.20409600000001
 31
0.0
  0
ARC
  8
DETAIL
  6
CONTINUOUS
 62
     5
 10
-53.774609999999932
 20
108.20409600000001
 30
0.0
 40
1.000458
 50
90.0
 51
180.0
  0
LINE
  8
DETAIL
  6
CONTINUOUS
 62
     5
 10
-53.774609999999932
 20
109.204554
 30
0.0
 11
-46.271175999999969
 21
109.204554
 31
0.0
  0
LINE
  8
DETAIL
  6
CONTINUOUS
 62
     5
 10
-45.270717999999988
 20
104.93627600000001
 30
0.0
 11
-45.270717999999988
 21
108.20409600000001
 31
0.0
  0
LINE
  8
DETAIL
  6
CONTINUOUS
 62
     5
 10
-54.775068000000033
 20
104.93627600000001
 30
0.0
 11
-54.775068000000033
 21
108.20409600000001
 31
0.0
  0
ARC
  8
DETAIL
  6
CONTINUOUS
 62
     5
 10
-46.271175999999969
 20
108.20409600000001
 30
0.0
 40
1.000458
 50
0.0
 51
90.0
  0
POINT
  8
ARRANGE
  6
CONTINUOUS
 62
     1
 10
0.0
 20
0.0
 30
0.0
  0
CIRCLE
  8
ARRANGE
  6
CONTINUOUS
 62
     1
 10
0.0
 20
0.0
 30
0.0
 40
40.0
  0
LINE
  8
OUTLINE
  6
CONTINUOUS
 62
     3
 10
-114.64202299999999
 20
100.717354
 30
0.0
 11
-114.64203500000011
 21
100.717184
 31
0.0
  0
ARC
  8
OUTLINE
  6
CONTINUOUS
 62
     3
 10
113.499313
 20
103.499313
 30
0.0
 40
1.500687
 50
0.0
 51
90.0
  0
LINE
  8
OUTLINE
  6
CONTINUOUS
 62
     3
 10
113.499313
 20
105.0
 30
0.0
 11
-113.499313
 21
105.0
 31
0.0
  0
ARC
  8
OUTLINE
  6
CONTINUOUS
 62
     3
 10
-113.499313
 20
103.499313
 30
0.0
 40
1.500687
 50
90.0
 51
180.0
  0
LINE
  8
OUTLINE
  6
CONTINUOUS
 62
     3
 10
-115.0
 20
103.499313
 30
0.0
 11
-115.0
 21
-123.499313
 31
0.0
  0
ARC
  8
OUTLINE
  6
CONTINUOUS
 62
     3
 10
-113.499313
 20
-123.499313
 30
0.0
 40
1.500687
 50
180.0
 51
270.0
  0
LINE
  8
OUTLINE
  6
CONTINUOUS
 62
     3
 10
-113.499313
 20
-125.0
 30
0.0
 11
113.499313
 21
-125.0
 31
0.0
  0
LINE
  8
OUTLINE
  6
CONTINUOUS
 62
     3
 10
115.0
 20
-123.499313
 30
0.0
 11
115.0
 21
103.499313
 31
0.0
  0
ARC
  8
OUTLINE
  6
CONTINUOUS
 62
     3
 10
113.499313
 20
-123.499313
 30
0.0
 40
1.500687
 50
270.0
 51
0.0
  0
LINE
  8
SIZE
  6
CONTINUOUS
 62
    30
 10
-115.0
 20
-143.499313
 30
0.0
 11
-115.0
 21
-330.19350010636123
 31
0.0
  0
LINE
  8
SIZE
  6
CONTINUOUS
 62
    30
 10
115.0
 20
-143.499313
 30
0.0
 11
115.0
 21
-330.19350010636123
 31
0.0
  0
LINE
  8
SIZE
  6
CONTINUOUS
 62
    30
 10
-127.0
 20
-310.19350010636123
 30
0.0
 11
-139.0
 21
-310.19350010636123
 31
0.0
  0
LINE
  8
SIZE
  6
CONTINUOUS
 62
    30
 10
127.0
 20
-310.19350010636123
 30
0.0
 11
139.0
 21
-310.19350010636123
 31
0.0
  0
LINE
  8
SIZE
  6
CONTINUOUS
 62
    30
 10
-115.0
 20
-310.19350010636123
 30
0.0
 11
115.0
 21
-310.19350010636123
 31
0.0
  0
CIRCLE
  8
SIZE
  6
CONTINUOUS
 62
    30
 10
-115.0
 20
-310.19350010636123
 30
0.0
 40
6.0
  0
LINE
  8
SIZE
  6
CONTINUOUS
 62
    30
 10
-115.0
 20
-310.19350010636123
 30
0.0
 11
-127.0
 21
-310.19350010636123
 31
0.0
  0
CIRCLE
  8
SIZE
  6
CONTINUOUS
 62
    30
 10
115.0
 20
-310.19350010636123
 30
0.0
 40
6.0
  0
LINE
  8
SIZE
  6
CONTINUOUS
 62
    30
 10
115.0
 20
-310.19350010636123
 30
0.0
 11
127.0
 21
-310.19350010636123
 31
0.0
  0
TEXT
  8
SIZE
  6
CONTINUOUS
 62
    30
 10
-110.5371428571429
 20
-285.19350010636123
 30
0.0
 40
64.0
  1
□230
 41
0.9
 72
     1
 11
0.0
 21
-285.19350010636123
 31
0.0
  0
POINT
  8
DEFPOINTS
  6
CONTINUOUS
 62
    30
 10
-115.0
 20
-123.499313
 30
0.0
  0
POINT
  8
DEFPOINTS
  6
CONTINUOUS
 62
    30
 10
115.0
 20
-123.499313
 30
0.0
  0
POINT
  8
DEFPOINTS
  6
CONTINUOUS
 62
    30
 10
115.0
 20
-310.19350010636123
 30
0.0
  0
LINE
  8
BASIS
  6
DASHDOT
 62
     6
 10
-125.0
 20
0.0
 30
0.0
 11
125.0
 21
0.0
 31
0.0
  0
LINE
  8
BASIS
  6
DASHDOT
 62
     6
 10
0.0
 20
125.0
 30
0.0
 11
0.0
 21
-149.70859520353
 31
0.0
  0
LINE
  8
SIZE
  6
CONTINUOUS
 62
    30
 10
-145.0
 20
0.0
 30
0.0
 11
-200.46377200000009
 21
0.0
 31
0.0
  0
POINT
  8
DEFPOINTS
  6
CONTINUOUS
 62
    30
 10
-125.0
 20
0.0
 30
0.0
  0
POINT
  8
DEFPOINTS
  6
CONTINUOUS
 62
    30
 10
-180.46377200000009
 20
0.0
 30
0.0
  0
LINE
  8
SIZE
  6
CONTINUOUS
 62
    30
 10
-133.499313
 20
105.0
 30
0.0
 11
-209.3435572104336
 21
105.0
 31
0.0
  0
LINE
  8
SIZE
  6
CONTINUOUS
 62
    30
 10
-145.0
 20
0.0
 30
0.0
 11
-209.3435572104336
 21
0.0
 31
0.0
  0
LINE
  8
SIZE
  6
CONTINUOUS
 62
    30
 10
-189.3435572104336
 20
117.0
 30
0.0
 11
-189.3435572104336
 21
129.0
 31
0.0
  0
LINE
  8
SIZE
  6
CONTINUOUS
 62
    30
 10
-189.3435572104336
 20
-12.0
 30
0.0
 11
-189.3435572104336
 21
-24.0
 31
0.0
  0
LINE
  8
SIZE
  6
CONTINUOUS
 62
    30
 10
-189.3435572104336
 20
105.0
 30
0.0
 11
-189.3435572104336
 21
0.0
 31
0.0
  0
CIRCLE
  8
SIZE
  6
CONTINUOUS
 62
    30
 10
-189.3435572104336
 20
105.0
 30
0.0
 40
6.0
  0
LINE
  8
SIZE
  6
CONTINUOUS
 62
    30
 10
-189.3435572104336
 20
105.0
 30
0.0
 11
-189.3435572104336
 21
117.0
 31
0.0
  0
CIRCLE
  8
SIZE
  6
CONTINUOUS
 62
    30
 10
-189.3435572104336
 20
0.0
 30
0.0
 40
6.0
  0
LINE
  8
SIZE
  6
CONTINUOUS
 62
    30
 10
-189.3435572104336
 20
0.0
 30
0.0
 11
-189.3435572104336
 21
-12.0
 31
0.0
  0
TEXT
  8
SIZE
  6
CONTINUOUS
 62
    30
 10
-214.3435572104336
 20
-16.071428571428569
 30
0.0
 40
64.0
  1
105
 50
90.0
 41
0.9
 72
     1
 11
-214.3435572104336
 21
52.5
 31
0.0
  0
POINT
  8
DEFPOINTS
  6
CONTINUOUS
 62
    30
 10
-113.499313
 20
105.0
 30
0.0
  0
POINT
  8
DEFPOINTS
  6
CONTINUOUS
 62
    30
 10
-125.0
 20
0.0
 30
0.0
  0
POINT
  8
DEFPOINTS
  6
CONTINUOUS
 62
    30
 10
-189.3435572104336
 20
0.0
 30
0.0
  0
ARC
  8
DETAIL
  6
CONTINUOUS
 62
     5
 10
-104.522835
 20
-60.823259000000007
 30
0.0
 40
10.629865000000001
 50
183.93255999999809
 51
189.72329899999909
  0
ARC
  8
DETAIL
  6
CONTINUOUS
 62
     5
 10
-104.522835
 20
-60.823259000000007
 30
0.0
 40
10.629865000000001
 50
170.27670100000091
 51
176.06744000000191
  0
LINE
  8
DETAIL
  6
CONTINUOUS
 62
     5
 10
-115.91122300000001
 20
-61.171220000000012
 30
0.0
 11
-115.368899
 21
-61.278422999999982
 31
0.0
  0
LINE
  8
DETAIL
  6
CONTINUOUS
 62
     5
 10
-115.368899
 20
-60.368094999999983
 30
0.0
 11
-115.91122300000001
 21
-60.475298000000009
 31
0.0
  0
ARC
  8
DETAIL
  6
CONTINUOUS
 62
     5
 10
-115.85302
 20
-60.876780999999987
 30
0.0
 40
0.300137
 50
180.0
 51
258.81831599999981
  0
ARC
  8
DETAIL
  6
CONTINUOUS
 62
     5
 10
-115.85302
 20
-60.769738000000018
 30
0.0
 40
0.300137
 50
101.1816840000003
 51
180.0
  0
LINE
  8
DETAIL
  6
CONTINUOUS
 62
     5
 10
-116.15315699999999
 20
-60.769738000000018
 30
0.0
 11
-116.15315699999999
 21
-60.876780999999987
 31
0.0
  0
ARC
  8
DETAIL
  6
CONTINUOUS
 62
     5
 10
-115.427102
 20
-61.572862999999977
 30
0.0
 40
0.300137
 50
3.932559999998104
 51
78.818315999999697
  0
ARC
  8
DETAIL
  6
CONTINUOUS
 62
     5
 10
-115.427102
 20
-60.073655000000031
 30
0.0
 40
0.300137
 50
281.18168400000008
 51
356.06744000000191
  0
LINE
  8
DETAIL
  6
CONTINUOUS
 62
     5
 10
-95.793930000000003
 20
-110.79612899999999
 30
0.0
 11
-98.795123000000004
 21
-110.79612899999999
 31
0.0
  0
LINE
  8
DETAIL
  6
CONTINUOUS
 62
     5
 10
-95.793930000000003
 20
-104.79338199999999
 30
0.0
 11
-95.793930000000003
 21
-110.79612899999999
 31
0.0
  0
LINE
  8
DETAIL
  6
CONTINUOUS
 62
     5
 10
-98.795123000000004
 20
-110.79612899999999
 30
0.0
 11
-98.795123000000004
 21
-104.79338199999999
 31
0.0
  0
LINE
  8
DETAIL
  6
CONTINUOUS
 62
     5
 10
-98.795123000000004
 20
-104.79338199999999
 30
0.0
 11
-95.793930000000003
 21
-104.79338199999999
 31
0.0
  0
LINE
  8
DETAIL
  6
CONTINUOUS
 62
     5
 10
-74.543035000000032
 20
-125.0
 30
0.0
 11
-73.043035000000032
 21
-125.0
 31
0.0
  0
LINE
  8
DETAIL
  6
CONTINUOUS
 62
     5
 10
-73.043035000000032
 20
-125.0
 30
0.0
 11
-73.043035000000032
 21
-122.0
 31
0.0
  0
LINE
  8
DETAIL
  6
CONTINUOUS
 62
     5
 10
-73.043035000000032
 20
-122.0
 30
0.0
 11
-74.543035000000032
 21
-122.0
 31
0.0
  0
LINE
  8
DETAIL
  6
CONTINUOUS
 62
     5
 10
-74.543035000000032
 20
-122.0
 30
0.0
 11
-74.543035000000032
 21
-125.0
 31
0.0
  0
LINE
  8
DETAIL
  6
CONTINUOUS
 62
     5
 10
-77.043035000000032
 20
-125.0
 30
0.0
 11
-75.543035000000032
 21
-125.0
 31
0.0
  0
LINE
  8
DETAIL
  6
CONTINUOUS
 62
     5
 10
-75.543035000000032
 20
-125.0
 30
0.0
 11
-75.543035000000032
 21
-122.0
 31
0.0
  0
LINE
  8
DETAIL
  6
CONTINUOUS
 62
     5
 10
-75.543035000000032
 20
-122.0
 30
0.0
 11
-77.043035000000032
 21
-122.0
 31
0.0
  0
LINE
  8
DETAIL
  6
CONTINUOUS
 62
     5
 10
-77.043035000000032
 20
-122.0
 30
0.0
 11
-77.043035000000032
 21
-125.0
 31
0.0
  0
LINE
  8
DETAIL
  6
CONTINUOUS
 62
     5
 10
-79.543035000000032
 20
-125.0
 30
0.0
 11
-78.043035000000032
 21
-125.0
 31
0.0
  0
LINE
  8
DETAIL
  6
CONTINUOUS
 62
     5
 10
-78.043035000000032
 20
-125.0
 30
0.0
 11
-78.043035000000032
 21
-122.0
 31
0.0
  0
LINE
  8
DETAIL
  6
CONTINUOUS
 62
     5
 10
-78.043035000000032
 20
-122.0
 30
0.0
 11
-79.543035000000032
 21
-122.0
 31
0.0
  0
LINE
  8
DETAIL
  6
CONTINUOUS
 62
     5
 10
-79.543035000000032
 20
-122.0
 30
0.0
 11
-79.543035000000032
 21
-125.0
 31
0.0
  0
LINE
  8
DETAIL
  6
CONTINUOUS
 62
     5
 10
-82.043035000000032
 20
-125.0
 30
0.0
 11
-80.543035000000032
 21
-125.0
 31
0.0
  0
LINE
  8
DETAIL
  6
CONTINUOUS
 62
     5
 10
-80.543035000000032
 20
-125.0
 30
0.0
 11
-80.543035000000032
 21
-122.0
 31
0.0
  0
LINE
  8
DETAIL
  6
CONTINUOUS
 62
     5
 10
-80.543035000000032
 20
-122.0
 30
0.0
 11
-82.043035000000032
 21
-122.0
 31
0.0
  0
LINE
  8
DETAIL
  6
CONTINUOUS
 62
     5
 10
-82.043035000000032
 20
-122.0
 30
0.0
 11
-82.043035000000032
 21
-125.0
 31
0.0
  0
LINE
  8
DETAIL
  6
CONTINUOUS
 62
     5
 10
-84.543035000000032
 20
-125.0
 30
0.0
 11
-83.043035000000032
 21
-125.0
 31
0.0
  0
LINE
  8
DETAIL
  6
CONTINUOUS
 62
     5
 10
-83.043035000000032
 20
-125.0
 30
0.0
 11
-83.043035000000032
 21
-122.0
 31
0.0
  0
LINE
  8
DETAIL
  6
CONTINUOUS
 62
     5
 10
-83.043035000000032
 20
-122.0
 30
0.0
 11
-84.543035000000032
 21
-122.0
 31
0.0
  0
LINE
  8
DETAIL
  6
CONTINUOUS
 62
     5
 10
-84.543035000000032
 20
-122.0
 30
0.0
 11
-84.543035000000032
 21
-125.0
 31
0.0
  0
ENDSEC
  0
EOF
