  0
SECTION
  2
HEADER
  9
$ACADVER
  1
AC1009
  9
$DWGCODEPAGE
  3
dos932
  9
$INSBASE
 10
0.0
 20
0.0
 30
0.0
  9
$EXTMIN
 10
-715.58073305708967
 20
-482.89488579949278
 30
-0.0015257624927045
  9
$EXTMAX
 10
980.2414055567242
 20
680.92347004092699
 30
0.0022888765696933
  9
$LIMMIN
 10
-2970.0
 20
-2100.0
  9
$LIMMAX
 10
2970.0
 20
2100.0
  9
$ORTHOMODE
 70
     1
  9
$REGENMODE
 70
     1
  9
$FILLMODE
 70
     1
  9
$QTEXTMODE
 70
     0
  9
$MIRRTEXT
 70
     0
  9
$LTSCALE
 40
20.0
  9
$ATTMODE
 70
     1
  9
$TEXTSIZE
 40
64.0
  9
$TRACEWID
 40
0.05
  9
$TEXTSTYLE
  7
STANDARD
  9
$CLAYER
  8
0
  9
$CELTYPE
  6
CONTINUOUS
  9
$CECOLOR
 62
     7
  9
$DIMSCALE
 40
1.0
  9
$DIMASZ
 40
12.0
  9
$DIMEXO
 40
20.0
  9
$DIMDLI
 40
200.0
  9
$DIMRND
 40
0.0
  9
$DIMDLE
 40
0.0
  9
$DIMEXE
 40
20.0
  9
$DIMTP
 40
0.0
  9
$DIMTM
 40
0.0
  9
$DIMTXT
 40
64.0
  9
$DIMCEN
 40
0.09
  9
$DIMTSZ
 40
0.0
  9
$DIMTOL
 70
     0
  9
$DIMLIM
 70
     0
  9
$DIMTIH
 70
     0
  9
$DIMTOH
 70
     0
  9
$DIMSE1
 70
     0
  9
$DIMSE2
 70
     0
  9
$DIMTAD
 70
     1
  9
$DIMZIN
 70
     8
  9
$DIMBLK
  1

  9
$DIMASO
 70
     1
  9
$DIMSHO
 70
     0
  9
$DIMPOST
  1

  9
$DIMAPOST
  1

  9
$DIMALT
 70
     0
  9
$DIMALTD
 70
     2
  9
$DIMALTF
 40
25.399999999999999
  9
$DIMLFAC
 40
1.0
  9
$DIMTOFL
 70
     1
  9
$DIMTVP
 40
0.0
  9
$DIMTIX
 70
     1
  9
$DIMSOXD
 70
     0
  9
$DIMSAH
 70
     0
  9
$DIMBLK1
  1

  9
$DIMBLK2
  1

  9
$DIMSTYLE
  2
STANDARD
  9
$DIMCLRD
 70
     7
  9
$DIMCLRE
 70
     7
  9
$DIMCLRT
 70
     7
  9
$DIMTFAC
 40
1.0
  9
$DIMGAP
 40
25.0
  9
$LUNITS
 70
     2
  9
$LUPREC
 70
     4
  9
$SKETCHINC
 40
0.1
  9
$FILLETRAD
 40
3.0
  9
$AUNITS
 70
     1
  9
$AUPREC
 70
     3
  9
$MENU
  1
ACAD
  9
$ELEVATION
 40
0.0
  9
$PELEVATION
 40
0.0
  9
$THICKNESS
 40
50.0
  9
$LIMCHECK
 70
     0
  9
$CHAMFERA
 40
0.0
  9
$CHAMFERB
 40
0.0
  9
$SKPOLY
 70
     0
  9
$TDCREATE
 40
2453019.623009259
  9
$TDUPDATE
 40
2459356.665347257
  9
$TDINDWG
 40
1.8121478241
  9
$TDUSRTIMER
 40
1.8121478241
  9
$USRTIMER
 70
     1
  9
$ANGBASE
 50
0.0
  9
$ANGDIR
 70
     0
  9
$PDMODE
 70
     3
  9
$PDSIZE
 40
-2.0
  9
$PLINEWID
 40
0.0
  9
$SPLFRAME
 70
     0
  9
$SPLINETYPE
 70
     6
  9
$SPLINESEGS
 70
     8
  9
$SURFTAB1
 70
     6
  9
$SURFTAB2
 70
     6
  9
$SURFTYPE
 70
     6
  9
$SURFU
 70
     6
  9
$SURFV
 70
     6
  9
$UCSNAME
  2

  9
$UCSORG
 10
0.0
 20
0.0
 30
0.0
  9
$UCSXDIR
 10
1.0
 20
0.0
 30
0.0
  9
$UCSYDIR
 10
0.0
 20
1.0
 30
0.0
  9
$PUCSNAME
  2

  9
$PUCSORG
 10
0.0
 20
0.0
 30
0.0
  9
$PUCSXDIR
 10
1.0
 20
0.0
 30
0.0
  9
$PUCSYDIR
 10
0.0
 20
1.0
 30
0.0
  9
$USERI1
 70
     0
  9
$USERI2
 70
     0
  9
$USERI3
 70
     0
  9
$USERI4
 70
     0
  9
$USERI5
 70
     0
  9
$USERR1
 40
20.0
  9
$USERR2
 40
0.0
  9
$USERR3
 40
0.0
  9
$USERR4
 40
0.0
  9
$USERR5
 40
0.0
  9
$WORLDVIEW
 70
     1
  9
$SHADEDGE
 70
     3
  9
$SHADEDIF
 70
    70
  9
$TILEMODE
 70
     1
  9
$MAXACTVP
 70
    48
  9
$PINSBASE
 10
0.0
 20
0.0
 30
0.0
  9
$PLIMCHECK
 70
     0
  9
$PEXTMIN
 10
-100000000000000000000.0
 20
-100000000000000000000.0
 30
-100000000000000000000.0
  9
$PEXTMAX
 10
100000000000000000000.0
 20
100000000000000000000.0
 30
100000000000000000000.0
  9
$PLIMMIN
 10
0.0
 20
0.0
  9
$PLIMMAX
 10
12.0
 20
9.0
  9
$UNITMODE
 70
     0
  9
$VISRETAIN
 70
     0
  9
$PLINEGEN
 70
     0
  9
$PSLTSCALE
 70
     0
  9
$TREEDEPTH
 70
  3020
  9
$ATTDIA
 70
     0
  9
$ATTREQ
 70
     1
  9
$BLIPMODE
 70
     1
  9
$COORDS
 70
     1
  9
$DRAGMODE
 70
     2
  9
$OSMODE
 70
     0
  9
$HANDLING
 70
     0
  9
$HANDSEED
  5
5E9
  0
ENDSEC
  0
SECTION
  2
TABLES
  0
TABLE
  2
LTYPE
 70
     3
  0
LTYPE
  2
CONTINUOUS
 70
     0
  3
実線
 72
    65
 73
     0
 40
0.0
  0
LTYPE
  2
DASHDOT
 70
     0
  3
____ _ ____ _ ____ _ ____ _ ____ _ ____ _ ____
 72
    65
 73
     4
 40
5.5
 49
4.0
 49
-0.6
 49
0.3
 49
-0.6
  0
LTYPE
  2
DIVIDE
 70
     0
  3
Divide ____ . . ____ . . ____ . . ____ . . ____
 72
    65
 73
     6
 40
1.25
 49
0.5
 49
-0.25
 49
0.0
 49
-0.25
 49
0.0
 49
-0.25
  0
ENDTAB
  0
TABLE
  2
LAYER
 70
    12
  0
LAYER
  2
0
 70
     0
 62
     7
  6
CONTINUOUS
  0
LAYER
  2
BASIS
 70
     0
 62
     6
  6
DASHDOT
  0
LAYER
  2
OUTLINE
 70
     0
 62
     3
  6
CONTINUOUS
  0
LAYER
  2
DETAIL
 70
     0
 62
     5
  6
CONTINUOUS
  0
LAYER
  2
SIZE
 70
     0
 62
    30
  6
CONTINUOUS
  0
LAYER
  2
ARRANGE
 70
     0
 62
     1
  6
CONTINUOUS
  0
LAYER
  2
DEFPOINTS
 70
     0
 62
     7
  6
CONTINUOUS
  0
LAYER
  2
ETC
 70
     0
 62
    61
  6
CONTINUOUS
  0
LAYER
  2
FIX
 70
     0
 62
    11
  6
CONTINUOUS
  0
LAYER
  2
NOTE
 70
     0
 62
     4
  6
CONTINUOUS
  0
LAYER
  2
SERVICESPACE
 70
    64
 62
     2
  6
DASHDOT
  0
LAYER
  2
SYMBOLLINE
 70
    64
 62
    15
  6
CONTINUOUS
  0
ENDTAB
  0
TABLE
  2
STYLE
 70
     1
  0
STYLE
  2
STANDARD
 70
     0
 40
64.0
 41
0.9
 50
0.0
 71
     0
 42
64.0
  3
SIMPLEX.shx
  4
BIGFONT.shx
  0
ENDTAB
  0
TABLE
  2
APPID
 70
    18
  0
APPID
  2
ACAD
 70
     0
  0
APPID
  2
ACADANNOTATIVE
 70
     0
  0
APPID
  2
AUTOCAD_POSTSCRIPT_FIGURE
 70
     0
  0
APPID
  2
ACAD_EXEMPT_FROM_CAD_STANDARDS
 70
     0
  0
APPID
  2
ACAD_PSEXT
 70
     0
  0
APPID
  2
ACAUTHENVIRON
 70
     0
  0
APPID
  2
GENIUS_GENOENT_13
 70
     0
  0
APPID
  2
GENIUS_GENCFG_13
 70
     0
  0
APPID
  2
GENIUS_GENCFG0_13
 70
     0
  0
APPID
  2
GENIUS_GENCFG1_13
 70
     0
  0
APPID
  2
GENIUS_GENCFG2_13
 70
     0
  0
APPID
  2
GENIUS_GENCFG3_13
 70
     0
  0
APPID
  2
GENIUS_GENCFG4_13
 70
     0
  0
APPID
  2
GENIUS_GEVCFG0_13
 70
     0
  0
APPID
  2
CONTENTBLOCKICON
 70
     0
  0
APPID
  2
CONTENTBLOCKDESCRIPTION
 70
     0
  0
APPID
  2
ACAD_NAV_VCDISPLAY
 70
     0
  0
APPID
  2
ACAD_MLEADERVER
 70
     0
  0
ENDTAB
  0
TABLE
  2
DIMSTYLE
 70
     1
  0
DIMSTYLE
  2
STANDARD
 70
     0
  3

  4

  5

  6

  7

 40
1.0
 41
12.0
 42
20.0
 43
200.0
 44
20.0
 45
0.0
 46
0.0
 47
0.0
 48
0.0
140
64.0
141
0.09
142
0.0
143
25.399999999999999
144
1.0
145
0.0
146
1.0
147
25.0
 71
     0
 72
     0
 73
     0
 74
     0
 75
     0
 76
     0
 77
     1
 78
     8
170
     0
171
     2
172
     1
173
     0
174
     1
175
     0
176
     7
177
     7
178
     7
  0
ENDTAB
  0
TABLE
  2
VIEW
 70
     1
  0
VIEW
  2
ALL
 70
     0
 40
4282.6198079999986
 10
0.0
 20
41.309904000000003
 41
5940.0
 11
0.0
 21
0.0
 31
1.0
 12
0.0
 22
0.0
 32
0.0
 42
50.0
 43
0.0
 44
0.0
 50
0.0
 71
     0
  0
ENDTAB
  0
TABLE
  2
UCS
 70
     0
  0
ENDTAB
  0
TABLE
  2
VPORT
 70
     1
  0
VPORT
  2
*ACTIVE
 70
     0
 10
0.0
 20
0.0
 11
1.0
 21
1.0
 12
132.33033624981721
 22
99.01429212071713
 13
0.0
 23
0.0
 14
1.0
 24
1.0
 15
0.0
 25
0.0
 16
0.0
 26
0.0
 36
1.0
 17
0.0
 27
0.0
 37
0.0
 40
981.80487994652322
 41
1.946595460614152
 42
50.0
 43
0.0
 44
0.0
 50
0.0
 51
0.0
 71
     0
 72
  1000
 73
     1
 74
     0
 75
     0
 76
     0
 77
     0
 78
     0
  0
ENDTAB
  0
ENDSEC
  0
SECTION
  2
BLOCKS
  0
ENDSEC
  0
SECTION
  2
ENTITIES
  0
TEXT
  8
ETC
  6
CONTINUOUS
 62
    61
 10
263.09284581391739
 20
616.68120176818161
 30
0.0
 40
64.0
  1
V-12PEHD7_4
 41
0.9
  0
TEXT
  8
ETC
  6
CONTINUOUS
 62
    61
 10
258.906851813917
 20
498.72589175335042
 30
0.0
 40
64.0
  1
換気扇
 41
0.9
  0
TEXT
  8
ETC
  6
CONTINUOUS
 62
    61
 10
309.60825006247308
 20
390.57711886712508
 30
0.0
 40
40.0
  1
V-12PEHD7
 41
0.9
  0
LINE
  8
BASIS
  6
DASHDOT
 62
     6
 10
-68.719628000000071
 20
0.0
 30
0.0
 11
125.0
 21
0.0
 31
0.0
  0
POINT
  8
DEFPOINTS
  6
CONTINUOUS
 62
    30
 10
-0.3013100000000577
 20
-125.0
 30
0.0
  0
POINT
  8
DEFPOINTS
  6
CONTINUOUS
 62
    30
 10
-0.3013100000000577
 20
105.0
 30
0.0
  0
LINE
  8
NOTE
  6
CONTINUOUS
 62
     4
 10
0.0
 20
-14.0
 30
0.0
 11
0.0
 21
26.0
 31
0.0
  0
LINE
  8
NOTE
  6
CONTINUOUS
 62
     4
 10
-20.0
 20
6.0
 30
0.0
 11
20.0
 21
6.0
 31
0.0
  0
LINE
  8
NOTE
  6
CONTINUOUS
 62
     4
 10
35.626938999999993
 20
-12.185741999999999
 30
0.0
 11
0.0
 21
6.0
 31
0.0
  0
LINE
  8
NOTE
  6
CONTINUOUS
 62
     4
 10
0.0
 20
6.0
 30
0.0
 11
21.760962999999951
 21
-27.562784000000011
 31
0.0
  0
TEXT
  8
NOTE
  6
CONTINUOUS
 62
     4
 10
325.57029815561742
 20
-232.94907639191791
 30
0.0
 40
64.0
  1
2-φ4×10
 41
0.9
  0
LINE
  8
NOTE
  6
CONTINUOUS
 62
     4
 10
300.94751720793653
 20
-265.19221732959107
 30
0.0
 11
731.99451142901535
 21
-265.19221732959107
 31
0.0
  0
LINE
  8
SIZE
  6
CONTINUOUS
 62
    30
 10
0.0
 20
-144.698699
 30
0.0
 11
0.0
 21
-482.666383
 31
0.0
  0
LINE
  8
SIZE
  6
CONTINUOUS
 62
    30
 10
-58.0
 20
-9.3114770000000249
 30
0.0
 11
-58.0
 21
-482.666383
 31
0.0
  0
LINE
  8
SIZE
  6
CONTINUOUS
 62
    30
 10
12.0
 20
-462.666383
 30
0.0
 11
24.0
 21
-462.666383
 31
0.0
  0
LINE
  8
SIZE
  6
CONTINUOUS
 62
    30
 10
-70.0
 20
-462.666383
 30
0.0
 11
-225.25714300000001
 21
-462.666383
 31
0.0
  0
LINE
  8
SIZE
  6
CONTINUOUS
 62
    30
 10
0.0
 20
-462.666383
 30
0.0
 11
-58.0
 21
-462.666383
 31
0.0
  0
CIRCLE
  8
SIZE
  6
CONTINUOUS
 62
    30
 10
0.0
 20
-462.666383
 30
0.0
 40
6.0
  0
LINE
  8
SIZE
  6
CONTINUOUS
 62
    30
 10
0.0
 20
-462.666383
 30
0.0
 11
12.0
 21
-462.666383
 31
0.0
  0
CIRCLE
  8
SIZE
  6
CONTINUOUS
 62
    30
 10
-58.0
 20
-462.666383
 30
0.0
 40
6.0
  0
LINE
  8
SIZE
  6
CONTINUOUS
 62
    30
 10
-58.0
 20
-462.666383
 30
0.0
 11
-70.0
 21
-462.666383
 31
0.0
  0
TEXT
  8
SIZE
  6
CONTINUOUS
 62
    30
 10
-200.2571424285714
 20
-437.666383
 30
0.0
 40
64.0
  1
58
 41
0.9
 72
     1
 11
-153.62857099999999
 21
-437.666383
 31
0.0
  0
POINT
  8
DEFPOINTS
  6
CONTINUOUS
 62
    30
 10
0.0
 20
-124.698699
 30
0.0
  0
POINT
  8
DEFPOINTS
  6
CONTINUOUS
 62
    30
 10
-58.0
 20
10.68852299999998
 30
0.0
  0
POINT
  8
DEFPOINTS
  6
CONTINUOUS
 62
    30
 10
-58.0
 20
-462.666383
 30
0.0
  0
LINE
  8
SIZE
  6
CONTINUOUS
 62
    30
 10
0.0
 20
-144.698699
 30
0.0
 11
0.0
 21
-364.65121799999997
 31
0.0
  0
LINE
  8
SIZE
  6
CONTINUOUS
 62
    30
 10
55.0
 20
-90.020105999999998
 30
0.0
 11
55.0
 21
-364.65121799999997
 31
0.0
  0
LINE
  8
SIZE
  6
CONTINUOUS
 62
    30
 10
-12.0
 20
-344.65121799999997
 30
0.0
 11
-24.0
 21
-344.65121799999997
 31
0.0
  0
LINE
  8
SIZE
  6
CONTINUOUS
 62
    30
 10
67.0
 20
-344.65121799999997
 30
0.0
 11
245.285662
 21
-344.65121799999997
 31
0.0
  0
LINE
  8
SIZE
  6
CONTINUOUS
 62
    30
 10
0.0
 20
-344.65121799999997
 30
0.0
 11
55.0
 21
-344.65121799999997
 31
0.0
  0
CIRCLE
  8
SIZE
  6
CONTINUOUS
 62
    30
 10
0.0
 20
-344.65121799999997
 30
0.0
 40
6.0
  0
LINE
  8
SIZE
  6
CONTINUOUS
 62
    30
 10
0.0
 20
-344.65121799999997
 30
0.0
 11
-12.0
 21
-344.65121799999997
 31
0.0
  0
CIRCLE
  8
SIZE
  6
CONTINUOUS
 62
    30
 10
55.0
 20
-344.65121799999997
 30
0.0
 40
6.0
  0
LINE
  8
SIZE
  6
CONTINUOUS
 62
    30
 10
55.0
 20
-344.65121799999997
 30
0.0
 11
67.0
 21
-344.65121799999997
 31
0.0
  0
TEXT
  8
SIZE
  6
CONTINUOUS
 62
    30
 10
127.02851857142851
 20
-319.65121799999997
 30
0.0
 40
64.0
  1
55
 41
0.9
 72
     1
 11
173.6570899999999
 21
-319.65121799999997
 31
0.0
  0
POINT
  8
DEFPOINTS
  6
CONTINUOUS
 62
    30
 10
0.0
 20
-124.698699
 30
0.0
  0
POINT
  8
DEFPOINTS
  6
CONTINUOUS
 62
    30
 10
55.0
 20
-70.020105999999998
 30
0.0
  0
POINT
  8
DEFPOINTS
  6
CONTINUOUS
 62
    30
 10
55.0
 20
-344.65121799999997
 30
0.0
  0
LINE
  8
SIZE
  6
CONTINUOUS
 62
    30
 10
86.5
 20
-75.240335000000016
 30
0.0
 11
86.5
 21
-482.666383
 31
0.0
  0
LINE
  8
SIZE
  6
CONTINUOUS
 62
    30
 10
0.0
 20
-144.698699
 30
0.0
 11
0.0
 21
-482.666383
 31
0.0
  0
LINE
  8
SIZE
  6
CONTINUOUS
 62
    30
 10
12.0
 20
-462.666383
 30
0.0
 11
74.5
 21
-462.666383
 31
0.0
  0
LINE
  8
SIZE
  6
CONTINUOUS
 62
    30
 10
86.5
 20
-462.666383
 30
0.0
 11
324.04285699999991
 21
-462.666383
 31
0.0
  0
CIRCLE
  8
SIZE
  6
CONTINUOUS
 62
    30
 10
0.0
 20
-462.666383
 30
0.0
 40
6.0
  0
LINE
  8
SIZE
  6
CONTINUOUS
 62
    30
 10
0.0
 20
-462.666383
 30
0.0
 11
12.0
 21
-462.666383
 31
0.0
  0
CIRCLE
  8
SIZE
  6
CONTINUOUS
 62
    30
 10
86.5
 20
-462.666383
 30
0.0
 40
6.0
  0
LINE
  8
SIZE
  6
CONTINUOUS
 62
    30
 10
86.5
 20
-462.666383
 30
0.0
 11
74.5
 21
-462.666383
 31
0.0
  0
TEXT
  8
SIZE
  6
CONTINUOUS
 62
    30
 10
123.5000004285713
 20
-437.666383
 30
0.0
 40
64.0
  1
86.5
 41
0.9
 72
     1
 11
211.2714289999999
 21
-437.666383
 31
0.0
  0
POINT
  8
DEFPOINTS
  6
CONTINUOUS
 62
    30
 10
86.5
 20
-55.240335000000023
 30
0.0
  0
POINT
  8
DEFPOINTS
  6
CONTINUOUS
 62
    30
 10
0.0
 20
-124.698699
 30
0.0
  0
POINT
  8
DEFPOINTS
  6
CONTINUOUS
 62
    30
 10
0.0
 20
-462.666383
 30
0.0
  0
LINE
  8
SIZE
  6
CONTINUOUS
 62
    30
 10
100.951965
 20
22.999839000000009
 30
0.0
 11
443.46531208261541
 21
22.999839000000009
 31
0.0
  0
LINE
  8
SIZE
  6
CONTINUOUS
 62
    30
 10
100.951965
 20
-23.000160999999991
 30
0.0
 11
443.46531208261541
 21
-23.000160999999991
 31
0.0
  0
LINE
  8
SIZE
  6
CONTINUOUS
 62
    30
 10
423.46531208261541
 20
-35.000160999999991
 30
0.0
 11
423.46531208261541
 21
-47.000160999999991
 31
0.0
  0
LINE
  8
SIZE
  6
CONTINUOUS
 62
    30
 10
423.46531208261541
 20
34.999838999999938
 30
0.0
 11
423.46531208261541
 21
281.33797399999997
 31
0.0
  0
LINE
  8
SIZE
  6
CONTINUOUS
 62
    30
 10
423.46531208261541
 20
-23.000160999999991
 30
0.0
 11
423.46531208261541
 21
22.999839000000009
 31
0.0
  0
CIRCLE
  8
SIZE
  6
CONTINUOUS
 62
    30
 10
423.46531208261541
 20
-23.000160999999991
 30
0.0
 40
6.0
  0
LINE
  8
SIZE
  6
CONTINUOUS
 62
    30
 10
423.46531208261541
 20
-23.000160999999991
 30
0.0
 11
423.46531208261541
 21
-35.000160999999991
 31
0.0
  0
CIRCLE
  8
SIZE
  6
CONTINUOUS
 62
    30
 10
423.46531208261541
 20
22.999839000000009
 30
0.0
 40
6.0
  0
LINE
  8
SIZE
  6
CONTINUOUS
 62
    30
 10
423.46531208261541
 20
22.999839000000009
 30
0.0
 11
423.46531208261541
 21
34.999838999999938
 31
0.0
  0
TEXT
  8
SIZE
  6
CONTINUOUS
 62
    30
 10
391.44749420292169
 20
111.72387084945871
 30
0.0
 40
64.0
  1
φ46
 50
90.0
 41
0.9
 72
     1
 11
391.44749420292169
 21
197.30101370660151
 31
0.0
  0
POINT
  8
DEFPOINTS
  6
CONTINUOUS
 62
    30
 10
80.951964999999973
 20
22.999839000000009
 30
0.0
  0
POINT
  8
DEFPOINTS
  6
CONTINUOUS
 62
    30
 10
80.951964999999973
 20
-23.000160999999991
 30
0.0
  0
POINT
  8
DEFPOINTS
  6
CONTINUOUS
 62
    30
 10
423.46531208261541
 20
-23.000160999999991
 30
0.0
  0
LINE
  8
SIZE
  6
CONTINUOUS
 62
    30
 10
20.0
 20
71.0
 30
0.0
 11
847.15544408261519
 21
71.0
 31
0.0
  0
LINE
  8
SIZE
  6
CONTINUOUS
 62
    30
 10
20.0
 20
-71.0
 30
0.0
 11
847.15544408261519
 21
-71.0
 31
0.0
  0
LINE
  8
SIZE
  6
CONTINUOUS
 62
    30
 10
827.15544408261519
 20
-59.0
 30
0.0
 11
827.15544408261519
 21
59.0
 31
0.0
  0
LINE
  8
SIZE
  6
CONTINUOUS
 62
    30
 10
827.15544408261519
 20
71.0
 30
0.0
 11
827.15544408261519
 21
360.22866592077253
 31
0.0
  0
CIRCLE
  8
SIZE
  6
CONTINUOUS
 62
    30
 10
827.15544408261519
 20
-71.0
 30
0.0
 40
6.0
  0
LINE
  8
SIZE
  6
CONTINUOUS
 62
    30
 10
827.15544408261519
 20
-71.0
 30
0.0
 11
827.15544408261519
 21
-59.0
 31
0.0
  0
CIRCLE
  8
SIZE
  6
CONTINUOUS
 62
    30
 10
827.15544408261519
 20
71.0
 30
0.0
 40
6.0
  0
LINE
  8
SIZE
  6
CONTINUOUS
 62
    30
 10
827.15544408261519
 20
71.0
 30
0.0
 11
827.15544408261519
 21
59.0
 31
0.0
  0
TEXT
  8
SIZE
  6
CONTINUOUS
 62
    30
 10
802.15544408261519
 20
134.42243028233869
 30
0.0
 40
64.0
  1
φ142
 50
90.0
 41
0.9
 72
     1
 11
802.15544408261519
 21
243.31385885376719
 31
0.0
  0
POINT
  8
DEFPOINTS
  6
CONTINUOUS
 62
    30
 10
0.0
 20
71.0
 30
0.0
  0
POINT
  8
DEFPOINTS
  6
CONTINUOUS
 62
    30
 10
0.0
 20
-71.0
 30
0.0
  0
POINT
  8
DEFPOINTS
  6
CONTINUOUS
 62
    30
 10
827.15544408261519
 20
-71.0
 30
0.0
  0
LINE
  8
SIZE
  6
CONTINUOUS
 62
    30
 10
34.64889002180098
 20
6.0
 30
0.0
 11
327.73107908261551
 21
6.0
 31
0.0
  0
LINE
  8
SIZE
  6
CONTINUOUS
 62
    30
 10
157.37222514336369
 20
0.0
 30
0.0
 11
327.73107908261551
 21
0.0
 31
0.0
  0
LINE
  8
SIZE
  6
CONTINUOUS
 62
    30
 10
307.73107908261551
 20
-12.0
 30
0.0
 11
307.73107908261551
 21
-24.0
 31
0.0
  0
LINE
  8
SIZE
  6
CONTINUOUS
 62
    30
 10
307.73107908261551
 20
18.0
 30
0.0
 11
307.73107908261551
 21
176.09311299999999
 31
0.0
  0
LINE
  8
SIZE
  6
CONTINUOUS
 62
    30
 10
307.73107908261551
 20
0.0
 30
0.0
 11
307.73107908261551
 21
6.0
 31
0.0
  0
CIRCLE
  8
SIZE
  6
CONTINUOUS
 62
    30
 10
307.73107908261551
 20
0.0
 30
0.0
 40
6.0
  0
LINE
  8
SIZE
  6
CONTINUOUS
 62
    30
 10
307.73107908261551
 20
0.0
 30
0.0
 11
307.73107908261551
 21
-12.0
 31
0.0
  0
CIRCLE
  8
SIZE
  6
CONTINUOUS
 62
    30
 10
307.73107908261551
 20
6.0
 30
0.0
 40
6.0
  0
LINE
  8
SIZE
  6
CONTINUOUS
 62
    30
 10
307.73107908261551
 20
6.0
 30
0.0
 11
307.73107908261551
 21
18.0
 31
0.0
  0
TEXT
  8
SIZE
  6
CONTINUOUS
 62
    30
 10
279.22217207532191
 20
132.9750076303834
 30
0.0
 40
64.0
  1
6
 50
90.0
 41
0.9
 72
     1
 11
279.22217207532191
 21
150.8035790589548
 31
0.0
  0
POINT
  8
DEFPOINTS
  6
CONTINUOUS
 62
    30
 10
0.0
 20
6.0
 30
0.0
  0
POINT
  8
DEFPOINTS
  6
CONTINUOUS
 62
    30
 10
83.563318999999851
 20
0.0
 30
0.0
  0
POINT
  8
DEFPOINTS
  6
CONTINUOUS
 62
    30
 10
307.73107908261551
 20
0.0
 30
0.0
  0
LINE
  8
SIZE
  6
CONTINUOUS
 62
    30
 10
157.37222514336369
 20
0.0
 30
0.0
 11
574.10622308261554
 21
0.0
 31
0.0
  0
LINE
  8
SIZE
  6
CONTINUOUS
 62
    30
 10
19.698689999999932
 20
105.0
 30
0.0
 11
574.10622308261554
 21
105.0
 31
0.0
  0
LINE
  8
SIZE
  6
CONTINUOUS
 62
    30
 10
554.10622308261532
 20
12.0
 30
0.0
 11
554.10622308261532
 21
93.0
 31
0.0
  0
LINE
  8
SIZE
  6
CONTINUOUS
 62
    30
 10
554.10622308261532
 20
105.0
 30
0.0
 11
554.10622308261532
 21
304.14285699999999
 31
0.0
  0
CIRCLE
  8
SIZE
  6
CONTINUOUS
 62
    30
 10
554.10622308261532
 20
0.0
 30
0.0
 40
6.0
  0
LINE
  8
SIZE
  6
CONTINUOUS
 62
    30
 10
554.10622308261532
 20
0.0
 30
0.0
 11
554.10622308261532
 21
12.0
 31
0.0
  0
CIRCLE
  8
SIZE
  6
CONTINUOUS
 62
    30
 10
554.10622308261532
 20
105.0
 30
0.0
 40
6.0
  0
LINE
  8
SIZE
  6
CONTINUOUS
 62
    30
 10
554.10622308261532
 20
105.0
 30
0.0
 11
554.10622308261532
 21
93.0
 31
0.0
  0
TEXT
  8
SIZE
  6
CONTINUOUS
 62
    30
 10
529.10622308261532
 20
142.00000042857141
 30
0.0
 40
64.0
  1
105
 50
90.0
 41
0.9
 72
     1
 11
529.10622308261532
 21
210.57142899999999
 31
0.0
  0
POINT
  8
DEFPOINTS
  6
CONTINUOUS
 62
    30
 10
103.56331899999989
 20
0.0
 30
0.0
  0
POINT
  8
DEFPOINTS
  6
CONTINUOUS
 62
    30
 10
-0.3013100000000577
 20
105.0
 30
0.0
  0
POINT
  8
DEFPOINTS
  6
CONTINUOUS
 62
    30
 10
554.10622308261532
 20
105.0
 30
0.0
  0
LINE
  8
NOTE
  6
CONTINUOUS
 62
     4
 10
300.94751720793653
 20
-265.19221732959107
 30
0.0
 11
0.0
 21
6.0
 31
0.0
  0
LINE
  8
NOTE
  6
CONTINUOUS
 62
     4
 10
-13.06575498871689
 20
40.965344704777642
 30
0.0
 11
-13.06575498871689
 21
80.965344704777621
 31
0.0
  0
LINE
  8
NOTE
  6
CONTINUOUS
 62
     4
 10
-33.06575498871689
 20
60.965344704777642
 30
0.0
 11
6.9342450112831102
 21
60.965344704777642
 31
0.0
  0
LINE
  8
NOTE
  6
CONTINUOUS
 62
     4
 10
2.154046011283071
 20
97.9566627047776
 30
0.0
 11
-13.06575498871689
 21
60.965344704777642
 31
0.0
  0
LINE
  8
NOTE
  6
CONTINUOUS
 62
     4
 10
-13.06575498871689
 20
60.965344704777642
 30
0.0
 11
18.61063901128318
 21
85.390864704777627
 31
0.0
  0
TEXT
  8
NOTE
  6
CONTINUOUS
 62
     4
 10
132.60101201128299
 20
301.80219870477748
 30
0.0
 40
64.0
  1
EL
 41
0.9
  0
LINE
  8
NOTE
  6
CONTINUOUS
 62
     4
 10
131.2801310112832
 20
285.96066270477758
 30
0.0
 11
232.9881380112831
 21
285.96066270477758
 31
0.0
  0
LINE
  8
NOTE
  6
CONTINUOUS
 62
     4
 10
131.2801310112832
 20
285.96066270477758
 30
0.0
 11
-13.06575498871689
 21
60.965344704777642
 31
0.0
  0
LINE
  8
SIZE
  6
CONTINUOUS
 62
    30
 10
0.0171889999999179
 20
125.002791
 30
0.0
 11
0.0171889999999273
 21
279.77980926949988
 31
0.0
  0
LINE
  8
SIZE
  6
CONTINUOUS
 62
    30
 10
-109.1751973731207
 20
115.3840882145972
 30
0.0
 11
-109.1751973731207
 21
279.77980926949988
 31
0.0
  0
LINE
  8
SIZE
  6
CONTINUOUS
 62
    30
 10
-11.982811000000069
 20
259.77980926949988
 30
0.0
 11
-97.175197373120696
 21
259.77980926949988
 31
0.0
  0
LINE
  8
SIZE
  6
CONTINUOUS
 62
    30
 10
-109.1751973731207
 20
259.77980926949988
 30
0.0
 11
-715.17460961217557
 21
259.77980926949988
 31
0.0
  0
CIRCLE
  8
SIZE
  6
CONTINUOUS
 62
    30
 10
0.0171889999999261
 20
259.77980926949988
 30
0.0
 40
6.0
  0
LINE
  8
SIZE
  6
CONTINUOUS
 62
    30
 10
0.0171889999999261
 20
259.77980926949988
 30
0.0
 11
-11.982811000000069
 21
259.77980926949988
 31
0.0
  0
CIRCLE
  8
SIZE
  6
CONTINUOUS
 62
    30
 10
-109.1751973731207
 20
259.77980926949988
 30
0.0
 40
6.0
  0
LINE
  8
SIZE
  6
CONTINUOUS
 62
    30
 10
-109.1751973731207
 20
259.77980926949988
 30
0.0
 11
-97.175197373120696
 21
259.77980926949988
 31
0.0
  0
TEXT
  8
SIZE
  6
CONTINUOUS
 62
    30
 10
-717.05460961217545
 20
284.77980926949982
 30
0.0
 40
64.0
  1
（109）
 41
0.9
 72
     1
 11
-580.73460961217552
 21
284.77980926949982
 31
0.0
  0
POINT
  8
DEFPOINTS
  6
CONTINUOUS
 62
    30
 10
0.0171889999999166
 20
105.002791
 30
0.0
  0
POINT
  8
DEFPOINTS
  6
CONTINUOUS
 62
    30
 10
-109.1751973731207
 20
95.384088214597227
 30
0.0
  0
POINT
  8
DEFPOINTS
  6
CONTINUOUS
 62
    30
 10
-109.1751973731207
 20
259.77980926949988
 30
0.0
  0
TEXT
  8
SIZE
  6
CONTINUOUS
 62
    30
 10
-718.80672177969143
 20
158.95327667395631
 30
0.0
 40
64.0
  1
（シャッター開時）
 41
0.9
  0
CIRCLE
  8
FIX
  6
CONTINUOUS
 62
    11
 10
0.0
 20
6.0
 30
0.0
 40
5.0
  0
LINE
  8
SIZE
  6
CONTINUOUS
 62
    30
 10
75.0
 20
58.746586720584013
 30
0.0
 11
716.85975639411993
 21
58.746586720583828
 31
0.0
  0
LINE
  8
SIZE
  6
CONTINUOUS
 62
    30
 10
75.0
 20
-61.249157999999973
 30
0.0
 11
716.85975639411993
 21
-61.249158000000151
 31
0.0
  0
LINE
  8
SIZE
  6
CONTINUOUS
 62
    30
 10
696.85975639411993
 20
-49.249158000000151
 30
0.0
 11
696.85975639411993
 21
46.746586720583828
 31
0.0
  0
LINE
  8
SIZE
  6
CONTINUOUS
 62
    30
 10
696.85975639411993
 20
58.746586720583828
 30
0.0
 11
696.85975639411993
 21
356.05296888905491
 31
0.0
  0
CIRCLE
  8
SIZE
  6
CONTINUOUS
 62
    30
 10
696.85975639411993
 20
-61.249158000000151
 30
0.0
 40
6.0
  0
LINE
  8
SIZE
  6
CONTINUOUS
 62
    30
 10
696.85975639411993
 20
-61.249158000000151
 30
0.0
 11
696.85975639411993
 21
-49.249158000000151
 31
0.0
  0
CIRCLE
  8
SIZE
  6
CONTINUOUS
 62
    30
 10
696.85975639411993
 20
58.746586720583828
 30
0.0
 40
6.0
  0
LINE
  8
SIZE
  6
CONTINUOUS
 62
    30
 10
696.85975639411993
 20
58.746586720583828
 30
0.0
 11
696.85975639411993
 21
46.746586720583828
 31
0.0
  0
TEXT
  8
SIZE
  6
CONTINUOUS
 62
    30
 10
661.19308972745318
 20
123.4186831747693
 30
0.0
 40
64.0
  1
φ120
 50
90.0
 41
0.9
 72
     1
 11
661.19308972745318
 21
232.31011174619789
 31
0.0
  0
POINT
  8
DEFPOINTS
  6
CONTINUOUS
 62
    30
 10
55.0
 20
58.746586720584013
 30
0.0
  0
POINT
  8
DEFPOINTS
  6
CONTINUOUS
 62
    30
 10
55.0
 20
-61.249157999999973
 30
0.0
  0
POINT
  8
DEFPOINTS
  6
CONTINUOUS
 62
    30
 10
696.85975639411993
 20
-61.249158000000151
 30
0.0
  0
LINE
  8
SIZE
  6
CONTINUOUS
 62
    30
 10
19.6960610000001
 20
104.999989
 30
0.0
 11
980.03434045743006
 21
104.9999889999998
 31
0.0
  0
LINE
  8
SIZE
  6
CONTINUOUS
 62
    30
 10
19.6960610000001
 20
-124.99999800000001
 30
0.0
 11
980.03434045743006
 21
-124.9999980000003
 31
0.0
  0
LINE
  8
SIZE
  6
CONTINUOUS
 62
    30
 10
960.03434045743006
 20
92.999988999999786
 30
0.0
 11
960.03434045743006
 21
-112.9999980000003
 31
0.0
  0
CIRCLE
  8
SIZE
  6
CONTINUOUS
 62
    30
 10
960.03434045743006
 20
104.9999889999998
 30
0.0
 40
6.0
  0
LINE
  8
SIZE
  6
CONTINUOUS
 62
    30
 10
960.03434045743006
 20
104.9999889999998
 30
0.0
 11
960.03434045743006
 21
92.999988999999786
 31
0.0
  0
CIRCLE
  8
SIZE
  6
CONTINUOUS
 62
    30
 10
960.03434045743006
 20
-124.9999980000003
 30
0.0
 40
6.0
  0
LINE
  8
SIZE
  6
CONTINUOUS
 62
    30
 10
960.03434045743006
 20
-124.9999980000003
 30
0.0
 11
960.03434045743006
 21
-112.9999980000003
 31
0.0
  0
TEXT
  8
SIZE
  6
CONTINUOUS
 62
    30
 10
935.03434045743006
 20
-84.057147357142966
 30
0.0
 40
64.0
  1
230
 50
90.0
 41
0.9
 72
     1
 11
935.03434045743006
 21
-10.000004500000101
 31
0.0
  0
POINT
  8
DEFPOINTS
  6
CONTINUOUS
 62
    30
 10
-0.3039389999999003
 20
104.999989
 30
0.0
  0
POINT
  8
DEFPOINTS
  6
CONTINUOUS
 62
    30
 10
-0.3039389999999003
 20
-124.99999800000001
 30
0.0
  0
POINT
  8
DEFPOINTS
  6
CONTINUOUS
 62
    30
 10
960.03434045743006
 20
-124.9999980000003
 30
0.0
  0
LINE
  8
DETAIL
  6
CONTINUOUS
 62
     5
 10
-47.729013000000123
 20
-80.51256699999999
 30
0.0
 11
-47.738955000000033
 21
-80.501816000000076
 31
0.0
  0
LINE
  8
DETAIL
  6
CONTINUOUS
 62
     5
 10
-45.689270999999962
 20
-78.452132000000006
 30
0.0
 11
-54.869676000000027
 21
-87.632536999999957
 31
0.0
  0
ARC
  8
DETAIL
  6
CONTINUOUS
 62
     5
 10
-45.902329000000009
 20
-78.239074000000073
 30
0.0
 40
0.30131
 50
314.99999999999102
 51
4.4073729999973548
  0
LINE
  8
DETAIL
  6
CONTINUOUS
 62
     5
 10
-0.3039389999999003
 20
104.999989
 30
0.0
 11
-40.679485000000113
 21
104.64763600000001
 31
0.0
  0
LINE
  8
DETAIL
  6
CONTINUOUS
 62
     5
 10
0.0
 20
-124.698699
 30
0.0
 11
0.0
 21
106.972435
 31
0.0
  0
ARC
  8
DETAIL
  6
CONTINUOUS
 62
     5
 10
-2.5109170000000631
 20
108.46962000000001
 30
0.0
 40
0.5021830000000001
 50
91.099999999999028
 51
180.0
  0
ARC
  8
DETAIL
  6
CONTINUOUS
 62
     5
 10
-2.008734000000004
 20
106.972435
 30
0.0
 40
2.008734
 50
0.0
 51
91.099999999999028
  0
ARC
  8
DETAIL
  6
CONTINUOUS
 62
     5
 10
-0.3013100000000577
 20
104.6986899999999
 30
0.0
 40
0.30131
 50
0.0
 51
90.50000000000459
  0
ARC
  8
DETAIL
  6
CONTINUOUS
 62
     5
 10
-5.0218340000001263
 20
106.967626
 30
0.0
 40
2.008734
 50
270.50000000000449
 51
0.0
  0
LINE
  8
DETAIL
  6
CONTINUOUS
 62
     5
 10
-3.0131000000001218
 20
108.46962000000001
 30
0.0
 11
-3.0131000000001218
 21
106.967626
 31
0.0
  0
LINE
  8
DETAIL
  6
CONTINUOUS
 62
     5
 10
-2.5205579999999368
 20
108.971711
 30
0.0
 11
-2.0472959999999598
 21
108.98079799999999
 31
0.0
  0
ARC
  8
DETAIL
  6
CONTINUOUS
 62
     5
 10
833.6244539999999
 20
-10.44932399999993
 30
0.0
 40
881.83406099999979
 50
172.65733300000241
 51
184.40737299999731
  0
ARC
  8
DETAIL
  6
CONTINUOUS
 62
     5
 10
-40.676856000000043
 20
104.346329
 30
0.0
 40
0.30131
 50
90.499983999998236
 51
179.99821400000101
  0
LINE
  8
DETAIL
  6
CONTINUOUS
 62
     5
 10
-40.978165999999867
 20
104.3463380000001
 30
0.0
 11
-40.978165999999867
 21
102.25191100000021
 31
0.0
  0
LINE
  8
DETAIL
  6
CONTINUOUS
 62
     5
 10
-45.48131699999999
 20
-109.906654
 30
0.0
 11
-43.516221999999971
 21
-124.62289
 31
0.0
  0
LINE
  8
DETAIL
  6
CONTINUOUS
 62
     5
 10
-44.198143999999957
 20
-124.47873800000001
 30
0.0
 11
-50.174040999999988
 21
-121.896181
 31
0.0
  0
ARC
  8
DETAIL
  6
CONTINUOUS
 62
     5
 10
-49.456858999999888
 20
-120.23666
 30
0.0
 40
1.80786
 50
187.22555800000379
 51
246.62782099999731
  0
ARC
  8
DETAIL
  6
CONTINUOUS
 62
     5
 10
-43.500884000000042
 20
-122.865315
 30
0.0
 40
1.7576419999999999
 50
246.62782599999721
 51
269.4999999999954
  0
ARC
  8
DETAIL
  6
CONTINUOUS
 62
     5
 10
-0.3013100000000577
 20
-124.6986899999999
 30
0.0
 40
0.30131
 50
269.50001600000178
 51
359.99821400000098
  0
ARC
  8
DETAIL
  6
CONTINUOUS
 62
     5
 10
584.67428100000018
 20
-33.757798999999977
 30
0.0
 40
641.80848000000003
 50
184.8151389999959
 51
187.76421500000049
  0
LINE
  8
DETAIL
  6
CONTINUOUS
 62
     5
 10
-15.299527000000131
 20
-125.937662
 30
0.0
 11
-15.253965999999989
 21
-124.93432900000001
 31
0.0
  0
LINE
  8
DETAIL
  6
CONTINUOUS
 62
     5
 10
-19.27103899999997
 20
-124.834475
 30
0.0
 11
-19.312858000000009
 21
-125.75541800000001
 31
0.0
  0
LINE
  8
DETAIL
  6
CONTINUOUS
 62
     5
 10
-15.31360999999993
 20
-124.869011
 30
0.0
 11
-15.253965999999989
 21
-124.93432900000001
 31
0.0
  0
LINE
  8
DETAIL
  6
CONTINUOUS
 62
     5
 10
-19.312858000000009
 20
-125.75541800000001
 30
0.0
 11
-15.299527000000131
 21
-125.937662
 31
0.0
  0
LINE
  8
DETAIL
  6
CONTINUOUS
 62
     5
 10
-43.516221999999971
 20
-124.62289
 30
0.0
 11
-0.3039389999999003
 21
-124.99999800000001
 31
0.0
  0
LINE
  8
DETAIL
  6
CONTINUOUS
 62
     5
 10
-48.266552000000047
 20
-81.385111999999936
 30
0.0
 11
-47.321194000000112
 21
-92.178099999999972
 31
0.0
  0
LINE
  8
DETAIL
  6
CONTINUOUS
 62
     5
 10
-47.322016000000083
 20
-92.169284000000061
 30
0.0
 11
-46.39715799999999
 21
-101.51893
 31
0.0
  0
LINE
  8
DETAIL
  6
CONTINUOUS
 62
     5
 10
-46.397987000000057
 20
-101.5109640000001
 30
0.0
 11
-45.480506999999989
 21
-109.913771
 31
0.0
  0
LINE
  8
DETAIL
  6
CONTINUOUS
 62
     5
 10
-45.689270999999962
 20
-78.452132000000006
 30
0.0
 11
-52.918871999999958
 21
-85.681733000000008
 31
0.0
  0
LINE
  8
DETAIL
  6
CONTINUOUS
 62
     5
 10
-52.918871999999958
 20
-85.681733000000008
 30
0.0
 11
-55.025380000000041
 21
-85.663350000000037
 31
0.0
  0
ARC
  8
DETAIL
  6
CONTINUOUS
 62
     5
 10
-45.902329000000009
 20
-78.239074000000073
 30
0.0
 40
0.30131
 50
314.99999999999102
 51
4.4073729999973548
  0
ARC
  8
DETAIL
  6
CONTINUOUS
 62
     5
 10
833.6244539999999
 20
-10.44932399999993
 30
0.0
 40
881.83406099999979
 50
172.7602269999997
 51
184.40737299999731
  0
ARC
  8
DETAIL
  6
CONTINUOUS
 62
     5
 10
-46.129629000000023
 20
-77.903020999999967
 30
0.0
 40
0.5021830000000001
 50
313.83881600000848
 51
4.38448099999923
  0
LINE
  8
DETAIL
  6
CONTINUOUS
 62
     5
 10
-45.781801000000087
 20
-78.265241999999944
 30
0.0
 11
-50.25565400000005
 21
-82.561333999999988
 31
0.0
  0
LINE
  8
DETAIL
  6
CONTINUOUS
 62
     5
 10
-41.179149999999943
 20
100.681073
 30
0.0
 11
-41.179149999999943
 21
104.338945
 31
0.0
  0
LINE
  8
DETAIL
  6
CONTINUOUS
 62
     5
 10
-49.192935999999918
 20
-79.830906000000027
 30
0.0
 11
-49.040813000000071
 21
-79.709512000000018
 31
0.0
  0
LINE
  8
DETAIL
  6
CONTINUOUS
 62
     5
 10
-48.843569000000123
 20
-79.602524000000017
 30
0.0
 11
-48.611374000000069
 21
-79.514054999999985
 31
0.0
  0
LINE
  8
DETAIL
  6
CONTINUOUS
 62
     5
 10
-49.040813000000071
 20
-79.709512000000018
 30
0.0
 11
-48.843569000000123
 21
-79.602524000000017
 31
0.0
  0
LINE
  8
DETAIL
  6
CONTINUOUS
 62
     5
 10
-47.77791000000002
 20
-79.372844999999984
 30
0.0
 11
-46.93759799999998
 21
-79.372844999999984
 31
0.0
  0
LINE
  8
DETAIL
  6
CONTINUOUS
 62
     5
 10
-48.071177999999918
 20
-79.398201999999969
 30
0.0
 11
-47.77791000000002
 21
-79.372844999999984
 31
0.0
  0
LINE
  8
DETAIL
  6
CONTINUOUS
 62
     5
 10
-48.35288300000002
 20
-79.445848000000069
 30
0.0
 11
-48.071177999999918
 21
-79.398201999999969
 31
0.0
  0
LINE
  8
DETAIL
  6
CONTINUOUS
 62
     5
 10
-48.611374000000069
 20
-79.514054999999985
 30
0.0
 11
-48.35288300000002
 21
-79.445848000000069
 31
0.0
  0
LINE
  8
DETAIL
  6
CONTINUOUS
 62
     5
 10
-50.25565400000005
 20
-82.561333999999988
 30
0.0
 11
-53.486525999999913
 21
-85.67677900000001
 31
0.0
  0
ARC
  8
DETAIL
  6
CONTINUOUS
 62
     5
 10
823.58067500000016
 20
-10.449704999999989
 30
0.0
 40
881.83406099999979
 50
172.59133899999671
 51
184.89282399999991
  0
LINE
  8
DETAIL
  6
CONTINUOUS
 62
     5
 10
-49.192937000000029
 20
-79.830906000000027
 30
0.0
 11
-55.025380000000041
 21
-85.663350000000037
 31
0.0
  0
LINE
  8
DETAIL
  6
CONTINUOUS
 62
     5
 10
-51.109699000000091
 20
-18.732901999999971
 30
0.0
 11
-51.065276999999917
 21
1.657255000000077
 31
0.0
  0
LINE
  8
DETAIL
  6
CONTINUOUS
 62
     5
 10
-50.681016999999883
 20
-39.100270000000023
 30
0.0
 11
-51.109871000000112
 21
-18.71460200000001
 31
0.0
  0
LINE
  8
DETAIL
  6
CONTINUOUS
 62
     5
 10
-49.779721999999992
 20
-59.452162999999928
 30
0.0
 11
-50.681614000000081
 21
-39.081979000000047
 31
0.0
  0
LINE
  8
DETAIL
  6
CONTINUOUS
 62
     5
 10
-48.513688000000002
 20
-78.188274999999976
 30
0.0
 11
-49.780743999999913
 21
-59.433891000000017
 31
0.0
  0
LINE
  8
DETAIL
  6
CONTINUOUS
 62
     5
 10
-50.548530000000028
 20
22.40987599999994
 30
0.0
 11
-49.557872999999972
 21
42.776227999999954
 31
0.0
  0
LINE
  8
DETAIL
  6
CONTINUOUS
 62
     5
 10
-51.065530000000081
 20
1.638956000000007
 30
0.0
 11
-50.547853000000032
 21
22.022668999999951
 31
0.0
  0
LINE
  8
DETAIL
  6
CONTINUOUS
 62
     5
 10
-49.558974000000028
 20
42.757960000000033
 30
0.0
 11
-48.095867999999882
 21
63.096023999999943
 31
0.0
  0
LINE
  8
DETAIL
  6
CONTINUOUS
 62
     5
 10
-48.097393000000011
 20
62.67229199999997
 30
0.0
 11
-46.162624000000051
 21
82.971151999999961
 31
0.0
  0
LINE
  8
DETAIL
  6
CONTINUOUS
 62
     5
 10
-49.410728000000063
 20
104.57106
 30
0.0
 11
-41.483089999999947
 21
104.6402439999999
 31
0.0
  0
LINE
  8
DETAIL
  6
CONTINUOUS
 62
     5
 10
-46.164571999999907
 20
82.952956999999969
 30
0.0
 11
-43.759184999999889
 21
103.201711
 31
0.0
  0
ARC
  8
DETAIL
  6
CONTINUOUS
 62
     5
 10
-41.480459999999987
 20
104.338945
 30
0.0
 40
0.30131
 50
0.0
 51
90.50000000000459
  0
ARC
  8
DETAIL
  6
CONTINUOUS
 62
     5
 10
-49.397580999999953
 20
103.06456799999999
 30
0.0
 40
1.5065500000000001
 50
90.50000000000459
 51
172.59133899999671
  0
ARC
  8
DETAIL
  6
CONTINUOUS
 62
     5
 10
-4.6200870000000123
 20
106.71961400000001
 30
0.0
 40
0.5021830000000001
 50
91.099999999999028
 51
180.0
  0
ARC
  8
DETAIL
  6
CONTINUOUS
 62
     5
 10
-5.141704000000118
 20
107.714557
 30
0.0
 40
1.5065500000000001
 50
90.739073000003032
 51
156.96043900000541
  0
ARC
  8
DETAIL
  6
CONTINUOUS
 62
     5
 10
-5.0837010000000191
 20
107.250818
 30
0.0
 40
1.970164
 50
0.0
 51
90.0
  0
LINE
  8
DETAIL
  6
CONTINUOUS
 62
     5
 10
-5.0837010000000191
 20
109.22098200000001
 30
0.0
 11
-5.1611359999999422
 21
109.22098200000001
 31
0.0
  0
LINE
  8
DETAIL
  6
CONTINUOUS
 62
     5
 10
-4.6297279999998864
 20
107.221705
 30
0.0
 11
-3.1135369999999511
 21
107.250818
 31
0.0
  0
LINE
  8
DETAIL
  6
CONTINUOUS
 62
     5
 10
-6.5280840000000353
 20
108.30417
 30
0.0
 11
-7.6331880000000183
 21
105.705698
 31
0.0
  0
LINE
  8
DETAIL
  6
CONTINUOUS
 62
     5
 10
-5.1222709999999552
 20
104.95793999999999
 30
0.0
 11
-5.1222709999999552
 21
106.71961400000001
 31
0.0
  0
LINE
  8
DETAIL
  6
CONTINUOUS
 62
     5
 10
-7.6331880000000183
 20
104.936027
 30
0.0
 11
-7.6331880000000183
 21
105.705698
 31
0.0
  0
LINE
  8
DETAIL
  6
CONTINUOUS
 62
     5
 10
56.005623000000007
 20
37.926244999999987
 30
0.0
 11
55.796107999999997
 21
37.974256999999973
 31
0.0
  0
LINE
  8
DETAIL
  6
CONTINUOUS
 62
     5
 10
55.0
 20
70.020106000000055
 30
0.0
 11
55.0
 21
-70.020105999999942
 31
0.0
  0
LINE
  8
DETAIL
  6
CONTINUOUS
 62
     5
 10
55.264578000000029
 20
38.405212000000013
 30
0.0
 11
55.240177000000131
 21
38.54520500000001
 31
0.0
  0
LINE
  8
DETAIL
  6
CONTINUOUS
 62
     5
 10
55.336616999999933
 20
38.279092999999989
 30
0.0
 11
55.264582000000019
 21
38.413677000000007
 31
0.0
  0
LINE
  8
DETAIL
  6
CONTINUOUS
 62
     5
 10
55.336596999999983
 20
38.272021999999993
 30
0.0
 11
55.264578000000029
 21
38.405212000000013
 31
0.0
  0
LINE
  8
DETAIL
  6
CONTINUOUS
 62
     5
 10
55.452768999999989
 20
38.155162000000018
 30
0.0
 11
55.336616999999933
 21
38.279092999999989
 31
0.0
  0
LINE
  8
DETAIL
  6
CONTINUOUS
 62
     5
 10
55.452778999999957
 20
38.157924999999977
 30
0.0
 11
55.336596999999983
 21
38.272021999999993
 31
0.0
  0
LINE
  8
DETAIL
  6
CONTINUOUS
 62
     5
 10
55.608740000000132
 20
38.050972999999999
 30
0.0
 11
55.452768999999989
 21
38.155162000000018
 31
0.0
  0
LINE
  8
DETAIL
  6
CONTINUOUS
 62
     5
 10
55.796107999999997
 20
37.974256999999973
 30
0.0
 11
55.608740000000132
 21
38.050972999999999
 31
0.0
  0
LINE
  8
DETAIL
  6
CONTINUOUS
 62
     5
 10
56.227012999999943
 20
37.909492
 30
0.0
 11
56.005623000000007
 21
37.926244999999987
 31
0.0
  0
LINE
  8
DETAIL
  6
CONTINUOUS
 62
     5
 10
55.282359000000042
 20
39.536930999999981
 30
0.0
 11
55.255558999999948
 21
39.606060999999947
 31
0.0
  0
LINE
  8
DETAIL
  6
CONTINUOUS
 62
     5
 10
55.255558999999948
 20
39.606060999999947
 30
0.0
 11
55.242837000000009
 21
39.662709999999947
 31
0.0
  0
LINE
  8
DETAIL
  6
CONTINUOUS
 62
     5
 10
55.242837000000009
 20
39.662709999999947
 30
0.0
 11
55.240170999999918
 21
39.695872000000008
 31
0.0
  0
LINE
  8
DETAIL
  6
CONTINUOUS
 62
     5
 10
55.325002999999917
 20
39.463047999999958
 30
0.0
 11
55.282359000000042
 21
39.536930999999981
 31
0.0
  0
LINE
  8
DETAIL
  6
CONTINUOUS
 62
     5
 10
55.383309999999938
 20
39.391219999999983
 30
0.0
 11
55.325002999999917
 21
39.463047999999958
 31
0.0
  0
LINE
  8
DETAIL
  6
CONTINUOUS
 62
     5
 10
55.455347999999958
 20
39.327420999999958
 30
0.0
 11
55.383309999999938
 21
39.391219999999983
 31
0.0
  0
LINE
  8
DETAIL
  6
CONTINUOUS
 62
     5
 10
55.685838999999987
 20
39.233251000000003
 30
0.0
 11
55.666686000000027
 21
39.234896000000049
 31
0.0
  0
LINE
  8
DETAIL
  6
CONTINUOUS
 62
     5
 10
55.666686000000027
 20
39.234896000000049
 30
0.0
 11
55.610497000000123
 21
39.247427000000023
 31
0.0
  0
LINE
  8
DETAIL
  6
CONTINUOUS
 62
     5
 10
55.610497000000123
 20
39.247427000000023
 30
0.0
 11
55.534971999999932
 21
39.278005000000007
 31
0.0
  0
LINE
  8
DETAIL
  6
CONTINUOUS
 62
     5
 10
55.534971999999932
 20
39.278005000000007
 30
0.0
 11
55.455347999999958
 21
39.327420999999958
 31
0.0
  0
LINE
  8
DETAIL
  6
CONTINUOUS
 62
     5
 10
86.744644999999991
 20
36.432586000000008
 30
0.0
 11
86.85633299999995
 21
36.094356999999953
 31
0.0
  0
LINE
  8
DETAIL
  6
CONTINUOUS
 62
     5
 10
86.540434999999889
 20
36.752601000000027
 30
0.0
 11
86.744644999999991
 21
36.432586000000008
 31
0.0
  0
LINE
  8
DETAIL
  6
CONTINUOUS
 62
     5
 10
86.250282999999854
 20
37.043630999999998
 30
0.0
 11
86.540434999999889
 21
36.752601000000027
 31
0.0
  0
LINE
  8
DETAIL
  6
CONTINUOUS
 62
     5
 10
85.883597999999893
 20
37.296219999999948
 30
0.0
 11
86.250282999999854
 21
37.043630999999998
 31
0.0
  0
LINE
  8
DETAIL
  6
CONTINUOUS
 62
     5
 10
85.452056000000084
 20
37.502330000000029
 30
0.0
 11
85.883597999999893
 21
37.296219999999948
 31
0.0
  0
LINE
  8
DETAIL
  6
CONTINUOUS
 62
     5
 10
84.969538999999941
 20
37.655310999999983
 30
0.0
 11
85.452056000000084
 21
37.502330000000029
 31
0.0
  0
LINE
  8
DETAIL
  6
CONTINUOUS
 62
     5
 10
84.452230999999983
 20
37.750162000000053
 30
0.0
 11
84.969538999999941
 21
37.655310999999983
 31
0.0
  0
LINE
  8
DETAIL
  6
CONTINUOUS
 62
     5
 10
83.917214999999942
 20
37.784073000000028
 30
0.0
 11
84.452230999999983
 21
37.750162000000053
 31
0.0
  0
LINE
  8
DETAIL
  6
CONTINUOUS
 62
     5
 10
56.227012999999943
 20
37.909640999999972
 30
0.0
 11
83.917214999999942
 21
37.784073000000028
 31
0.0
  0
LINE
  8
DETAIL
  6
CONTINUOUS
 62
     5
 10
86.742064000000028
 20
37.029172000000017
 30
0.0
 11
86.56198500000005
 21
37.348868000000039
 31
0.0
  0
LINE
  8
DETAIL
  6
CONTINUOUS
 62
     5
 10
86.56198500000005
 20
37.348868000000039
 30
0.0
 11
86.310211999999865
 21
37.64494400000001
 31
0.0
  0
LINE
  8
DETAIL
  6
CONTINUOUS
 62
     5
 10
86.310211999999865
 20
37.64494400000001
 30
0.0
 11
85.992444999999861
 21
37.908874999999973
 31
0.0
  0
LINE
  8
DETAIL
  6
CONTINUOUS
 62
     5
 10
85.992444999999861
 20
37.908874999999973
 30
0.0
 11
85.61586699999998
 21
38.133880999999967
 31
0.0
  0
LINE
  8
DETAIL
  6
CONTINUOUS
 62
     5
 10
85.61586699999998
 20
38.133880999999967
 30
0.0
 11
85.191687999999886
 21
38.313228999999978
 31
0.0
  0
LINE
  8
DETAIL
  6
CONTINUOUS
 62
     5
 10
85.191687999999886
 20
38.313228999999978
 30
0.0
 11
84.734963999999991
 21
38.441773000000012
 31
0.0
  0
LINE
  8
DETAIL
  6
CONTINUOUS
 62
     5
 10
84.734963999999991
 20
38.441773000000012
 30
0.0
 11
84.262703999999985
 21
38.51716799999997
 31
0.0
  0
LINE
  8
DETAIL
  6
CONTINUOUS
 62
     5
 10
84.262703999999985
 20
38.51716799999997
 30
0.0
 11
83.920795999999882
 21
38.538911999999982
 31
0.0
  0
LINE
  8
DETAIL
  6
CONTINUOUS
 62
     5
 10
55.685563000000002
 20
39.233257999999978
 30
0.0
 11
83.920795999999882
 21
38.538917999999967
 31
0.0
  0
LINE
  8
DETAIL
  6
CONTINUOUS
 62
     5
 10
86.847072999999909
 20
36.696745999999962
 30
0.0
 11
86.742064000000028
 21
37.029172000000017
 31
0.0
  0
LINE
  8
DETAIL
  6
CONTINUOUS
 62
     5
 10
86.87771900000007
 20
36.39030200000002
 30
0.0
 11
86.847072999999909
 21
36.696745999999962
 31
0.0
  0
LINE
  8
DETAIL
  6
CONTINUOUS
 62
     5
 10
86.188075000000026
 20
32.91223500000001
 30
0.0
 11
85.823679000000084
 21
33.146566000000007
 31
0.0
  0
LINE
  8
DETAIL
  6
CONTINUOUS
 62
     5
 10
85.823679000000084
 20
33.146566000000007
 30
0.0
 11
85.400863000000072
 21
33.336462999999981
 31
0.0
  0
LINE
  8
DETAIL
  6
CONTINUOUS
 62
     5
 10
86.700573999999961
 20
32.339117999999978
 30
0.0
 11
86.483332000000019
 21
32.640366999999969
 31
0.0
  0
LINE
  8
DETAIL
  6
CONTINUOUS
 62
     5
 10
86.483332000000019
 20
32.640366999999969
 30
0.0
 11
86.188075000000026
 21
32.91223500000001
 31
0.0
  0
LINE
  8
DETAIL
  6
CONTINUOUS
 62
     5
 10
86.877729000000045
 20
31.68677700000001
 30
0.0
 11
86.833215999999993
 21
32.017964999999997
 31
0.0
  0
LINE
  8
DETAIL
  6
CONTINUOUS
 62
     5
 10
86.833215999999993
 20
32.017964999999997
 30
0.0
 11
86.700573999999961
 21
32.339117999999978
 31
0.0
  0
LINE
  8
DETAIL
  6
CONTINUOUS
 62
     5
 10
85.400863000000072
 20
33.336462999999981
 30
0.0
 11
84.932272000000012
 21
33.476222999999997
 31
0.0
  0
LINE
  8
DETAIL
  6
CONTINUOUS
 62
     5
 10
84.932272000000012
 20
33.476222999999997
 30
0.0
 11
84.432589999999891
 21
33.561596000000009
 31
0.0
  0
LINE
  8
DETAIL
  6
CONTINUOUS
 62
     5
 10
84.432589999999891
 20
33.561596000000009
 30
0.0
 11
83.917214999999942
 21
33.590278000000012
 31
0.0
  0
LINE
  8
DETAIL
  6
CONTINUOUS
 62
     5
 10
83.917214999999942
 20
33.590278000000012
 30
0.0
 11
56.227012999999943
 21
33.530703000000017
 31
0.0
  0
LINE
  8
DETAIL
  6
CONTINUOUS
 62
     5
 10
55.240174999999908
 20
34.166434999999979
 30
0.0
 11
55.264803999999913
 21
34.026065000000017
 31
0.0
  0
LINE
  8
DETAIL
  6
CONTINUOUS
 62
     5
 10
55.264803999999913
 20
34.026065000000017
 30
0.0
 11
55.33747500000004
 21
33.892349999999958
 31
0.0
  0
LINE
  8
DETAIL
  6
CONTINUOUS
 62
     5
 10
55.33747500000004
 20
33.892349999999958
 30
0.0
 11
55.454629999999952
 21
33.77202299999999
 31
0.0
  0
LINE
  8
DETAIL
  6
CONTINUOUS
 62
     5
 10
55.454629999999952
 20
33.77202299999999
 30
0.0
 11
55.610523000000057
 21
33.671180000000049
 31
0.0
  0
LINE
  8
DETAIL
  6
CONTINUOUS
 62
     5
 10
55.610523000000057
 20
33.671180000000049
 30
0.0
 11
55.797508999999991
 21
33.594959000000017
 31
0.0
  0
LINE
  8
DETAIL
  6
CONTINUOUS
 62
     5
 10
55.797508999999991
 20
33.594959000000017
 30
0.0
 11
56.006413000000073
 21
33.547290999999973
 31
0.0
  0
LINE
  8
DETAIL
  6
CONTINUOUS
 62
     5
 10
56.006413000000073
 20
33.547290999999973
 30
0.0
 11
56.227012999999943
 21
33.530703000000017
 31
0.0
  0
LINE
  8
DETAIL
  6
CONTINUOUS
 62
     5
 10
55.242371999999932
 20
35.137072999999987
 30
0.0
 11
55.240906999999879
 21
35.156771000000049
 31
0.0
  0
LINE
  8
DETAIL
  6
CONTINUOUS
 62
     5
 10
55.251855999999862
 20
35.089875999999997
 30
0.0
 11
55.242371999999932
 21
35.137072999999987
 31
0.0
  0
LINE
  8
DETAIL
  6
CONTINUOUS
 62
     5
 10
55.406850999999961
 20
34.838220999999983
 30
0.0
 11
55.349470999999987
 21
34.900443000000003
 31
0.0
  0
LINE
  8
DETAIL
  6
CONTINUOUS
 62
     5
 10
55.474652999999989
 20
34.783679999999997
 30
0.0
 11
55.406850999999961
 21
34.838220999999983
 31
0.0
  0
LINE
  8
DETAIL
  6
CONTINUOUS
 62
     5
 10
55.548915000000079
 20
34.740843000000041
 30
0.0
 11
55.474652999999989
 21
34.783679999999997
 31
0.0
  0
LINE
  8
DETAIL
  6
CONTINUOUS
 62
     5
 10
55.304667999999992
 20
34.965563999999972
 30
0.0
 11
55.272412000000031
 21
35.029879000000051
 31
0.0
  0
LINE
  8
DETAIL
  6
CONTINUOUS
 62
     5
 10
55.272412000000031
 20
35.029879000000051
 30
0.0
 11
55.251855999999862
 21
35.089875999999997
 31
0.0
  0
LINE
  8
DETAIL
  6
CONTINUOUS
 62
     5
 10
55.349470999999987
 20
34.900443000000003
 30
0.0
 11
55.304667999999992
 21
34.965563999999972
 31
0.0
  0
LINE
  8
DETAIL
  6
CONTINUOUS
 62
     5
 10
83.917441000000053
 20
34.194780000000037
 30
0.0
 11
55.698110999999933
 21
34.700049000000043
 31
0.0
  0
LINE
  8
DETAIL
  6
CONTINUOUS
 62
     5
 10
55.677586000000019
 20
34.701588000000022
 30
0.0
 11
55.621075999999903
 21
34.713341000000007
 31
0.0
  0
LINE
  8
DETAIL
  6
CONTINUOUS
 62
     5
 10
55.698163000000022
 20
34.700049000000043
 30
0.0
 11
55.677586000000019
 21
34.701588000000022
 31
0.0
  0
LINE
  8
DETAIL
  6
CONTINUOUS
 62
     5
 10
55.621075999999903
 20
34.713341000000007
 30
0.0
 11
55.548915000000079
 21
34.740843000000041
 31
0.0
  0
LINE
  8
DETAIL
  6
CONTINUOUS
 62
     5
 10
86.626960999999937
 20
32.920864000000051
 30
0.0
 11
86.386072000000013
 21
33.236551999999961
 31
0.0
  0
LINE
  8
DETAIL
  6
CONTINUOUS
 62
     5
 10
86.386072000000013
 20
33.236551999999961
 30
0.0
 11
86.071273000000019
 21
33.519428999999953
 31
0.0
  0
LINE
  8
DETAIL
  6
CONTINUOUS
 62
     5
 10
86.071273000000019
 20
33.519428999999953
 30
0.0
 11
85.690873000000011
 21
33.760903999999982
 31
0.0
  0
LINE
  8
DETAIL
  6
CONTINUOUS
 62
     5
 10
85.690873000000011
 20
33.760903999999982
 30
0.0
 11
85.256384000000025
 21
33.953637999999962
 31
0.0
  0
LINE
  8
DETAIL
  6
CONTINUOUS
 62
     5
 10
85.256384000000025
 20
33.953637999999962
 30
0.0
 11
84.783844000000045
 21
34.091679999999997
 31
0.0
  0
LINE
  8
DETAIL
  6
CONTINUOUS
 62
     5
 10
84.783844000000045
 20
34.091679999999997
 30
0.0
 11
84.291819000000032
 21
34.172069999999962
 31
0.0
  0
LINE
  8
DETAIL
  6
CONTINUOUS
 62
     5
 10
84.291819000000032
 20
34.172069999999962
 30
0.0
 11
83.917439999999942
 21
34.194774000000052
 31
0.0
  0
LINE
  8
DETAIL
  6
CONTINUOUS
 62
     5
 10
86.877696000000014
 20
32.097324999999962
 30
0.0
 11
86.872106000000031
 21
32.204494999999952
 31
0.0
  0
LINE
  8
DETAIL
  6
CONTINUOUS
 62
     5
 10
86.877729000000045
 20
36.39030200000002
 30
0.0
 11
86.877729000000045
 21
32.108540999999953
 31
0.0
  0
LINE
  8
DETAIL
  6
CONTINUOUS
 62
     5
 10
86.854755999999952
 20
32.328007999999947
 30
0.0
 11
86.851438000000144
 21
32.346330999999957
 31
0.0
  0
LINE
  8
DETAIL
  6
CONTINUOUS
 62
     5
 10
86.872106000000031
 20
32.204494999999952
 30
0.0
 11
86.854755999999952
 21
32.328007999999947
 31
0.0
  0
LINE
  8
DETAIL
  6
CONTINUOUS
 62
     5
 10
86.851361999999881
 20
32.346740999999952
 30
0.0
 11
86.788098999999875
 21
32.583592999999951
 31
0.0
  0
LINE
  8
DETAIL
  6
CONTINUOUS
 62
     5
 10
86.788098999999875
 20
32.583592999999951
 30
0.0
 11
86.626960999999937
 21
32.920864000000051
 31
0.0
  0
LINE
  8
DETAIL
  6
CONTINUOUS
 62
     5
 10
86.877729000000045
 20
29.897731000000022
 30
0.0
 11
86.877729000000045
 21
32.097174000000003
 31
0.0
  0
LINE
  8
DETAIL
  6
CONTINUOUS
 62
     5
 10
86.847768999999971
 20
29.594631000000049
 30
0.0
 11
86.87771900000007
 21
29.897578999999951
 31
0.0
  0
LINE
  8
DETAIL
  6
CONTINUOUS
 62
     5
 10
86.74378999999999
 20
29.262695000000011
 30
0.0
 11
86.847768999999971
 21
29.594631000000049
 31
0.0
  0
LINE
  8
DETAIL
  6
CONTINUOUS
 62
     5
 10
86.314325000000053
 20
28.647001000000049
 30
0.0
 11
86.564822000000049
 21
28.943083999999999
 31
0.0
  0
LINE
  8
DETAIL
  6
CONTINUOUS
 62
     5
 10
86.564822000000049
 20
28.943083999999999
 30
0.0
 11
86.74378999999999
 21
29.262695000000011
 31
0.0
  0
LINE
  8
DETAIL
  6
CONTINUOUS
 62
     5
 10
85.624420999999984
 20
28.158339000000069
 30
0.0
 11
85.998329999999896
 21
28.38317000000006
 31
0.0
  0
LINE
  8
DETAIL
  6
CONTINUOUS
 62
     5
 10
85.998329999999896
 20
28.38317000000006
 30
0.0
 11
86.314325000000053
 21
28.647001000000049
 31
0.0
  0
LINE
  8
DETAIL
  6
CONTINUOUS
 62
     5
 10
84.748833999999988
 20
27.849169000000071
 30
0.0
 11
85.203297999999904
 21
27.97872800000005
 31
0.0
  0
LINE
  8
DETAIL
  6
CONTINUOUS
 62
     5
 10
83.920795999999882
 20
27.748978999999959
 30
0.0
 11
84.276706000000104
 21
27.77218100000005
 31
0.0
  0
LINE
  8
DETAIL
  6
CONTINUOUS
 62
     5
 10
84.276706000000104
 20
27.77218100000005
 30
0.0
 11
84.748833999999988
 21
27.849169000000071
 31
0.0
  0
LINE
  8
DETAIL
  6
CONTINUOUS
 62
     5
 10
85.203297999999904
 20
27.97872800000005
 30
0.0
 11
85.624420999999984
 21
28.158339000000069
 31
0.0
  0
ARC
  8
DETAIL
  6
CONTINUOUS
 62
     5
 10
55.742357999999967
 20
26.553691999999959
 30
0.0
 40
0.5021830000000001
 50
91.408691000000587
 51
180.0
  0
LINE
  8
DETAIL
  6
CONTINUOUS
 62
     5
 10
83.920795999999882
 20
27.748969999999989
 30
0.0
 11
55.730011999999988
 21
27.05572299999994
 31
0.0
  0
ARC
  8
DETAIL
  6
CONTINUOUS
 62
     5
 10
56.004367000000002
 20
-49.23151299999995
 30
0.0
 40
1.004367
 50
180.0
 51
268.99999999999818
  0
LINE
  8
DETAIL
  6
CONTINUOUS
 62
     5
 10
86.5
 20
-53.731702999999918
 30
0.0
 11
86.5
 21
-56.748967999999991
 31
0.0
  0
ARC
  8
DETAIL
  6
CONTINUOUS
 62
     5
 10
83.486899999999878
 20
-53.731702999999918
 30
0.0
 40
3.0131000000000001
 50
0.0
 51
88.999999999998238
  0
LINE
  8
DETAIL
  6
CONTINUOUS
 62
     5
 10
55.986838000000027
 20
-50.235726999999997
 30
0.0
 11
83.539485000000013
 21
-50.719061000000011
 31
0.0
  0
ARC
  8
DETAIL
  6
CONTINUOUS
 62
     5
 10
56.004367000000002
 20
-61.249157999999973
 30
0.0
 40
1.004367
 50
91.000000000001776
 51
180.0
  0
LINE
  8
DETAIL
  6
CONTINUOUS
 62
     5
 10
83.539485000000013
 20
-59.761610000000019
 30
0.0
 11
55.986838000000027
 21
-60.244944000000032
 31
0.0
  0
ARC
  8
DETAIL
  6
CONTINUOUS
 62
     5
 10
83.486899999999878
 20
-56.748967999999991
 30
0.0
 40
3.0131000000000001
 50
271.00000000000182
 51
0.0
  0
ARC
  8
DETAIL
  6
CONTINUOUS
 62
     5
 10
54.120087000000012
 20
-70.020105999999942
 30
0.0
 40
0.5021830000000001
 50
270.50000000000449
 51
0.0
  0
LINE
  8
DETAIL
  6
CONTINUOUS
 62
     5
 10
0.0
 20
-71.0
 30
0.0
 11
54.742373999999927
 21
-70.522270999999932
 31
0.0
  0
ARC
  8
DETAIL
  6
CONTINUOUS
 62
     5
 10
54.497816999999941
 20
70.020106000000055
 30
0.0
 40
0.5021830000000001
 50
0.0
 51
89.499999999995424
  0
LINE
  8
DETAIL
  6
CONTINUOUS
 62
     5
 10
0.0
 20
71.0
 30
0.0
 11
54.742373999999927
 21
70.522271000000046
 31
0.0
  0
LINE
  8
DETAIL
  6
CONTINUOUS
 62
     5
 10
55.240174999999908
 20
-31.43684199999996
 30
0.0
 11
57.449781999999907
 21
-31.43684199999996
 31
0.0
  0
LINE
  8
DETAIL
  6
CONTINUOUS
 62
     5
 10
56.043668000000032
 20
25.30988300000001
 30
0.0
 11
55.240174999999908
 21
25.30988300000001
 31
0.0
  0
LINE
  8
DETAIL
  6
CONTINUOUS
 62
     5
 10
56.043668000000032
 20
24.10464300000001
 30
0.0
 11
57.449781999999907
 21
24.10464300000001
 31
0.0
  0
ARC
  8
DETAIL
  6
CONTINUOUS
 62
     5
 10
58.383969999999863
 20
16.471454999999992
 30
0.0
 40
1.5065500000000001
 50
29.999999999993889
 51
90.0
  0
LINE
  8
DETAIL
  6
CONTINUOUS
 62
     5
 10
57.449781999999907
 20
17.978005000000049
 30
0.0
 11
58.383969999999863
 21
17.978005000000049
 31
0.0
  0
ARC
  8
DETAIL
  6
CONTINUOUS
 62
     5
 10
57.951964999999973
 20
23.502023000000008
 30
0.0
 40
0.5021830000000001
 50
180.0
 51
270.0
  0
LINE
  8
DETAIL
  6
CONTINUOUS
 62
     5
 10
57.449781999999907
 20
10.018451000000031
 30
0.0
 11
57.449781999999907
 21
24.10464300000001
 31
0.0
  0
ARC
  8
DETAIL
  6
CONTINUOUS
 62
     5
 10
58.383969999999863
 20
11.449620999999979
 30
0.0
 40
1.5065500000000001
 50
270.0
 51
330.00000000000608
  0
LINE
  8
DETAIL
  6
CONTINUOUS
 62
     5
 10
57.449781999999907
 20
9.9430710000000317
 30
0.0
 11
58.383969999999863
 21
9.9430710000000317
 31
0.0
  0
ARC
  8
DETAIL
  6
CONTINUOUS
 62
     5
 10
54.034934000000021
 20
13.960538000000041
 30
0.0
 40
6.4847800000000007
 50
339.34019300000102
 51
353.32943700000169
  0
ARC
  8
DETAIL
  6
CONTINUOUS
 62
     5
 10
54.034934000000021
 20
13.960538000000041
 30
0.0
 40
6.4847800000000007
 50
6.6705629999981202
 51
20.659806999998938
  0
LINE
  8
DETAIL
  6
CONTINUOUS
 62
     5
 10
59.688681000000088
 20
17.224730000000019
 30
0.0
 11
60.136686999999938
 21
16.281834
 31
0.0
  0
LINE
  8
DETAIL
  6
CONTINUOUS
 62
     5
 10
60.131474000000033
 20
13.585087000000041
 30
0.0
 11
60.14095599999996
 21
13.960538000000041
 31
0.0
  0
LINE
  8
DETAIL
  6
CONTINUOUS
 62
     5
 10
60.14095599999996
 20
13.960538000000041
 30
0.0
 11
60.131366999999948
 21
14.338108999999919
 31
0.0
  0
LINE
  8
DETAIL
  6
CONTINUOUS
 62
     5
 10
60.131366999999948
 20
14.338108999999919
 30
0.0
 11
60.102689999999939
 21
14.713813000000069
 31
0.0
  0
LINE
  8
DETAIL
  6
CONTINUOUS
 62
     5
 10
60.102689999999939
 20
13.20726300000001
 30
0.0
 11
60.131474000000033
 21
13.585087000000041
 31
0.0
  0
LINE
  8
DETAIL
  6
CONTINUOUS
 62
     5
 10
60.102689999999939
 20
11.67258700000002
 30
0.0
 11
60.140937000000122
 21
11.65050500000007
 31
0.0
  0
LINE
  8
DETAIL
  6
CONTINUOUS
 62
     5
 10
59.688681000000088
 20
10.696346000000061
 30
0.0
 11
60.136686999999938
 21
11.639241999999969
 31
0.0
  0
LINE
  8
DETAIL
  6
CONTINUOUS
 62
     5
 10
60.102689999999939
 20
14.713813000000069
 30
0.0
 11
60.475816000000123
 21
14.713813000000069
 31
0.0
  0
LINE
  8
DETAIL
  6
CONTINUOUS
 62
     5
 10
60.102689999999939
 20
13.20726300000001
 30
0.0
 11
60.475816000000123
 21
13.20726300000001
 31
0.0
  0
LINE
  8
DETAIL
  6
CONTINUOUS
 62
     5
 10
60.140937000000122
 20
16.270570000000021
 30
0.0
 11
60.102689999999939
 21
16.24848900000006
 31
0.0
  0
ARC
  8
DETAIL
  6
CONTINUOUS
 62
     5
 10
57.951964999999973
 20
-23.50234399999999
 30
0.0
 40
0.5021830000000001
 50
90.0
 51
162.0000000000019
  0
ARC
  8
DETAIL
  6
CONTINUOUS
 62
     5
 10
58.383969999999863
 20
-25.410640999999941
 30
0.0
 40
1.5065500000000001
 50
29.999999999993889
 51
90.0
  0
LINE
  8
DETAIL
  6
CONTINUOUS
 62
     5
 10
57.449781999999907
 20
-23.90409099999999
 30
0.0
 11
58.383969999999863
 21
-23.90409099999999
 31
0.0
  0
ARC
  8
DETAIL
  6
CONTINUOUS
 62
     5
 10
58.383969999999863
 20
-30.432475000000071
 30
0.0
 40
1.5065500000000001
 50
270.0
 51
330.00000000000608
  0
LINE
  8
DETAIL
  6
CONTINUOUS
 62
     5
 10
57.449781999999907
 20
-31.939025000000019
 30
0.0
 11
58.383969999999863
 21
-31.939025000000019
 31
0.0
  0
ARC
  8
DETAIL
  6
CONTINUOUS
 62
     5
 10
54.034934000000021
 20
-27.921558000000001
 30
0.0
 40
6.4847800000000007
 50
339.34019300000102
 51
353.32943700000169
  0
ARC
  8
DETAIL
  6
CONTINUOUS
 62
     5
 10
54.034934000000021
 20
-27.921558000000001
 30
0.0
 40
6.4847800000000007
 50
6.6705629999981202
 51
20.659806999998938
  0
LINE
  8
DETAIL
  6
CONTINUOUS
 62
     5
 10
60.102689999999939
 20
-28.674832999999921
 30
0.0
 11
60.131474000000033
 21
-28.297008999999999
 31
0.0
  0
LINE
  8
DETAIL
  6
CONTINUOUS
 62
     5
 10
60.131474000000033
 20
-28.297008999999999
 30
0.0
 11
60.14095599999996
 21
-27.921558000000001
 31
0.0
  0
LINE
  8
DETAIL
  6
CONTINUOUS
 62
     5
 10
60.14095599999996
 20
-27.921558000000001
 30
0.0
 11
60.131366999999948
 21
-27.543987000000019
 31
0.0
  0
LINE
  8
DETAIL
  6
CONTINUOUS
 62
     5
 10
60.131366999999948
 20
-27.543987000000019
 30
0.0
 11
60.102689999999939
 21
-27.16828299999997
 31
0.0
  0
LINE
  8
DETAIL
  6
CONTINUOUS
 62
     5
 10
59.688681000000088
 20
-24.657366000000021
 30
0.0
 11
60.136686999999938
 21
-25.60026200000004
 31
0.0
  0
LINE
  8
DETAIL
  6
CONTINUOUS
 62
     5
 10
59.688681000000088
 20
-31.185749999999981
 30
0.0
 11
60.136686999999938
 21
-30.24285499999996
 31
0.0
  0
LINE
  8
DETAIL
  6
CONTINUOUS
 62
     5
 10
60.102689999999939
 20
-30.209509000000029
 30
0.0
 11
60.140937000000122
 21
-30.23159099999998
 31
0.0
  0
LINE
  8
DETAIL
  6
CONTINUOUS
 62
     5
 10
60.140937000000122
 20
-25.61152600000003
 30
0.0
 11
60.102689999999939
 21
-25.63360699999998
 31
0.0
  0
LINE
  8
DETAIL
  6
CONTINUOUS
 62
     5
 10
60.102689999999939
 20
-27.16828299999997
 30
0.0
 11
60.475816000000123
 21
-27.16828299999997
 31
0.0
  0
LINE
  8
DETAIL
  6
CONTINUOUS
 62
     5
 10
60.102689999999939
 20
-28.674832999999921
 30
0.0
 11
60.475816000000123
 21
-28.674832999999921
 31
0.0
  0
LINE
  8
DETAIL
  6
CONTINUOUS
 62
     5
 10
57.449781999999907
 20
-31.939025000000019
 30
0.0
 11
57.449781999999907
 21
9.9430710000000317
 31
0.0
  0
LINE
  8
DETAIL
  6
CONTINUOUS
 62
     5
 10
56.847162000000033
 20
24.10464300000001
 30
0.0
 11
56.847162000000033
 21
-31.436561999999981
 31
0.0
  0
LINE
  8
DETAIL
  6
CONTINUOUS
 62
     5
 10
56.043668000000032
 20
-31.436561999999981
 30
0.0
 11
56.043668000000032
 21
25.309872999999929
 31
0.0
  0
LINE
  8
DETAIL
  6
CONTINUOUS
 62
     5
 10
57.951964999999973
 20
-23.000160999999931
 30
0.0
 11
80.951964999999973
 21
-23.000160999999931
 31
0.0
  0
ARC
  8
DETAIL
  6
CONTINUOUS
 62
     5
 10
80.951964999999973
 20
-20.388807000000039
 30
0.0
 40
2.611354
 50
270.0
 51
0.0
  0
ARC
  8
DETAIL
  6
CONTINUOUS
 62
     5
 10
80.951964999999973
 20
20.38848499999995
 30
0.0
 40
2.611354
 50
0.0
 51
90.0
  0
LINE
  8
DETAIL
  6
CONTINUOUS
 62
     5
 10
83.563318999999865
 20
20.388417
 30
0.0
 11
83.563318999999865
 21
-20.388417
 31
0.0
  0
LINE
  8
DETAIL
  6
CONTINUOUS
 62
     5
 10
57.951964999999973
 20
22.999839000000069
 30
0.0
 11
80.951964999999973
 21
22.999839000000069
 31
0.0
  0
LINE
  8
DETAIL
  6
CONTINUOUS
 62
     5
 10
55.286027999999988
 20
53.497208999999998
 30
0.0
 11
55.286027999999988
 21
46.27239899999995
 31
0.0
  0
LINE
  8
DETAIL
  6
CONTINUOUS
 62
     5
 10
40.676856000000043
 20
53.497208999999998
 30
0.0
 11
55.286027999999988
 21
53.497208999999998
 31
0.0
  0
LINE
  8
DETAIL
  6
CONTINUOUS
 62
     5
 10
55.286027999999988
 20
46.27239899999995
 30
0.0
 11
40.676856000000043
 21
46.27239899999995
 31
0.0
  0
LINE
  8
DETAIL
  6
CONTINUOUS
 62
     5
 10
40.676856000000043
 20
53.497208999999998
 30
0.0
 11
40.676856000000043
 21
46.27239899999995
 31
0.0
  0
LINE
  8
DETAIL
  6
CONTINUOUS
 62
     5
 10
40.676856000000043
 20
46.27239899999995
 30
0.0
 11
26.113536999999951
 21
56.704718999999947
 31
0.0
  0
LINE
  8
DETAIL
  6
CONTINUOUS
 62
     5
 10
25.611354000000119
 20
65.183546999999976
 30
0.0
 11
25.611354000000119
 21
56.563353000000014
 31
0.0
  0
LINE
  8
DETAIL
  6
CONTINUOUS
 62
     5
 10
26.113536999999951
 20
56.704718999999947
 30
0.0
 11
26.113536999999951
 21
65.183546999999976
 31
0.0
  0
LINE
  8
DETAIL
  6
CONTINUOUS
 62
     5
 10
40.676856000000043
 20
53.497208999999998
 30
0.0
 11
26.113536999999951
 21
63.92953
 31
0.0
  0
LINE
  8
DETAIL
  6
CONTINUOUS
 62
     5
 10
26.113536999999951
 20
65.183546999999976
 30
0.0
 11
25.611354000000119
 21
65.183546999999976
 31
0.0
  0
LINE
  8
DETAIL
  6
CONTINUOUS
 62
     5
 10
25.611354000000119
 20
56.563353000000014
 30
0.0
 11
40.464310000000069
 21
45.92355299999997
 31
0.0
  0
LINE
  8
DETAIL
  6
CONTINUOUS
 62
     5
 10
40.464310000000069
 20
45.92355299999997
 30
0.0
 11
55.242093000000068
 21
45.92355299999997
 31
0.0
  0
LINE
  8
DETAIL
  6
CONTINUOUS
 62
     5
 10
55.242093000000068
 20
45.92355299999997
 30
0.0
 11
55.286027999999988
 21
46.27239899999995
 31
0.0
  0
LINE
  8
OUTLINE
  6
CONTINUOUS
 62
     3
 10
-47.729013000000123
 20
-80.51256699999999
 30
0.0
 11
-47.738955000000033
 21
-80.501816000000076
 31
0.0
  0
LINE
  8
OUTLINE
  6
CONTINUOUS
 62
     3
 10
-45.689270999999962
 20
-78.452132000000006
 30
0.0
 11
-54.869676000000027
 21
-87.632536999999957
 31
0.0
  0
ARC
  8
OUTLINE
  6
CONTINUOUS
 62
     3
 10
-45.902329000000009
 20
-78.239074000000073
 30
0.0
 40
0.30131
 50
314.99999999999102
 51
4.4073729999973548
  0
LINE
  8
OUTLINE
  6
CONTINUOUS
 62
     3
 10
-0.3039389999999003
 20
104.999989
 30
0.0
 11
-40.679485000000113
 21
104.64763600000001
 31
0.0
  0
LINE
  8
OUTLINE
  6
CONTINUOUS
 62
     3
 10
0.0
 20
-124.698699
 30
0.0
 11
0.0
 21
104.6986899999999
 31
0.0
  0
ARC
  8
OUTLINE
  6
CONTINUOUS
 62
     3
 10
833.6244539999999
 20
-10.44932399999993
 30
0.0
 40
881.83406099999979
 50
172.65733300000241
 51
184.40737299999731
  0
ARC
  8
OUTLINE
  6
CONTINUOUS
 62
     3
 10
-40.676856000000043
 20
104.346329
 30
0.0
 40
0.30131
 50
90.499983999998236
 51
179.99821400000101
  0
LINE
  8
OUTLINE
  6
CONTINUOUS
 62
     3
 10
-40.978165999999867
 20
104.3463380000001
 30
0.0
 11
-40.978165999999867
 21
102.25191100000021
 31
0.0
  0
LINE
  8
OUTLINE
  6
CONTINUOUS
 62
     3
 10
-44.198143999999957
 20
-124.47873800000001
 30
0.0
 11
-50.174040999999988
 21
-121.896181
 31
0.0
  0
ARC
  8
OUTLINE
  6
CONTINUOUS
 62
     3
 10
-49.456858999999888
 20
-120.23666
 30
0.0
 40
1.80786
 50
187.22555800000379
 51
246.62782099999731
  0
ARC
  8
OUTLINE
  6
CONTINUOUS
 62
     3
 10
-43.500884000000042
 20
-122.865315
 30
0.0
 40
1.7576419999999999
 50
246.62782599999721
 51
269.4999999999954
  0
ARC
  8
OUTLINE
  6
CONTINUOUS
 62
     3
 10
-0.3013100000000577
 20
-124.6986899999999
 30
0.0
 40
0.30131
 50
269.50001600000178
 51
359.99821400000098
  0
ARC
  8
OUTLINE
  6
CONTINUOUS
 62
     3
 10
584.67428100000018
 20
-33.757798999999977
 30
0.0
 40
641.80848000000003
 50
184.8151389999959
 51
187.76421500000049
  0
LINE
  8
OUTLINE
  6
CONTINUOUS
 62
     3
 10
-43.516221999999971
 20
-124.62289
 30
0.0
 11
-0.3039389999999003
 21
-124.99999800000001
 31
0.0
  0
LINE
  8
OUTLINE
  6
CONTINUOUS
 62
     3
 10
-45.689270999999962
 20
-78.452132000000006
 30
0.0
 11
-52.918871999999958
 21
-85.681733000000008
 31
0.0
  0
LINE
  8
OUTLINE
  6
CONTINUOUS
 62
     3
 10
-52.918871999999958
 20
-85.681733000000008
 30
0.0
 11
-55.025380000000041
 21
-85.663350000000037
 31
0.0
  0
ARC
  8
OUTLINE
  6
CONTINUOUS
 62
     3
 10
-45.902329000000009
 20
-78.239074000000073
 30
0.0
 40
0.30131
 50
314.99999999999102
 51
4.4073729999973548
  0
ARC
  8
OUTLINE
  6
CONTINUOUS
 62
     3
 10
833.6244539999999
 20
-10.44932399999993
 30
0.0
 40
881.83406099999979
 50
172.7602269999997
 51
184.40737299999731
  0
ARC
  8
OUTLINE
  6
CONTINUOUS
 62
     3
 10
-46.129629000000023
 20
-77.903020999999967
 30
0.0
 40
0.5021830000000001
 50
313.83881600000848
 51
4.38448099999923
  0
LINE
  8
OUTLINE
  6
CONTINUOUS
 62
     3
 10
-45.781801000000087
 20
-78.265241999999944
 30
0.0
 11
-50.25565400000005
 21
-82.561333999999988
 31
0.0
  0
LINE
  8
OUTLINE
  6
CONTINUOUS
 62
     3
 10
-41.179149999999943
 20
100.681073
 30
0.0
 11
-41.179149999999943
 21
104.338945
 31
0.0
  0
LINE
  8
OUTLINE
  6
CONTINUOUS
 62
     3
 10
-50.25565400000005
 20
-82.561333999999988
 30
0.0
 11
-53.486525999999913
 21
-85.67677900000001
 31
0.0
  0
ARC
  8
OUTLINE
  6
CONTINUOUS
 62
     3
 10
823.58067500000016
 20
-10.449704999999989
 30
0.0
 40
881.83406099999979
 50
172.59133899999671
 51
184.89282399999991
  0
LINE
  8
OUTLINE
  6
CONTINUOUS
 62
     3
 10
-49.410728000000063
 20
104.57106
 30
0.0
 11
-41.483089999999947
 21
104.6402439999999
 31
0.0
  0
ARC
  8
OUTLINE
  6
CONTINUOUS
 62
     3
 10
-41.480459999999987
 20
104.338945
 30
0.0
 40
0.30131
 50
0.0
 51
90.50000000000459
  0
ARC
  8
OUTLINE
  6
CONTINUOUS
 62
     3
 10
-49.397580999999953
 20
103.06456799999999
 30
0.0
 40
1.5065500000000001
 50
90.50000000000459
 51
172.59133899999671
  0
LINE
  8
OUTLINE
  6
CONTINUOUS
 62
     3
 10
55.0
 20
70.020106000000055
 30
0.0
 11
55.0
 21
-70.020105999999942
 31
0.0
  0
ARC
  8
OUTLINE
  6
CONTINUOUS
 62
     3
 10
54.120087000000012
 20
-70.020105999999942
 30
0.0
 40
0.5021830000000001
 50
270.50000000000449
 51
0.0
  0
LINE
  8
OUTLINE
  6
CONTINUOUS
 62
     3
 10
0.0
 20
-71.0
 30
0.0
 11
54.742373999999927
 21
-70.522270999999932
 31
0.0
  0
ARC
  8
OUTLINE
  6
CONTINUOUS
 62
     3
 10
54.497816999999941
 20
70.020106000000055
 30
0.0
 40
0.5021830000000001
 50
0.0
 51
89.499999999995424
  0
LINE
  8
OUTLINE
  6
CONTINUOUS
 62
     3
 10
0.0
 20
71.0
 30
0.0
 11
54.742373999999927
 21
70.522271000000046
 31
0.0
  0
POINT
  8
ARRANGE
  6
CONTINUOUS
 62
     1
 10
0.0
 20
0.0
 30
0.0
  0
CIRCLE
  8
ARRANGE
  6
CONTINUOUS
 62
     1
 10
0.0
 20
0.0
 30
0.0
 40
40.0
  0
ARC
  8
DETAIL
  6
DIVIDE
 62
     5
 10
767.45941526928755
 20
259.12128167559081
 30
0.0
 40
881.83406099999979
 50
190.56252170722581
 51
202.31256170723191
  0
LINE
  8
DETAIL
  6
DIVIDE
 62
     5
 10
-53.015910901511688
 20
-85.028719608741767
 30
0.0
 11
-55.026045205668652
 21
-85.65885766346014
 31
0.0
  0
ARC
  8
DETAIL
  6
DIVIDE
 62
     5
 10
767.45941526928755
 20
259.12128167559081
 30
0.0
 40
881.83406099999979
 50
190.66541570723359
 51
202.31256170723191
  0
ARC
  8
DETAIL
  6
DIVIDE
 62
     5
 10
-48.947003198782113
 20
-75.539453514956676
 30
0.0
 40
0.5021830000000001
 50
331.74400470723322
 51
22.289669707228061
  0
LINE
  8
DETAIL
  6
DIVIDE
 62
     5
 10
-48.504659467442927
 20
-75.777193696183758
 30
0.0
 11
-51.44102587908219
 21
-81.240665068367207
 31
0.0
  0
LINE
  8
DETAIL
  6
DIVIDE
 62
     5
 10
-99.140685534151316
 20
95.917188601195676
 30
0.0
 11
-100.2652719180937
 21
99.397897298204725
 31
0.0
  0
LINE
  8
DETAIL
  6
DIVIDE
 62
     5
 10
-51.269229371732308
 20
-78.315756083326733
 30
0.0
 11
-51.161795921457951
 21
-78.1534724916512
 31
0.0
  0
LINE
  8
DETAIL
  6
DIVIDE
 62
     5
 10
-51.006997815294653
 20
-77.99102504166126
 30
0.0
 11
-50.813247973008863
 21
-77.835454219845928
 31
0.0
  0
LINE
  8
DETAIL
  6
DIVIDE
 62
     5
 10
-51.161795921457951
 20
-78.1534724916512
 30
0.0
 11
-51.006997815294653
 21
-77.99102504166126
 31
0.0
  0
LINE
  8
DETAIL
  6
DIVIDE
 62
     5
 10
-50.063565493641818
 20
-77.444841005110334
 30
0.0
 11
-49.263952689639609
 21
-77.18649313687888
 31
0.0
  0
LINE
  8
DETAIL
  6
DIVIDE
 62
     5
 10
-50.334833690346393
 20
-77.559133011521794
 30
0.0
 11
-50.063565493641818
 21
-77.444841005110334
 31
0.0
  0
LINE
  8
DETAIL
  6
DIVIDE
 62
     5
 10
-50.588246330439461
 20
-77.691079524102406
 30
0.0
 11
-50.334833690346393
 21
-77.559133011521794
 31
0.0
  0
LINE
  8
DETAIL
  6
DIVIDE
 62
     5
 10
-50.813247973008863
 20
-77.835454219845928
 30
0.0
 11
-50.588246330439461
 21
-77.691079524102406
 31
0.0
  0
LINE
  8
DETAIL
  6
DIVIDE
 62
     5
 10
-51.44102587908219
 20
-81.240665068367207
 30
0.0
 11
-53.557594540424589
 21
-85.198526679165639
 31
0.0
  0
ARC
  8
DETAIL
  6
DIVIDE
 62
     5
 10
757.90220811476593
 20
256.03303166117257
 30
0.0
 40
881.83406099999979
 50
190.496527707231
 51
202.7980127072309
  0
LINE
  8
DETAIL
  6
DIVIDE
 62
     5
 10
-51.269230323298871
 20
-78.315756390769593
 30
0.0
 11
-55.026045205668652
 21
-85.65885766346014
 31
0.0
  0
LINE
  8
DETAIL
  6
DIVIDE
 62
     5
 10
-108.1695284101795
 20
97.088030840889132
 30
0.0
 11
-100.64712326616289
 21
99.591159190410053
 31
0.0
  0
ARC
  8
DETAIL
  6
DIVIDE
 62
     5
 10
-100.5519884400214
 20
99.305261710260311
 30
0.0
 40
0.30131
 50
17.905188707229811
 51
108.40518870723631
  0
ARC
  8
DETAIL
  6
DIVIDE
 62
     5
 10
-107.6938580564988
 20
95.658545372511639
 30
0.0
 40
1.5065500000000001
 50
108.40518870723631
 51
190.496527707231
  0
LINE
  8
OUTLINE
  6
CONTINUOUS
 62
     3
 10
86.742064000000028
 20
37.029172000000017
 30
0.0
 11
86.56198500000005
 21
37.348868000000039
 31
0.0
  0
LINE
  8
OUTLINE
  6
CONTINUOUS
 62
     3
 10
86.56198500000005
 20
37.348868000000039
 30
0.0
 11
86.310211999999865
 21
37.64494400000001
 31
0.0
  0
LINE
  8
OUTLINE
  6
CONTINUOUS
 62
     3
 10
86.310211999999865
 20
37.64494400000001
 30
0.0
 11
85.992444999999861
 21
37.908874999999973
 31
0.0
  0
LINE
  8
OUTLINE
  6
CONTINUOUS
 62
     3
 10
85.992444999999861
 20
37.908874999999973
 30
0.0
 11
85.61586699999998
 21
38.133880999999967
 31
0.0
  0
LINE
  8
OUTLINE
  6
CONTINUOUS
 62
     3
 10
85.61586699999998
 20
38.133880999999967
 30
0.0
 11
85.191687999999886
 21
38.313228999999978
 31
0.0
  0
LINE
  8
OUTLINE
  6
CONTINUOUS
 62
     3
 10
85.191687999999886
 20
38.313228999999978
 30
0.0
 11
84.734963999999991
 21
38.441773000000012
 31
0.0
  0
LINE
  8
OUTLINE
  6
CONTINUOUS
 62
     3
 10
84.734963999999991
 20
38.441773000000012
 30
0.0
 11
84.262703999999985
 21
38.51716799999997
 31
0.0
  0
LINE
  8
OUTLINE
  6
CONTINUOUS
 62
     3
 10
84.262703999999985
 20
38.51716799999997
 30
0.0
 11
83.920795999999882
 21
38.538911999999982
 31
0.0
  0
LINE
  8
OUTLINE
  6
CONTINUOUS
 62
     3
 10
55.685563000000002
 20
39.233257999999978
 30
0.0
 11
83.920795999999882
 21
38.538917999999967
 31
0.0
  0
LINE
  8
OUTLINE
  6
CONTINUOUS
 62
     3
 10
86.847072999999909
 20
36.696745999999962
 30
0.0
 11
86.742064000000028
 21
37.029172000000017
 31
0.0
  0
LINE
  8
OUTLINE
  6
CONTINUOUS
 62
     3
 10
86.87771900000007
 20
36.39030200000002
 30
0.0
 11
86.847072999999909
 21
36.696745999999962
 31
0.0
  0
LINE
  8
OUTLINE
  6
CONTINUOUS
 62
     3
 10
86.877729000000045
 20
36.39030200000002
 30
0.0
 11
86.877729000000045
 21
32.108540999999953
 31
0.0
  0
LINE
  8
OUTLINE
  6
CONTINUOUS
 62
     3
 10
86.877729000000045
 20
29.897731000000022
 30
0.0
 11
86.877729000000045
 21
32.097174000000003
 31
0.0
  0
LINE
  8
OUTLINE
  6
CONTINUOUS
 62
     3
 10
86.847768999999971
 20
29.594631000000049
 30
0.0
 11
86.87771900000007
 21
29.897578999999951
 31
0.0
  0
LINE
  8
OUTLINE
  6
CONTINUOUS
 62
     3
 10
86.74378999999999
 20
29.262695000000011
 30
0.0
 11
86.847768999999971
 21
29.594631000000049
 31
0.0
  0
LINE
  8
OUTLINE
  6
CONTINUOUS
 62
     3
 10
86.314325000000053
 20
28.647001000000049
 30
0.0
 11
86.564822000000049
 21
28.943083999999999
 31
0.0
  0
LINE
  8
OUTLINE
  6
CONTINUOUS
 62
     3
 10
86.564822000000049
 20
28.943083999999999
 30
0.0
 11
86.74378999999999
 21
29.262695000000011
 31
0.0
  0
LINE
  8
OUTLINE
  6
CONTINUOUS
 62
     3
 10
85.624420999999984
 20
28.158339000000069
 30
0.0
 11
85.998329999999896
 21
28.38317000000006
 31
0.0
  0
LINE
  8
OUTLINE
  6
CONTINUOUS
 62
     3
 10
85.998329999999896
 20
28.38317000000006
 30
0.0
 11
86.314325000000053
 21
28.647001000000049
 31
0.0
  0
LINE
  8
OUTLINE
  6
CONTINUOUS
 62
     3
 10
84.748833999999988
 20
27.849169000000071
 30
0.0
 11
85.203297999999904
 21
27.97872800000005
 31
0.0
  0
LINE
  8
OUTLINE
  6
CONTINUOUS
 62
     3
 10
83.920795999999882
 20
27.748978999999959
 30
0.0
 11
84.276706000000104
 21
27.77218100000005
 31
0.0
  0
LINE
  8
OUTLINE
  6
CONTINUOUS
 62
     3
 10
84.276706000000104
 20
27.77218100000005
 30
0.0
 11
84.748833999999988
 21
27.849169000000071
 31
0.0
  0
LINE
  8
OUTLINE
  6
CONTINUOUS
 62
     3
 10
85.203297999999904
 20
27.97872800000005
 30
0.0
 11
85.624420999999984
 21
28.158339000000069
 31
0.0
  0
LINE
  8
OUTLINE
  6
CONTINUOUS
 62
     3
 10
83.920795999999882
 20
27.748969999999989
 30
0.0
 11
55.730011999999988
 21
27.05572299999994
 31
0.0
  0
ARC
  8
OUTLINE
  6
CONTINUOUS
 62
     3
 10
56.004367000000002
 20
-49.23151299999995
 30
0.0
 40
1.004367
 50
180.0
 51
268.99999999999818
  0
LINE
  8
OUTLINE
  6
CONTINUOUS
 62
     3
 10
86.5
 20
-53.731702999999918
 30
0.0
 11
86.5
 21
-56.748967999999991
 31
0.0
  0
ARC
  8
OUTLINE
  6
CONTINUOUS
 62
     3
 10
83.486899999999878
 20
-53.731702999999918
 30
0.0
 40
3.0131000000000001
 50
0.0
 51
88.999999999998238
  0
LINE
  8
OUTLINE
  6
CONTINUOUS
 62
     3
 10
55.986838000000027
 20
-50.235726999999997
 30
0.0
 11
83.539485000000013
 21
-50.719061000000011
 31
0.0
  0
ARC
  8
OUTLINE
  6
CONTINUOUS
 62
     3
 10
56.004367000000002
 20
-61.249157999999973
 30
0.0
 40
1.004367
 50
91.000000000001776
 51
180.0
  0
LINE
  8
OUTLINE
  6
CONTINUOUS
 62
     3
 10
83.539485000000013
 20
-59.761610000000019
 30
0.0
 11
55.986838000000027
 21
-60.244944000000032
 31
0.0
  0
ARC
  8
OUTLINE
  6
CONTINUOUS
 62
     3
 10
83.486899999999878
 20
-56.748967999999991
 30
0.0
 40
3.0131000000000001
 50
271.00000000000182
 51
0.0
  0
LINE
  8
OUTLINE
  6
CONTINUOUS
 62
     3
 10
55.240174999999908
 20
-31.43684199999996
 30
0.0
 11
57.449781999999907
 21
-31.43684199999996
 31
0.0
  0
LINE
  8
OUTLINE
  6
CONTINUOUS
 62
     3
 10
56.043668000000032
 20
25.30988300000001
 30
0.0
 11
55.240174999999908
 21
25.30988300000001
 31
0.0
  0
LINE
  8
OUTLINE
  6
CONTINUOUS
 62
     3
 10
56.043668000000032
 20
24.10464300000001
 30
0.0
 11
57.449781999999907
 21
24.10464300000001
 31
0.0
  0
ARC
  8
OUTLINE
  6
CONTINUOUS
 62
     3
 10
57.951964999999973
 20
23.502023000000008
 30
0.0
 40
0.5021830000000001
 50
180.0
 51
270.0
  0
LINE
  8
OUTLINE
  6
CONTINUOUS
 62
     3
 10
57.449781999999907
 20
23.502023000000008
 30
0.0
 11
57.449781999999907
 21
24.10464300000001
 31
0.0
  0
ARC
  8
OUTLINE
  6
CONTINUOUS
 62
     3
 10
57.951964999999973
 20
-23.50234399999999
 30
0.0
 40
0.5021830000000001
 50
90.0
 51
162.0000000000019
  0
ARC
  8
OUTLINE
  6
CONTINUOUS
 62
     3
 10
58.383969999999863
 20
-25.410640999999941
 30
0.0
 40
1.5065500000000001
 50
29.999999999993889
 51
90.0
  0
LINE
  8
OUTLINE
  6
CONTINUOUS
 62
     3
 10
57.472767385971572
 20
-23.90409099999999
 30
0.0
 11
58.383969999999863
 21
-23.90409099999999
 31
0.0
  0
ARC
  8
OUTLINE
  6
CONTINUOUS
 62
     3
 10
58.383969999999863
 20
-30.432475000000071
 30
0.0
 40
1.5065500000000001
 50
270.0
 51
330.00000000000608
  0
LINE
  8
OUTLINE
  6
CONTINUOUS
 62
     3
 10
57.449781999999907
 20
-31.939025000000019
 30
0.0
 11
58.383969999999863
 21
-31.939025000000019
 31
0.0
  0
ARC
  8
OUTLINE
  6
CONTINUOUS
 62
     3
 10
54.034934000000021
 20
-27.921558000000001
 30
0.0
 40
6.4847800000000007
 50
339.34019300000102
 51
353.32943700000169
  0
ARC
  8
OUTLINE
  6
CONTINUOUS
 62
     3
 10
54.034934000000021
 20
-27.921558000000001
 30
0.0
 40
6.4847800000000007
 50
6.6705629999981202
 51
20.659806999998938
  0
LINE
  8
OUTLINE
  6
CONTINUOUS
 62
     3
 10
60.102689999999939
 20
-28.674832999999921
 30
0.0
 11
60.131474000000033
 21
-28.297008999999999
 31
0.0
  0
LINE
  8
OUTLINE
  6
CONTINUOUS
 62
     3
 10
60.131474000000033
 20
-28.297008999999999
 30
0.0
 11
60.14095599999996
 21
-27.921558000000001
 31
0.0
  0
LINE
  8
OUTLINE
  6
CONTINUOUS
 62
     3
 10
60.14095599999996
 20
-27.921558000000001
 30
0.0
 11
60.131366999999948
 21
-27.543987000000019
 31
0.0
  0
LINE
  8
OUTLINE
  6
CONTINUOUS
 62
     3
 10
60.131366999999948
 20
-27.543987000000019
 30
0.0
 11
60.102689999999939
 21
-27.16828299999997
 31
0.0
  0
LINE
  8
OUTLINE
  6
CONTINUOUS
 62
     3
 10
59.688681000000088
 20
-24.657366000000021
 30
0.0
 11
60.136686999999938
 21
-25.60026200000004
 31
0.0
  0
LINE
  8
OUTLINE
  6
CONTINUOUS
 62
     3
 10
59.688681000000088
 20
-31.185749999999981
 30
0.0
 11
60.136686999999938
 21
-30.24285499999996
 31
0.0
  0
LINE
  8
OUTLINE
  6
CONTINUOUS
 62
     3
 10
60.102689999999939
 20
-30.209509000000029
 30
0.0
 11
60.140937000000122
 21
-30.23159099999998
 31
0.0
  0
LINE
  8
OUTLINE
  6
CONTINUOUS
 62
     3
 10
60.140937000000122
 20
-25.61152600000003
 30
0.0
 11
60.102689999999939
 21
-25.63360699999998
 31
0.0
  0
LINE
  8
OUTLINE
  6
CONTINUOUS
 62
     3
 10
60.102689999999939
 20
-27.16828299999997
 30
0.0
 11
60.475816000000123
 21
-27.16828299999997
 31
0.0
  0
LINE
  8
OUTLINE
  6
CONTINUOUS
 62
     3
 10
60.102689999999939
 20
-28.674832999999921
 30
0.0
 11
60.475816000000123
 21
-28.674832999999921
 31
0.0
  0
LINE
  8
OUTLINE
  6
CONTINUOUS
 62
     3
 10
57.449781999999907
 20
-31.939025000000019
 30
0.0
 11
57.449781999999907
 21
-31.43684199999996
 31
0.0
  0
LINE
  8
OUTLINE
  6
CONTINUOUS
 62
     3
 10
57.472767385971572
 20
-23.90409099999999
 30
0.0
 11
57.47436058547737
 21
-23.347160918713829
 31
0.0
  0
LINE
  8
OUTLINE
  6
CONTINUOUS
 62
     3
 10
56.043668000000032
 20
24.10464300000001
 30
0.0
 11
56.043668000000032
 21
25.309872999999929
 31
0.0
  0
LINE
  8
OUTLINE
  6
CONTINUOUS
 62
     3
 10
57.951964999999973
 20
-23.000160999999931
 30
0.0
 11
80.951964999999973
 21
-23.000160999999931
 31
0.0
  0
ARC
  8
OUTLINE
  6
CONTINUOUS
 62
     3
 10
80.951964999999973
 20
-20.388807000000039
 30
0.0
 40
2.611354
 50
270.0
 51
0.0
  0
ARC
  8
OUTLINE
  6
CONTINUOUS
 62
     3
 10
80.951964999999973
 20
20.38848499999995
 30
0.0
 40
2.611354
 50
0.0
 51
90.0
  0
LINE
  8
OUTLINE
  6
CONTINUOUS
 62
     3
 10
83.563318999999865
 20
20.388417
 30
0.0
 11
83.563318999999865
 21
-20.388417
 31
0.0
  0
LINE
  8
OUTLINE
  6
CONTINUOUS
 62
     3
 10
57.951964999999973
 20
22.999839000000069
 30
0.0
 11
80.951964999999973
 21
22.999839000000069
 31
0.0
  0
ENDSEC
  0
EOF
