  0
SECTION
  2
HEADER
  9
$ACADVER
  1
AC1009
  9
$DWGCODEPAGE
  3
dos932
  9
$INSBASE
 10
0.0
 20
0.0
 30
0.0
  9
$EXTMIN
 10
-388.94077900000002
 20
-398.93696199999999
 30
0.0
  9
$EXTMAX
 10
541.24471900000003
 20
356.72474600000021
 30
50.0
  9
$LIMMIN
 10
-2970.0
 20
-2100.0
  9
$LIMMAX
 10
2970.0
 20
2100.0
  9
$ORTHOMODE
 70
     1
  9
$REGENMODE
 70
     1
  9
$FILLMODE
 70
     1
  9
$QTEXTMODE
 70
     0
  9
$MIRRTEXT
 70
     0
  9
$LTSCALE
 40
20.0
  9
$ATTMODE
 70
     1
  9
$TEXTSIZE
 40
64.0
  9
$TRACEWID
 40
0.05
  9
$TEXTSTYLE
  7
STANDARD
  9
$CLAYER
  8
DETAIL
  9
$CELTYPE
  6
CONTINUOUS
  9
$CECOLOR
 62
     7
  9
$DIMSCALE
 40
1.0
  9
$DIMASZ
 40
12.0
  9
$DIMEXO
 40
20.0
  9
$DIMDLI
 40
200.0
  9
$DIMRND
 40
0.0
  9
$DIMDLE
 40
0.0
  9
$DIMEXE
 40
20.0
  9
$DIMTP
 40
0.0
  9
$DIMTM
 40
0.0
  9
$DIMTXT
 40
64.0
  9
$DIMCEN
 40
0.09
  9
$DIMTSZ
 40
0.0
  9
$DIMTOL
 70
     0
  9
$DIMLIM
 70
     0
  9
$DIMTIH
 70
     0
  9
$DIMTOH
 70
     0
  9
$DIMSE1
 70
     0
  9
$DIMSE2
 70
     0
  9
$DIMTAD
 70
     1
  9
$DIMZIN
 70
     8
  9
$DIMBLK
  1

  9
$DIMASO
 70
     1
  9
$DIMSHO
 70
     0
  9
$DIMPOST
  1

  9
$DIMAPOST
  1

  9
$DIMALT
 70
     0
  9
$DIMALTD
 70
     2
  9
$DIMALTF
 40
25.399999999999999
  9
$DIMLFAC
 40
1.0
  9
$DIMTOFL
 70
     1
  9
$DIMTVP
 40
0.0
  9
$DIMTIX
 70
     1
  9
$DIMSOXD
 70
     0
  9
$DIMSAH
 70
     0
  9
$DIMBLK1
  1

  9
$DIMBLK2
  1

  9
$DIMSTYLE
  2
STANDARD
  9
$DIMCLRD
 70
     7
  9
$DIMCLRE
 70
     7
  9
$DIMCLRT
 70
     7
  9
$DIMTFAC
 40
1.0
  9
$DIMGAP
 40
25.0
  9
$LUNITS
 70
     2
  9
$LUPREC
 70
     4
  9
$SKETCHINC
 40
0.1
  9
$FILLETRAD
 40
2.0
  9
$AUNITS
 70
     1
  9
$AUPREC
 70
     3
  9
$MENU
  1
ACAD
  9
$ELEVATION
 40
0.0
  9
$PELEVATION
 40
0.0
  9
$THICKNESS
 40
50.0
  9
$LIMCHECK
 70
     0
  9
$CHAMFERA
 40
0.0
  9
$CHAMFERB
 40
0.0
  9
$SKPOLY
 70
     0
  9
$TDCREATE
 40
2453019.623009259
  9
$TDUPDATE
 40
2459356.665568264
  9
$TDINDWG
 40
0.6618367361
  9
$TDUSRTIMER
 40
0.6618367361
  9
$USRTIMER
 70
     1
  9
$ANGBASE
 50
0.0
  9
$ANGDIR
 70
     0
  9
$PDMODE
 70
     3
  9
$PDSIZE
 40
-2.0
  9
$PLINEWID
 40
0.0
  9
$SPLFRAME
 70
     0
  9
$SPLINETYPE
 70
     6
  9
$SPLINESEGS
 70
     8
  9
$SURFTAB1
 70
     6
  9
$SURFTAB2
 70
     6
  9
$SURFTYPE
 70
     6
  9
$SURFU
 70
     6
  9
$SURFV
 70
     6
  9
$UCSNAME
  2

  9
$UCSORG
 10
0.0
 20
0.0
 30
0.0
  9
$UCSXDIR
 10
1.0
 20
0.0
 30
0.0
  9
$UCSYDIR
 10
0.0
 20
1.0
 30
0.0
  9
$PUCSNAME
  2

  9
$PUCSORG
 10
0.0
 20
0.0
 30
0.0
  9
$PUCSXDIR
 10
1.0
 20
0.0
 30
0.0
  9
$PUCSYDIR
 10
0.0
 20
1.0
 30
0.0
  9
$USERI1
 70
     0
  9
$USERI2
 70
     0
  9
$USERI3
 70
     0
  9
$USERI4
 70
     0
  9
$USERI5
 70
     0
  9
$USERR1
 40
20.0
  9
$USERR2
 40
0.0
  9
$USERR3
 40
0.0
  9
$USERR4
 40
0.0
  9
$USERR5
 40
0.0
  9
$WORLDVIEW
 70
     1
  9
$SHADEDGE
 70
     3
  9
$SHADEDIF
 70
    70
  9
$TILEMODE
 70
     1
  9
$MAXACTVP
 70
    48
  9
$PINSBASE
 10
0.0
 20
0.0
 30
0.0
  9
$PLIMCHECK
 70
     0
  9
$PEXTMIN
 10
-100000000000000000000.0
 20
-100000000000000000000.0
 30
-100000000000000000000.0
  9
$PEXTMAX
 10
100000000000000000000.0
 20
100000000000000000000.0
 30
100000000000000000000.0
  9
$PLIMMIN
 10
0.0
 20
0.0
  9
$PLIMMAX
 10
12.0
 20
9.0
  9
$UNITMODE
 70
     0
  9
$VISRETAIN
 70
     0
  9
$PLINEGEN
 70
     0
  9
$PSLTSCALE
 70
     0
  9
$TREEDEPTH
 70
  3020
  9
$ATTDIA
 70
     0
  9
$ATTREQ
 70
     1
  9
$BLIPMODE
 70
     1
  9
$COORDS
 70
     1
  9
$DRAGMODE
 70
     2
  9
$OSMODE
 70
     0
  9
$HANDLING
 70
     0
  9
$HANDSEED
  5
268
  0
ENDSEC
  0
SECTION
  2
TABLES
  0
TABLE
  2
LTYPE
 70
     2
  0
LTYPE
  2
CONTINUOUS
 70
     0
  3
実線
 72
    65
 73
     0
 40
0.0
  0
LTYPE
  2
DASHDOT
 70
     0
  3
____ _ ____ _ ____ _ ____ _ ____ _ ____ _ ____
 72
    65
 73
     4
 40
5.5
 49
4.0
 49
-0.6
 49
0.3
 49
-0.6
  0
ENDTAB
  0
TABLE
  2
LAYER
 70
    12
  0
LAYER
  2
0
 70
     0
 62
     7
  6
CONTINUOUS
  0
LAYER
  2
DETAIL
 70
     0
 62
     5
  6
CONTINUOUS
  0
LAYER
  2
BASIS
 70
     0
 62
     6
  6
DASHDOT
  0
LAYER
  2
OUTLINE
 70
     0
 62
     3
  6
CONTINUOUS
  0
LAYER
  2
SIZE
 70
     0
 62
    30
  6
CONTINUOUS
  0
LAYER
  2
ARRANGE
 70
     0
 62
     1
  6
CONTINUOUS
  0
LAYER
  2
DEFPOINTS
 70
     0
 62
     7
  6
CONTINUOUS
  0
LAYER
  2
ETC
 70
     0
 62
    61
  6
CONTINUOUS
  0
LAYER
  2
FIX
 70
     0
 62
    11
  6
CONTINUOUS
  0
LAYER
  2
NOTE
 70
     0
 62
     4
  6
CONTINUOUS
  0
LAYER
  2
SERVICESPACE
 70
    64
 62
     2
  6
DASHDOT
  0
LAYER
  2
SYMBOLLINE
 70
    64
 62
    15
  6
CONTINUOUS
  0
ENDTAB
  0
TABLE
  2
STYLE
 70
     1
  0
STYLE
  2
STANDARD
 70
     0
 40
64.0
 41
0.9
 50
0.0
 71
     0
 42
64.0
  3
SIMPLEX.shx
  4
BIGFONT.shx
  0
ENDTAB
  0
TABLE
  2
APPID
 70
     8
  0
APPID
  2
ACAD
 70
     0
  0
APPID
  2
ACADANNOTATIVE
 70
     0
  0
APPID
  2
AUTOCAD_POSTSCRIPT_FIGURE
 70
     0
  0
APPID
  2
ACAD_EXEMPT_FROM_CAD_STANDARDS
 70
     0
  0
APPID
  2
ACAD_PSEXT
 70
     0
  0
APPID
  2
ACAUTHENVIRON
 70
     0
  0
APPID
  2
ACAD_NAV_VCDISPLAY
 70
     0
  0
APPID
  2
ACAD_MLEADERVER
 70
     0
  0
ENDTAB
  0
TABLE
  2
DIMSTYLE
 70
     1
  0
DIMSTYLE
  2
STANDARD
 70
     0
  3

  4

  5

  6

  7

 40
1.0
 41
0.18
 42
0.0625
 43
0.38
 44
0.18
 45
0.0
 46
0.0
 47
0.0
 48
0.0
140
0.18
141
0.09
142
0.0
143
25.399999999999999
144
1.0
145
0.0
146
1.0
147
0.09
 71
     0
 72
     0
 73
     1
 74
     1
 75
     0
 76
     0
 77
     0
 78
     0
170
     0
171
     2
172
     0
173
     0
174
     0
175
     0
176
     7
177
     7
178
     7
  0
ENDTAB
  0
TABLE
  2
VIEW
 70
     1
  0
VIEW
  2
ALL
 70
     0
 40
4282.6198079999986
 10
0.0
 20
41.309904000000003
 41
5940.0
 11
0.0
 21
0.0
 31
1.0
 12
0.0
 22
0.0
 32
0.0
 42
50.0
 43
0.0
 44
0.0
 50
0.0
 71
     0
  0
ENDTAB
  0
TABLE
  2
UCS
 70
     0
  0
ENDTAB
  0
TABLE
  2
VPORT
 70
     1
  0
VPORT
  2
*ACTIVE
 70
     0
 10
0.0
 20
0.0
 11
1.0
 21
1.0
 12
76.135267999999883
 22
-9.156441427210666
 13
0.0
 23
0.0
 14
1.0
 24
1.0
 15
0.0
 25
0.0
 16
0.0
 26
0.0
 36
1.0
 17
0.0
 27
0.0
 37
0.0
 40
786.63370814557857
 41
1.767337807606264
 42
50.0
 43
0.0
 44
0.0
 50
0.0
 51
0.0
 71
     0
 72
  1000
 73
     1
 74
     0
 75
     0
 76
     0
 77
     0
 78
     0
  0
ENDTAB
  0
ENDSEC
  0
SECTION
  2
BLOCKS
  0
BLOCK
  8
0
  2
_ORIGIN
 70
     0
 10
0.0
 20
0.0
 30
0.0
  3
_ORIGIN
  1
_ORIGIN
  0
CIRCLE
  8
0
  6
CONTINUOUS
 62
     7
 10
0.0
 20
0.0
 30
0.0
 40
0.5
  0
LINE
  8
0
  6
CONTINUOUS
 62
     7
 10
0.0
 20
0.0
 30
0.0
 11
-1.0
 21
0.0
 31
0.0
  0
ENDBLK
  8
0
  0
ENDSEC
  0
SECTION
  2
ENTITIES
  0
TEXT
  8
ETC
  6
CONTINUOUS
 62
    61
 10
106.329442
 20
316.72474599999998
 30
0.0
 40
40.0
  1
V-12PEQD6_2
 41
0.9
  0
TEXT
  8
ETC
  6
CONTINUOUS
 62
    61
 10
100.903597
 20
256.65463
 30
0.0
 40
40.0
  1
換気扇
 41
0.9
  0
TEXT
  8
ETC
  6
CONTINUOUS
 62
    61
 10
156.32541000000001
 20
190.11009100000001
 30
0.0
 40
40.0
  1
V-12PEQD6
 41
0.9
  0
LINE
  8
DETAIL
  6
CONTINUOUS
 62
     5
 10
114.57898400000001
 20
-78.655272999999994
 30
0.0
 11
114.59460799999999
 21
-78.655272999999994
 31
0.0
  0
LINE
  8
DETAIL
  6
CONTINUOUS
 62
     5
 10
-114.59460799999999
 20
-78.655272999999994
 30
0.0
 11
-114.57898400000001
 21
-78.655272999999994
 31
0.0
  0
ARC
  8
DETAIL
  6
CONTINUOUS
 62
     5
 10
113.499313
 20
103.499313
 30
0.0
 40
1.500687
 50
0.0
 51
90.0
  0
LINE
  8
DETAIL
  6
CONTINUOUS
 62
     5
 10
55.075204999999997
 20
104.93627600000001
 30
0.0
 11
44.970581000000003
 21
104.93627600000001
 31
0.0
  0
ARC
  8
DETAIL
  6
CONTINUOUS
 62
     5
 10
55.525410999999998
 20
106.464529
 30
0.0
 40
2.501145
 50
0.0
 51
90.0
  0
LINE
  8
DETAIL
  6
CONTINUOUS
 62
     5
 10
54.423389
 20
108.96567400000001
 30
0.0
 11
55.525410999999998
 21
108.96567400000001
 31
0.0
  0
LINE
  8
DETAIL
  6
CONTINUOUS
 62
     5
 10
55.125486000000002
 20
104.959129
 30
0.0
 11
57.930842000000013
 21
104.959129
 31
0.0
  0
LINE
  8
DETAIL
  6
CONTINUOUS
 62
     5
 10
58.026556000000006
 20
106.464529
 30
0.0
 11
58.026556000000006
 21
105.0
 31
0.0
  0
LINE
  8
DETAIL
  6
CONTINUOUS
 62
     5
 10
58.020742000000013
 20
104.999989
 30
0.0
 11
57.930842000000013
 21
104.959129
 31
0.0
  0
LINE
  8
DETAIL
  6
CONTINUOUS
 62
     5
 10
55.125486000000002
 20
104.959129
 30
0.0
 11
55.075204999999997
 21
104.93627600000001
 31
0.0
  0
LINE
  8
DETAIL
  6
CONTINUOUS
 62
     5
 10
113.499313
 20
105.0
 30
0.0
 11
58.020792000000007
 21
105.0
 31
0.0
  0
LINE
  8
DETAIL
  6
CONTINUOUS
 62
     5
 10
42.024993000000002
 20
105.0
 30
0.0
 11
-42.024993000000002
 21
105.0
 31
0.0
  0
ARC
  8
DETAIL
  6
CONTINUOUS
 62
     5
 10
44.520375000000001
 20
106.464529
 30
0.0
 40
2.501145
 50
90.0
 51
180.0
  0
LINE
  8
DETAIL
  6
CONTINUOUS
 62
     5
 10
44.520375000000001
 20
108.96567400000001
 30
0.0
 11
45.622396000000002
 21
108.96567400000001
 31
0.0
  0
LINE
  8
DETAIL
  6
CONTINUOUS
 62
     5
 10
42.114944000000001
 20
104.959129
 30
0.0
 11
44.920299999999997
 21
104.959129
 31
0.0
  0
LINE
  8
DETAIL
  6
CONTINUOUS
 62
     5
 10
44.920299999999997
 20
104.959129
 30
0.0
 11
44.970581000000003
 21
104.93627600000001
 31
0.0
  0
LINE
  8
DETAIL
  6
CONTINUOUS
 62
     5
 10
42.114944000000001
 20
104.959129
 30
0.0
 11
42.025042999999997
 21
104.999989
 31
0.0
  0
LINE
  8
DETAIL
  6
CONTINUOUS
 62
     5
 10
42.01923
 20
105.0
 30
0.0
 11
42.01923
 21
106.464529
 31
0.0
  0
LINE
  8
DETAIL
  6
CONTINUOUS
 62
     5
 10
-44.920299999999997
 20
104.959129
 30
0.0
 11
-42.114944000000001
 21
104.959129
 31
0.0
  0
LINE
  8
DETAIL
  6
CONTINUOUS
 62
     5
 10
-55.075204999999997
 20
104.93627600000001
 30
0.0
 11
-44.970581000000003
 21
104.93627600000001
 31
0.0
  0
LINE
  8
DETAIL
  6
CONTINUOUS
 62
     5
 10
-44.920299999999997
 20
104.959129
 30
0.0
 11
-44.970581000000003
 21
104.93627600000001
 31
0.0
  0
ARC
  8
DETAIL
  6
CONTINUOUS
 62
     5
 10
-44.520375000000001
 20
106.464529
 30
0.0
 40
2.501145
 50
0.0
 51
90.0
  0
LINE
  8
DETAIL
  6
CONTINUOUS
 62
     5
 10
-45.622396000000002
 20
108.96567400000001
 30
0.0
 11
-44.520375000000001
 21
108.96567400000001
 31
0.0
  0
LINE
  8
DETAIL
  6
CONTINUOUS
 62
     5
 10
-42.01923
 20
106.464529
 30
0.0
 11
-42.01923
 21
105.0
 31
0.0
  0
LINE
  8
DETAIL
  6
CONTINUOUS
 62
     5
 10
-42.025042999999997
 20
104.999989
 30
0.0
 11
-42.114944000000001
 21
104.959129
 31
0.0
  0
LINE
  8
DETAIL
  6
CONTINUOUS
 62
     5
 10
-55.125486000000002
 20
104.959129
 30
0.0
 11
-55.075204999999997
 21
104.93627600000001
 31
0.0
  0
LINE
  8
DETAIL
  6
CONTINUOUS
 62
     5
 10
-58.026556000000006
 20
105.0
 30
0.0
 11
-58.026556000000006
 21
106.464529
 31
0.0
  0
LINE
  8
DETAIL
  6
CONTINUOUS
 62
     5
 10
-58.020792000000007
 20
105.0
 30
0.0
 11
-113.499313
 21
105.0
 31
0.0
  0
LINE
  8
DETAIL
  6
CONTINUOUS
 62
     5
 10
-57.930842000000013
 20
104.959129
 30
0.0
 11
-55.125486000000002
 21
104.959129
 31
0.0
  0
LINE
  8
DETAIL
  6
CONTINUOUS
 62
     5
 10
-57.930842000000013
 20
104.959129
 30
0.0
 11
-58.020742000000013
 21
104.999989
 31
0.0
  0
ARC
  8
DETAIL
  6
CONTINUOUS
 62
     5
 10
-55.525410999999998
 20
106.464529
 30
0.0
 40
2.501145
 50
90.0
 51
180.0
  0
LINE
  8
DETAIL
  6
CONTINUOUS
 62
     5
 10
-55.525410999999998
 20
108.96567400000001
 30
0.0
 11
-54.423389
 21
108.96567400000001
 31
0.0
  0
ARC
  8
DETAIL
  6
CONTINUOUS
 62
     5
 10
-113.499313
 20
103.499313
 30
0.0
 40
1.500687
 50
90.0
 51
180.0
  0
LINE
  8
DETAIL
  6
CONTINUOUS
 62
     5
 10
-115.0
 20
103.499313
 30
0.0
 11
-115.0
 21
-123.499313
 31
0.0
  0
LINE
  8
DETAIL
  6
CONTINUOUS
 62
     5
 10
-96.742532999999995
 20
-86.521311999999995
 30
0.0
 11
-99.804051999999999
 21
-85.8399
 31
0.0
  0
LINE
  8
DETAIL
  6
CONTINUOUS
 62
     5
 10
-99.804051999999999
 20
-85.8399
 30
0.0
 11
-103.12003199999999
 21
-84.967023999999995
 31
0.0
  0
LINE
  8
DETAIL
  6
CONTINUOUS
 62
     5
 10
-103.12003199999999
 20
-84.967023999999995
 30
0.0
 11
-106.58869
 21
-83.897712999999996
 31
0.0
  0
LINE
  8
DETAIL
  6
CONTINUOUS
 62
     5
 10
-94.043033999999992
 20
-87.025942000000001
 30
0.0
 11
-94.043036000000001
 21
-121.19497
 31
0.0
  0
LINE
  8
DETAIL
  6
CONTINUOUS
 62
     5
 10
93.433299000000005
 20
-86.882818999999998
 30
0.0
 11
-93.433299000000005
 21
-86.882805000000005
 31
0.0
  0
LINE
  8
DETAIL
  6
CONTINUOUS
 62
     5
 10
-93.824546999999995
 20
-86.908295999999993
 30
0.0
 11
-93.863646000000003
 21
-86.915674999999993
 31
0.0
  0
LINE
  8
DETAIL
  6
CONTINUOUS
 62
     5
 10
-93.863646000000003
 20
-86.915674999999993
 30
0.0
 11
-93.900087999999997
 21
-86.924199999999999
 31
0.0
  0
LINE
  8
DETAIL
  6
CONTINUOUS
 62
     5
 10
-93.425162
 20
-86.882218999999992
 30
0.0
 11
-93.499795999999989
 21
-86.882869999999997
 31
0.0
  0
LINE
  8
DETAIL
  6
CONTINUOUS
 62
     5
 10
-93.499795999999989
 20
-86.882869999999997
 30
0.0
 11
-93.567752999999996
 21
-86.884726999999998
 31
0.0
  0
LINE
  8
DETAIL
  6
CONTINUOUS
 62
     5
 10
-93.567752999999996
 20
-86.884726999999998
 30
0.0
 11
-93.629419999999996
 21
-86.887653999999998
 31
0.0
  0
LINE
  8
DETAIL
  6
CONTINUOUS
 62
     5
 10
-93.629419999999996
 20
-86.887653999999998
 30
0.0
 11
-93.685307999999992
 21
-86.891533999999993
 31
0.0
  0
LINE
  8
DETAIL
  6
CONTINUOUS
 62
     5
 10
-93.685307999999992
 20
-86.891533999999993
 30
0.0
 11
-93.736024999999998
 21
-86.896283999999994
 31
0.0
  0
LINE
  8
DETAIL
  6
CONTINUOUS
 62
     5
 10
-93.736024999999998
 20
-86.896283999999994
 30
0.0
 11
-93.782218999999998
 21
-86.901865000000001
 31
0.0
  0
LINE
  8
DETAIL
  6
CONTINUOUS
 62
     5
 10
-93.782218999999998
 20
-86.901865000000001
 30
0.0
 11
-93.824546999999995
 21
-86.908295999999993
 31
0.0
  0
LINE
  8
DETAIL
  6
CONTINUOUS
 62
     5
 10
-93.900087999999997
 20
-86.924199999999999
 30
0.0
 11
-93.934958999999992
 21
-86.934433999999996
 31
0.0
  0
LINE
  8
DETAIL
  6
CONTINUOUS
 62
     5
 10
-93.934958999999992
 20
-86.934433999999996
 30
0.0
 11
-93.96838000000001
 21
-86.947127000000009
 31
0.0
  0
LINE
  8
DETAIL
  6
CONTINUOUS
 62
     5
 10
-94.043033999999992
 20
-87.029057999999992
 30
0.0
 11
-96.742532999999995
 21
-86.521311999999995
 31
0.0
  0
LINE
  8
DETAIL
  6
CONTINUOUS
 62
     5
 10
-93.96838000000001
 20
-86.947127000000009
 30
0.0
 11
-93.997799999999998
 21
-86.962330000000009
 31
0.0
  0
LINE
  8
DETAIL
  6
CONTINUOUS
 62
     5
 10
-93.997799999999998
 20
-86.962330000000009
 30
0.0
 11
-94.021387000000004
 21
-86.980311
 31
0.0
  0
LINE
  8
DETAIL
  6
CONTINUOUS
 62
     5
 10
-94.021387000000004
 20
-86.980311
 30
0.0
 11
-94.037405000000007
 21
-87.001813999999996
 31
0.0
  0
LINE
  8
DETAIL
  6
CONTINUOUS
 62
     5
 10
-94.037405000000007
 20
-87.001813999999996
 30
0.0
 11
-94.043033999999992
 21
-87.025942000000001
 31
0.0
  0
LINE
  8
DETAIL
  6
CONTINUOUS
 62
     5
 10
-110.110124
 20
-82.640550000000005
 30
0.0
 11
-113.708736
 21
-81.170136999999997
 31
0.0
  0
LINE
  8
DETAIL
  6
CONTINUOUS
 62
     5
 10
-106.58869
 20
-83.897712999999996
 30
0.0
 11
-110.110124
 21
-82.640550000000005
 31
0.0
  0
LINE
  8
DETAIL
  6
CONTINUOUS
 62
     5
 10
-114.08392499999999
 20
-80.94435
 30
0.0
 11
-114.208423
 21
-80.834594999999993
 31
0.0
  0
LINE
  8
DETAIL
  6
CONTINUOUS
 62
     5
 10
-113.95795099999999
 20
-81.034790000000001
 30
0.0
 11
-114.08392499999999
 21
-80.94435
 31
0.0
  0
LINE
  8
DETAIL
  6
CONTINUOUS
 62
     5
 10
-114.208423
 20
-80.834594999999993
 30
0.0
 11
-114.32736300000001
 21
-80.702348999999998
 31
0.0
  0
LINE
  8
DETAIL
  6
CONTINUOUS
 62
     5
 10
-114.32736300000001
 20
-80.702348999999998
 30
0.0
 11
-114.433228
 21
-80.547000999999995
 31
0.0
  0
LINE
  8
DETAIL
  6
CONTINUOUS
 62
     5
 10
-114.51661300000001
 20
-80.372346999999991
 30
0.0
 11
-114.570047
 21
-80.184787999999998
 31
0.0
  0
LINE
  8
DETAIL
  6
CONTINUOUS
 62
     5
 10
-114.433228
 20
-80.547000999999995
 30
0.0
 11
-114.51661300000001
 21
-80.372346999999991
 31
0.0
  0
LINE
  8
DETAIL
  6
CONTINUOUS
 62
     5
 10
-114.570047
 20
-80.184787999999998
 30
0.0
 11
-114.58947000000001
 21
-79.992080000000001
 31
0.0
  0
LINE
  8
DETAIL
  6
CONTINUOUS
 62
     5
 10
-113.8327
 20
-81.109079000000008
 30
0.0
 11
-113.95795099999999
 21
-81.034790000000001
 31
0.0
  0
LINE
  8
DETAIL
  6
CONTINUOUS
 62
     5
 10
-113.708736
 20
-81.170136999999997
 30
0.0
 11
-113.8327
 21
-81.109079000000008
 31
0.0
  0
LINE
  8
DETAIL
  6
CONTINUOUS
 62
     5
 10
94.043036000000001
 20
-121.19497
 30
0.0
 11
-94.043036000000001
 21
-121.19497
 31
0.0
  0
LINE
  8
DETAIL
  6
CONTINUOUS
 62
     5
 10
-113.499313
 20
-125.0
 30
0.0
 11
-10.302108
 21
-125.0
 31
0.0
  0
LINE
  8
DETAIL
  6
CONTINUOUS
 62
     5
 10
-94.042977000000008
 20
-120.46998600000001
 30
0.0
 11
-94.043036000000001
 21
-120.464101
 31
0.0
  0
LINE
  8
DETAIL
  6
CONTINUOUS
 62
     5
 10
-94.042816999999999
 20
-120.475848
 30
0.0
 11
-94.042977000000008
 21
-120.46998600000001
 31
0.0
  0
LINE
  8
DETAIL
  6
CONTINUOUS
 62
     5
 10
-94.042552999999998
 20
-120.48169
 30
0.0
 11
-94.042816999999999
 21
-120.475848
 31
0.0
  0
ARC
  8
DETAIL
  6
CONTINUOUS
 62
     5
 10
-113.499313
 20
-123.499313
 30
0.0
 40
1.500687
 50
180.0
 51
270.0
  0
LINE
  8
DETAIL
  6
CONTINUOUS
 62
     5
 10
-94.043036000000001
 20
-121.19497
 30
0.0
 11
-112.141111
 21
-123.587625
 31
0.0
  0
LINE
  8
DETAIL
  6
CONTINUOUS
 62
     5
 10
67.030676
 20
-125.0
 30
0.0
 11
113.499313
 21
-125.0
 31
0.0
  0
LINE
  8
DETAIL
  6
CONTINUOUS
 62
     5
 10
-10.124230000000001
 20
-124.83181
 30
0.0
 11
-10.134866000000001
 21
-124.832747
 31
0.0
  0
LINE
  8
DETAIL
  6
CONTINUOUS
 62
     5
 10
-10.302108
 20
-124.999989
 30
0.0
 11
-10.134866000000001
 21
-124.832747
 31
0.0
  0
LINE
  8
DETAIL
  6
CONTINUOUS
 62
     5
 10
10.134866000000001
 20
-124.832747
 30
0.0
 11
10.124230000000001
 21
-124.83181
 31
0.0
  0
LINE
  8
DETAIL
  6
CONTINUOUS
 62
     5
 10
35.016024999999999
 20
-124.98953400000001
 30
0.0
 11
35.033071
 21
-124.990664
 31
0.0
  0
LINE
  8
DETAIL
  6
CONTINUOUS
 62
     5
 10
20.009156999999998
 20
-124.98953400000001
 30
0.0
 11
20.026202999999999
 21
-124.990664
 31
0.0
  0
LINE
  8
DETAIL
  6
CONTINUOUS
 62
     5
 10
10.095869
 20
-124.831035
 30
0.0
 11
10.091756
 21
-124.830843
 31
0.0
  0
LINE
  8
DETAIL
  6
CONTINUOUS
 62
     5
 10
10.109204999999999
 20
-124.83144900000001
 30
0.0
 11
10.110213999999999
 21
-124.831491
 31
0.0
  0
LINE
  8
DETAIL
  6
CONTINUOUS
 62
     5
 10
10.104039999999999
 20
-124.83126799999999
 30
0.0
 11
10.109204999999999
 21
-124.83144900000001
 31
0.0
  0
LINE
  8
DETAIL
  6
CONTINUOUS
 62
     5
 10
10.095869
 20
-124.831035
 30
0.0
 11
10.104039999999999
 21
-124.83126799999999
 31
0.0
  0
LINE
  8
DETAIL
  6
CONTINUOUS
 62
     5
 10
10.124230000000001
 20
-124.83181
 30
0.0
 11
10.104039999999999
 21
-124.83126799999999
 31
0.0
  0
LINE
  8
DETAIL
  6
CONTINUOUS
 62
     5
 10
10.072015
 20
-124.83051500000001
 30
0.0
 11
10.095869
 21
-124.831035
 31
0.0
  0
LINE
  8
DETAIL
  6
CONTINUOUS
 62
     5
 10
35.033071
 20
-124.990664
 30
0.0
 11
35.083044999999998
 21
-124.99171699999999
 31
0.0
  0
LINE
  8
DETAIL
  6
CONTINUOUS
 62
     5
 10
20.026202999999999
 20
-124.990664
 30
0.0
 11
20.076177999999999
 21
-124.99171699999999
 31
0.0
  0
LINE
  8
DETAIL
  6
CONTINUOUS
 62
     5
 10
10.037737
 20
-124.829973
 30
0.0
 11
10.072015
 21
-124.83051500000001
 31
0.0
  0
LINE
  8
DETAIL
  6
CONTINUOUS
 62
     5
 10
35.083044999999998
 20
-124.99171699999999
 30
0.0
 11
35.162542999999999
 21
-124.992621
 31
0.0
  0
LINE
  8
DETAIL
  6
CONTINUOUS
 62
     5
 10
20.076177999999999
 20
-124.99171699999999
 30
0.0
 11
20.155674999999999
 21
-124.992621
 31
0.0
  0
LINE
  8
DETAIL
  6
CONTINUOUS
 62
     5
 10
9.967096000000002
 20
-124.829183
 30
0.0
 11
10.037737
 21
-124.829973
 31
0.0
  0
LINE
  8
DETAIL
  6
CONTINUOUS
 62
     5
 10
9.967096000000002
 20
-124.829183
 30
0.0
 11
9.955575
 21
-124.829058
 31
0.0
  0
LINE
  8
DETAIL
  6
CONTINUOUS
 62
     5
 10
10.091756
 20
-124.830843
 30
0.0
 11
10.085186999999999
 21
-124.83077900000001
 31
0.0
  0
LINE
  8
DETAIL
  6
CONTINUOUS
 62
     5
 10
9.800061999999999
 20
-124.828104
 30
0.0
 11
9.967096000000002
 21
-124.829183
 31
0.0
  0
LINE
  8
DETAIL
  6
CONTINUOUS
 62
     5
 10
35.162542999999999
 20
-124.992621
 30
0.0
 11
35.386788000000003
 21
-124.993751
 31
0.0
  0
LINE
  8
DETAIL
  6
CONTINUOUS
 62
     5
 10
20.155674999999999
 20
-124.992621
 30
0.0
 11
20.379919999999998
 21
-124.993751
 31
0.0
  0
LINE
  8
DETAIL
  6
CONTINUOUS
 62
     5
 10
9.800061999999999
 20
-124.828104
 30
0.0
 11
9.762853
 21
-124.82795900000001
 31
0.0
  0
LINE
  8
DETAIL
  6
CONTINUOUS
 62
     5
 10
-9.779736999999999
 20
-124.82802100000001
 30
0.0
 11
9.800061999999999
 21
-124.828104
 31
0.0
  0
LINE
  8
DETAIL
  6
CONTINUOUS
 62
     5
 10
35.386788000000003
 20
-124.993751
 30
0.0
 11
66.659914000000001
 21
-124.993751
 31
0.0
  0
LINE
  8
DETAIL
  6
CONTINUOUS
 62
     5
 10
20.379919999999998
 20
-124.993751
 30
0.0
 11
34.145033000000012
 21
-124.993751
 31
0.0
  0
LINE
  8
DETAIL
  6
CONTINUOUS
 62
     5
 10
34.515796000000002
 20
-125.0
 30
0.0
 11
35.016024999999999
 21
-125.0
 31
0.0
  0
LINE
  8
DETAIL
  6
CONTINUOUS
 62
     5
 10
10.302108
 20
-125.0
 30
0.0
 11
20.009156999999998
 21
-125.0
 31
0.0
  0
LINE
  8
DETAIL
  6
CONTINUOUS
 62
     5
 10
-9.504350000000001
 20
-125.934003
 30
0.0
 11
9.504350000000001
 21
-125.934003
 31
0.0
  0
LINE
  8
DETAIL
  6
CONTINUOUS
 62
     5
 10
34.145033000000012
 20
-124.993751
 30
0.0
 11
34.369278000000001
 21
-124.992621
 31
0.0
  0
LINE
  8
DETAIL
  6
CONTINUOUS
 62
     5
 10
66.659914000000001
 20
-124.993751
 30
0.0
 11
66.884158999999997
 21
-124.992621
 31
0.0
  0
LINE
  8
DETAIL
  6
CONTINUOUS
 62
     5
 10
-9.965448
 20
-124.829168
 30
0.0
 11
-9.779736999999999
 21
-124.82802100000001
 31
0.0
  0
LINE
  8
DETAIL
  6
CONTINUOUS
 62
     5
 10
34.369278000000001
 20
-124.992621
 30
0.0
 11
34.448776000000002
 21
-124.99171699999999
 31
0.0
  0
LINE
  8
DETAIL
  6
CONTINUOUS
 62
     5
 10
66.884158999999997
 20
-124.992621
 30
0.0
 11
66.963656
 21
-124.99171699999999
 31
0.0
  0
LINE
  8
DETAIL
  6
CONTINUOUS
 62
     5
 10
-10.05973
 20
-124.830303
 30
0.0
 11
-9.965448
 21
-124.829168
 31
0.0
  0
LINE
  8
DETAIL
  6
CONTINUOUS
 62
     5
 10
-10.075585999999999
 20
-124.83058200000001
 30
0.0
 11
-10.091756
 21
-124.830843
 31
0.0
  0
LINE
  8
DETAIL
  6
CONTINUOUS
 62
     5
 10
-10.075585999999999
 20
-124.83058200000001
 30
0.0
 11
-10.05973
 21
-124.830303
 31
0.0
  0
LINE
  8
DETAIL
  6
CONTINUOUS
 62
     5
 10
34.448776000000002
 20
-124.99171699999999
 30
0.0
 11
34.498750000000001
 21
-124.990664
 31
0.0
  0
LINE
  8
DETAIL
  6
CONTINUOUS
 62
     5
 10
66.963656
 20
-124.99171699999999
 30
0.0
 11
67.013631000000004
 21
-124.990664
 31
0.0
  0
LINE
  8
DETAIL
  6
CONTINUOUS
 62
     5
 10
-10.110511000000001
 20
-124.831501
 30
0.0
 11
-10.124230000000001
 21
-124.83181
 31
0.0
  0
LINE
  8
DETAIL
  6
CONTINUOUS
 62
     5
 10
-10.098727
 20
-124.831112
 30
0.0
 11
-10.075585999999999
 21
-124.83058200000001
 31
0.0
  0
LINE
  8
DETAIL
  6
CONTINUOUS
 62
     5
 10
-10.106089000000001
 20
-124.831335
 30
0.0
 11
-10.098727
 21
-124.831112
 31
0.0
  0
LINE
  8
DETAIL
  6
CONTINUOUS
 62
     5
 10
-10.110511000000001
 20
-124.831501
 30
0.0
 11
-10.110208
 21
-124.831491
 31
0.0
  0
LINE
  8
DETAIL
  6
CONTINUOUS
 62
     5
 10
-10.110208
 20
-124.831491
 30
0.0
 11
-10.106089000000001
 21
-124.831335
 31
0.0
  0
LINE
  8
DETAIL
  6
CONTINUOUS
 62
     5
 10
-10.091756
 20
-124.830843
 30
0.0
 11
-10.098727
 21
-124.831112
 31
0.0
  0
LINE
  8
DETAIL
  6
CONTINUOUS
 62
     5
 10
-10.109527
 20
-124.83143699999999
 30
0.0
 11
-10.110511000000001
 21
-124.831501
 31
0.0
  0
LINE
  8
DETAIL
  6
CONTINUOUS
 62
     5
 10
34.498750000000001
 20
-124.990664
 30
0.0
 11
34.515796000000002
 21
-124.98953400000001
 31
0.0
  0
LINE
  8
DETAIL
  6
CONTINUOUS
 62
     5
 10
67.013631000000004
 20
-124.990664
 30
0.0
 11
67.030676
 21
-124.98953400000001
 31
0.0
  0
LINE
  8
DETAIL
  6
CONTINUOUS
 62
     5
 10
10.134866000000001
 20
-124.832747
 30
0.0
 11
10.302108
 21
-124.999989
 31
0.0
  0
LINE
  8
DETAIL
  6
CONTINUOUS
 62
     5
 10
9.504350000000001
 20
-124.827563
 30
0.0
 11
9.504350000000001
 21
-125.934003
 31
0.0
  0
LINE
  8
DETAIL
  6
CONTINUOUS
 62
     5
 10
-9.504350000000001
 20
-124.827563
 30
0.0
 11
-9.504350000000001
 21
-125.934003
 31
0.0
  0
LINE
  8
DETAIL
  6
CONTINUOUS
 62
     5
 10
114.20683099999999
 20
-80.836157
 30
0.0
 11
114.082474
 21
-80.945497000000003
 31
0.0
  0
LINE
  8
DETAIL
  6
CONTINUOUS
 62
     5
 10
113.70860500000001
 20
-81.170194999999993
 30
0.0
 11
110.114968
 21
-82.638698000000005
 31
0.0
  0
LINE
  8
DETAIL
  6
CONTINUOUS
 62
     5
 10
114.082474
 20
-80.945497000000003
 30
0.0
 11
113.956889
 21
-81.035480000000007
 31
0.0
  0
LINE
  8
DETAIL
  6
CONTINUOUS
 62
     5
 10
113.956889
 20
-81.035480000000007
 30
0.0
 11
113.83214
 21
-81.109380000000002
 31
0.0
  0
LINE
  8
DETAIL
  6
CONTINUOUS
 62
     5
 10
113.83214
 20
-81.109380000000002
 30
0.0
 11
113.70860500000001
 21
-81.170194999999993
 31
0.0
  0
LINE
  8
DETAIL
  6
CONTINUOUS
 62
     5
 10
114.516142
 20
-80.373581000000001
 30
0.0
 11
114.432261
 21
-80.548667000000009
 31
0.0
  0
LINE
  8
DETAIL
  6
CONTINUOUS
 62
     5
 10
114.432261
 20
-80.548667000000009
 30
0.0
 11
114.325952
 21
-80.704131000000004
 31
0.0
  0
LINE
  8
DETAIL
  6
CONTINUOUS
 62
     5
 10
114.325952
 20
-80.704131000000004
 30
0.0
 11
114.20683099999999
 21
-80.836157
 31
0.0
  0
LINE
  8
DETAIL
  6
CONTINUOUS
 62
     5
 10
114.56992700000001
 20
-80.185408999999993
 30
0.0
 11
114.516142
 21
-80.373581000000001
 31
0.0
  0
LINE
  8
DETAIL
  6
CONTINUOUS
 62
     5
 10
110.114968
 20
-82.638698000000005
 30
0.0
 11
106.59410200000001
 21
-83.895915000000002
 31
0.0
  0
LINE
  8
DETAIL
  6
CONTINUOUS
 62
     5
 10
106.59410200000001
 20
-83.895915000000002
 30
0.0
 11
103.123372
 21
-84.966071999999997
 31
0.0
  0
LINE
  8
DETAIL
  6
CONTINUOUS
 62
     5
 10
103.123372
 20
-84.966071999999997
 30
0.0
 11
99.804456999999999
 21
-85.839802000000006
 31
0.0
  0
LINE
  8
DETAIL
  6
CONTINUOUS
 62
     5
 10
114.58947000000001
 20
-79.992079000000004
 30
0.0
 11
114.56992700000001
 21
-80.185408999999993
 31
0.0
  0
LINE
  8
DETAIL
  6
CONTINUOUS
 62
     5
 10
94.043033999999992
 20
-87.025942000000001
 30
0.0
 11
94.043036000000001
 21
-121.19497
 31
0.0
  0
LINE
  8
DETAIL
  6
CONTINUOUS
 62
     5
 10
94.043033999999992
 20
-87.025942000000001
 30
0.0
 11
94.037684999999996
 21
-87.002399999999994
 31
0.0
  0
LINE
  8
DETAIL
  6
CONTINUOUS
 62
     5
 10
94.037684999999996
 20
-87.002399999999994
 30
0.0
 11
94.021901999999997
 21
-86.980813999999995
 31
0.0
  0
LINE
  8
DETAIL
  6
CONTINUOUS
 62
     5
 10
96.741089000000002
 20
-86.521606000000006
 30
0.0
 11
94.043033999999992
 21
-87.029087000000004
 31
0.0
  0
LINE
  8
DETAIL
  6
CONTINUOUS
 62
     5
 10
99.804456999999999
 20
-85.839802000000006
 30
0.0
 11
96.741089000000002
 21
-86.521606000000006
 31
0.0
  0
LINE
  8
DETAIL
  6
CONTINUOUS
 62
     5
 10
94.021901999999997
 20
-86.980813999999995
 30
0.0
 11
93.998082999999994
 21
-86.962505000000007
 31
0.0
  0
LINE
  8
DETAIL
  6
CONTINUOUS
 62
     5
 10
93.998082999999994
 20
-86.962505000000007
 30
0.0
 11
93.968931000000012
 21
-86.947368999999995
 31
0.0
  0
LINE
  8
DETAIL
  6
CONTINUOUS
 62
     5
 10
93.968931000000012
 20
-86.947368999999995
 30
0.0
 11
93.936081999999999
 21
-86.934806999999992
 31
0.0
  0
LINE
  8
DETAIL
  6
CONTINUOUS
 62
     5
 10
93.936081999999999
 20
-86.934806999999992
 30
0.0
 11
93.901087000000004
 21
-86.924460999999994
 31
0.0
  0
LINE
  8
DETAIL
  6
CONTINUOUS
 62
     5
 10
93.901087000000004
 20
-86.924460999999994
 30
0.0
 11
93.864510999999993
 21
-86.915856999999988
 31
0.0
  0
LINE
  8
DETAIL
  6
CONTINUOUS
 62
     5
 10
93.864510999999993
 20
-86.915856999999988
 30
0.0
 11
93.825603000000001
 21
-86.908476000000007
 31
0.0
  0
LINE
  8
DETAIL
  6
CONTINUOUS
 62
     5
 10
93.825603000000001
 20
-86.908476000000007
 30
0.0
 11
93.783648999999997
 21
-86.902059999999992
 31
0.0
  0
LINE
  8
DETAIL
  6
CONTINUOUS
 62
     5
 10
93.783648999999997
 20
-86.902059999999992
 30
0.0
 11
93.737881999999999
 21
-86.896482999999989
 31
0.0
  0
LINE
  8
DETAIL
  6
CONTINUOUS
 62
     5
 10
93.737881999999999
 20
-86.896482999999989
 30
0.0
 11
93.687506999999997
 21
-86.891714000000007
 31
0.0
  0
LINE
  8
DETAIL
  6
CONTINUOUS
 62
     5
 10
93.687506999999997
 20
-86.891714000000007
 30
0.0
 11
93.631740000000008
 21
-86.887791000000007
 31
0.0
  0
LINE
  8
DETAIL
  6
CONTINUOUS
 62
     5
 10
93.631740000000008
 20
-86.887791000000007
 30
0.0
 11
93.569835999999995
 21
-86.884806000000012
 31
0.0
  0
LINE
  8
DETAIL
  6
CONTINUOUS
 62
     5
 10
93.569835999999995
 20
-86.884806000000012
 30
0.0
 11
93.501141000000004
 21
-86.882894999999991
 31
0.0
  0
LINE
  8
DETAIL
  6
CONTINUOUS
 62
     5
 10
93.501141000000004
 20
-86.882894999999991
 30
0.0
 11
93.425162
 21
-86.882218999999992
 31
0.0
  0
LINE
  8
DETAIL
  6
CONTINUOUS
 62
     5
 10
115.0
 20
-123.499313
 30
0.0
 11
115.0
 21
103.499313
 31
0.0
  0
LINE
  8
DETAIL
  6
CONTINUOUS
 62
     5
 10
94.042552000000001
 20
-120.48169
 30
0.0
 11
94.042816999999999
 21
-120.475848
 31
0.0
  0
LINE
  8
DETAIL
  6
CONTINUOUS
 62
     5
 10
94.042816999999999
 20
-120.475848
 30
0.0
 11
94.042975999999996
 21
-120.46998600000001
 31
0.0
  0
LINE
  8
DETAIL
  6
CONTINUOUS
 62
     5
 10
94.042975999999996
 20
-120.46998600000001
 30
0.0
 11
94.043036000000001
 21
-120.464101
 31
0.0
  0
ARC
  8
DETAIL
  6
CONTINUOUS
 62
     5
 10
113.499313
 20
-123.499313
 30
0.0
 40
1.500687
 50
270.0
 51
0.0
  0
LINE
  8
DETAIL
  6
CONTINUOUS
 62
     5
 10
94.043036000000001
 20
-121.19497
 30
0.0
 11
112.141111
 21
-123.587625
 31
0.0
  0
LINE
  8
DETAIL
  6
CONTINUOUS
 62
     5
 10
113.82989600000001
 20
-78.99063000000001
 30
0.0
 11
114.26724
 21
-78.795934000000003
 31
0.0
  0
LINE
  8
DETAIL
  6
CONTINUOUS
 62
     5
 10
113.55475199999999
 20
-79.111551000000006
 30
0.0
 11
113.82989600000001
 21
-78.99063000000001
 31
0.0
  0
LINE
  8
DETAIL
  6
CONTINUOUS
 62
     5
 10
114.26724
 20
-78.795934000000003
 30
0.0
 11
114.57898400000001
 21
-78.655272999999994
 31
0.0
  0
LINE
  8
DETAIL
  6
CONTINUOUS
 62
     5
 10
111.18909499999999
 20
-80.102373999999998
 30
0.0
 11
108.806865
 21
-81.014549000000002
 31
0.0
  0
LINE
  8
DETAIL
  6
CONTINUOUS
 62
     5
 10
113.554751
 20
-79.111551000000006
 30
0.0
 11
111.18909499999999
 21
-80.102373999999998
 31
0.0
  0
LINE
  8
DETAIL
  6
CONTINUOUS
 62
     5
 10
99.12446700000001
 20
-83.904636999999994
 30
0.0
 11
96.644252000000009
 21
-84.447419999999994
 31
0.0
  0
LINE
  8
DETAIL
  6
CONTINUOUS
 62
     5
 10
101.572318
 20
-83.292280000000005
 30
0.0
 11
99.12446700000001
 21
-83.904636999999994
 31
0.0
  0
LINE
  8
DETAIL
  6
CONTINUOUS
 62
     5
 10
106.409406
 20
-81.849451999999999
 30
0.0
 11
103.99803199999999
 21
-82.60820600000001
 31
0.0
  0
LINE
  8
DETAIL
  6
CONTINUOUS
 62
     5
 10
103.99803199999999
 20
-82.60820600000001
 30
0.0
 11
101.572318
 21
-83.292280000000005
 31
0.0
  0
LINE
  8
DETAIL
  6
CONTINUOUS
 62
     5
 10
108.806865
 20
-81.014549000000002
 30
0.0
 11
106.409406
 21
-81.849451999999999
 31
0.0
  0
LINE
  8
DETAIL
  6
CONTINUOUS
 62
     5
 10
-94.120869999999996
 20
-84.921295000000001
 30
0.0
 11
94.043039000000007
 21
-84.921168999999992
 31
0.0
  0
LINE
  8
DETAIL
  6
CONTINUOUS
 62
     5
 10
94.120869999999996
 20
-84.921295000000001
 30
0.0
 11
94.043039000000007
 21
-84.921168999999992
 31
0.0
  0
LINE
  8
DETAIL
  6
CONTINUOUS
 62
     5
 10
96.644252000000009
 20
-84.447419999999994
 30
0.0
 11
94.120869999999996
 21
-84.921295000000001
 31
0.0
  0
LINE
  8
DETAIL
  6
CONTINUOUS
 62
     5
 10
94.043037999999996
 20
103.265607
 30
0.0
 11
94.043039000000007
 21
-84.921168999999992
 31
0.0
  0
LINE
  8
DETAIL
  6
CONTINUOUS
 62
     5
 10
-96.644252000000009
 20
-84.447419999999994
 30
0.0
 11
-94.120869999999996
 21
-84.921295000000001
 31
0.0
  0
LINE
  8
DETAIL
  6
CONTINUOUS
 62
     5
 10
-94.043037999999996
 20
103.265607
 30
0.0
 11
-94.043039000000007
 21
-84.921168999999992
 31
0.0
  0
LINE
  8
DETAIL
  6
CONTINUOUS
 62
     5
 10
-101.572318
 20
-83.292280000000005
 30
0.0
 11
-99.12446700000001
 21
-83.904636999999994
 31
0.0
  0
LINE
  8
DETAIL
  6
CONTINUOUS
 62
     5
 10
-99.12446700000001
 20
-83.904636999999994
 30
0.0
 11
-96.644252000000009
 21
-84.447419999999994
 31
0.0
  0
LINE
  8
DETAIL
  6
CONTINUOUS
 62
     5
 10
-103.99803199999999
 20
-82.60820600000001
 30
0.0
 11
-101.572318
 21
-83.292280000000005
 31
0.0
  0
LINE
  8
DETAIL
  6
CONTINUOUS
 62
     5
 10
-106.409406
 20
-81.849451999999999
 30
0.0
 11
-103.99803199999999
 21
-82.60820600000001
 31
0.0
  0
LINE
  8
DETAIL
  6
CONTINUOUS
 62
     5
 10
-111.18909499999999
 20
-80.102373999999998
 30
0.0
 11
-108.806865
 21
-81.014549000000002
 31
0.0
  0
LINE
  8
DETAIL
  6
CONTINUOUS
 62
     5
 10
-108.806865
 20
-81.014549000000002
 30
0.0
 11
-106.409406
 21
-81.849451999999999
 31
0.0
  0
LINE
  8
DETAIL
  6
CONTINUOUS
 62
     5
 10
-113.82989600000001
 20
-78.99063000000001
 30
0.0
 11
-114.26724
 21
-78.795934000000003
 31
0.0
  0
LINE
  8
DETAIL
  6
CONTINUOUS
 62
     5
 10
-113.55475199999999
 20
-79.111551000000006
 30
0.0
 11
-113.82989600000001
 21
-78.99063000000001
 31
0.0
  0
LINE
  8
DETAIL
  6
CONTINUOUS
 62
     5
 10
-113.554751
 20
-79.111551000000006
 30
0.0
 11
-111.18909499999999
 21
-80.102373999999998
 31
0.0
  0
LINE
  8
DETAIL
  6
CONTINUOUS
 62
     5
 10
-114.26724
 20
-78.795934000000003
 30
0.0
 11
-114.57898400000001
 21
-78.655272999999994
 31
0.0
  0
ARC
  8
DETAIL
  6
CONTINUOUS
 62
     5
 10
46.271175999999997
 20
108.20409600000001
 30
0.0
 40
1.000458
 50
90.0
 51
180.0
  0
LINE
  8
DETAIL
  6
CONTINUOUS
 62
     5
 10
45.270718000000002
 20
104.93627600000001
 30
0.0
 11
45.270718000000002
 21
108.20409600000001
 31
0.0
  0
ARC
  8
DETAIL
  6
CONTINUOUS
 62
     5
 10
53.774610000000003
 20
108.20409600000001
 30
0.0
 40
1.000458
 50
0.0
 51
90.0
  0
LINE
  8
DETAIL
  6
CONTINUOUS
 62
     5
 10
46.271175999999997
 20
109.204554
 30
0.0
 11
53.774610000000003
 21
109.204554
 31
0.0
  0
LINE
  8
DETAIL
  6
CONTINUOUS
 62
     5
 10
54.775067999999997
 20
104.93627600000001
 30
0.0
 11
54.775067999999997
 21
108.20409600000001
 31
0.0
  0
ARC
  8
DETAIL
  6
CONTINUOUS
 62
     5
 10
-53.774610000000003
 20
108.20409600000001
 30
0.0
 40
1.000458
 50
90.0
 51
180.0
  0
LINE
  8
DETAIL
  6
CONTINUOUS
 62
     5
 10
-53.774610000000003
 20
109.204554
 30
0.0
 11
-46.271175999999997
 21
109.204554
 31
0.0
  0
LINE
  8
DETAIL
  6
CONTINUOUS
 62
     5
 10
-45.270718000000002
 20
104.93627600000001
 30
0.0
 11
-45.270718000000002
 21
108.20409600000001
 31
0.0
  0
LINE
  8
DETAIL
  6
CONTINUOUS
 62
     5
 10
-54.775067999999997
 20
104.93627600000001
 30
0.0
 11
-54.775067999999997
 21
108.20409600000001
 31
0.0
  0
ARC
  8
DETAIL
  6
CONTINUOUS
 62
     5
 10
-46.271175999999997
 20
108.20409600000001
 30
0.0
 40
1.000458
 50
0.0
 51
90.0
  0
ARC
  8
DETAIL
  6
CONTINUOUS
 62
     5
 10
-104.522835
 20
-60.823259
 30
0.0
 40
10.629865000000001
 50
183.93256
 51
189.723299
  0
ARC
  8
DETAIL
  6
CONTINUOUS
 62
     5
 10
-104.522835
 20
-60.823259
 30
0.0
 40
10.629865000000001
 50
170.276701
 51
176.06744
  0
LINE
  8
DETAIL
  6
CONTINUOUS
 62
     5
 10
-115.91122300000001
 20
-61.171219999999998
 30
0.0
 11
-115.368899
 21
-61.278422999999997
 31
0.0
  0
LINE
  8
DETAIL
  6
CONTINUOUS
 62
     5
 10
-115.368899
 20
-60.368094999999997
 30
0.0
 11
-115.91122300000001
 21
-60.475298000000002
 31
0.0
  0
ARC
  8
DETAIL
  6
CONTINUOUS
 62
     5
 10
-115.85302
 20
-60.876781000000008
 30
0.0
 40
0.300137
 50
180.0
 51
258.81831599999998
  0
ARC
  8
DETAIL
  6
CONTINUOUS
 62
     5
 10
-115.85302
 20
-60.769737999999997
 30
0.0
 40
0.300137
 50
101.181684
 51
180.0
  0
LINE
  8
DETAIL
  6
CONTINUOUS
 62
     5
 10
-116.15315699999999
 20
-60.769737999999997
 30
0.0
 11
-116.15315699999999
 21
-60.876781000000008
 31
0.0
  0
ARC
  8
DETAIL
  6
CONTINUOUS
 62
     5
 10
-115.427102
 20
-61.572862999999998
 30
0.0
 40
0.300137
 50
3.93256
 51
78.81831600000001
  0
ARC
  8
DETAIL
  6
CONTINUOUS
 62
     5
 10
-115.427102
 20
-60.073655000000002
 30
0.0
 40
0.300137
 50
281.18168400000002
 51
356.06743999999998
  0
POINT
  8
ARRANGE
  6
CONTINUOUS
 62
     1
 10
0.0
 20
0.0
 30
0.0
  0
CIRCLE
  8
ARRANGE
  6
CONTINUOUS
 62
     1
 10
0.0
 20
0.0
 30
0.0
 40
40.0
  0
ARC
  8
OUTLINE
  6
CONTINUOUS
 62
     3
 10
113.499313
 20
103.499313
 30
0.0
 40
1.500687
 50
0.0
 51
90.0
  0
LINE
  8
OUTLINE
  6
CONTINUOUS
 62
     3
 10
113.499313
 20
105.0
 30
0.0
 11
-113.499313
 21
105.0
 31
0.0
  0
ARC
  8
OUTLINE
  6
CONTINUOUS
 62
     3
 10
-113.499313
 20
103.499313
 30
0.0
 40
1.500687
 50
90.0
 51
180.0
  0
LINE
  8
OUTLINE
  6
CONTINUOUS
 62
     3
 10
-115.0
 20
103.499313
 30
0.0
 11
-115.0
 21
-123.499313
 31
0.0
  0
ARC
  8
OUTLINE
  6
CONTINUOUS
 62
     3
 10
-113.499313
 20
-123.499313
 30
0.0
 40
1.500687
 50
180.0
 51
270.0
  0
LINE
  8
OUTLINE
  6
CONTINUOUS
 62
     3
 10
-113.499313
 20
-125.0
 30
0.0
 11
113.499313
 21
-125.0
 31
0.0
  0
LINE
  8
OUTLINE
  6
CONTINUOUS
 62
     3
 10
115.0
 20
-123.499313
 30
0.0
 11
115.0
 21
103.499313
 31
0.0
  0
ARC
  8
OUTLINE
  6
CONTINUOUS
 62
     3
 10
113.499313
 20
-123.499313
 30
0.0
 40
1.500687
 50
270.0
 51
0.0
  0
LINE
  8
SIZE
  6
CONTINUOUS
 62
    30
 10
-115.0
 20
-143.499313
 30
0.0
 11
-115.0
 21
-398.93696199999999
 31
0.0
  0
LINE
  8
SIZE
  6
CONTINUOUS
 62
    30
 10
115.0
 20
-143.499313
 30
0.0
 11
115.0
 21
-398.93696199999999
 31
0.0
  0
LINE
  8
SIZE
  6
CONTINUOUS
 62
    30
 10
-127.0
 20
-378.93696199999999
 30
0.0
 11
-139.0
 21
-378.93696199999999
 31
0.0
  0
LINE
  8
SIZE
  6
CONTINUOUS
 62
    30
 10
127.0
 20
-378.93696199999999
 30
0.0
 11
139.0
 21
-378.93696199999999
 31
0.0
  0
LINE
  8
SIZE
  6
CONTINUOUS
 62
    30
 10
-115.0
 20
-378.93696199999999
 30
0.0
 11
115.0
 21
-378.93696199999999
 31
0.0
  0
CIRCLE
  8
SIZE
  6
CONTINUOUS
 62
    30
 10
-115.0
 20
-378.93696199999999
 30
0.0
 40
6.0
  0
LINE
  8
SIZE
  6
CONTINUOUS
 62
    30
 10
-115.0
 20
-378.93696199999999
 30
0.0
 11
-127.0
 21
-378.93696199999999
 31
0.0
  0
CIRCLE
  8
SIZE
  6
CONTINUOUS
 62
    30
 10
115.0
 20
-378.93696199999999
 30
0.0
 40
6.0
  0
LINE
  8
SIZE
  6
CONTINUOUS
 62
    30
 10
115.0
 20
-378.93696199999999
 30
0.0
 11
127.0
 21
-378.93696199999999
 31
0.0
  0
TEXT
  8
SIZE
  6
CONTINUOUS
 62
    30
 10
-110.5371428571429
 20
-353.93696199999999
 30
0.0
 40
64.0
  1
□230
 41
0.9
 72
     1
 11
0.0
 21
-353.93696199999999
 31
0.0
  0
POINT
  8
DEFPOINTS
  6
CONTINUOUS
 62
    30
 10
-115.0
 20
-123.499313
 30
0.0
  0
POINT
  8
DEFPOINTS
  6
CONTINUOUS
 62
    30
 10
115.0
 20
-123.499313
 30
0.0
  0
POINT
  8
DEFPOINTS
  6
CONTINUOUS
 62
    30
 10
115.0
 20
-378.93696199999999
 30
0.0
  0
LINE
  8
NOTE
  6
CONTINUOUS
 62
     4
 10
-105.0
 20
-14.0
 30
0.0
 11
-105.0
 21
26.0
 31
0.0
  0
LINE
  8
NOTE
  6
CONTINUOUS
 62
     4
 10
-125.0
 20
6.0
 30
0.0
 11
-85.0
 21
6.0
 31
0.0
  0
LINE
  8
NOTE
  6
CONTINUOUS
 62
     4
 10
105.0
 20
-14.079147000000001
 30
0.0
 11
105.0
 21
25.920853000000001
 31
0.0
  0
LINE
  8
NOTE
  6
CONTINUOUS
 62
     4
 10
85.0
 20
5.920853
 30
0.0
 11
125.0
 21
5.920853
 31
0.0
  0
ARC
  8
DETAIL
  6
CONTINUOUS
 62
     5
 10
-105.0
 20
0.0
 30
0.0
 40
2.0
 50
180.0
 51
0.0
  0
ARC
  8
DETAIL
  6
CONTINUOUS
 62
     5
 10
-105.0
 20
6.0
 30
0.0
 40
2.0
 50
0.0
 51
180.0
  0
LINE
  8
DETAIL
  6
CONTINUOUS
 62
     5
 10
-107.0
 20
6.0
 30
0.0
 11
-107.0
 21
0.0
 31
0.0
  0
LINE
  8
DETAIL
  6
CONTINUOUS
 62
     5
 10
-103.0
 20
6.0
 30
0.0
 11
-103.0
 21
0.0
 31
0.0
  0
ARC
  8
FIX
  6
CONTINUOUS
 62
    11
 10
-105.0
 20
0.0
 30
0.0
 40
2.0
 50
180.0
 51
0.0
  0
ARC
  8
FIX
  6
CONTINUOUS
 62
    11
 10
-105.0
 20
6.0
 30
0.0
 40
2.0
 50
0.0
 51
180.0
  0
LINE
  8
FIX
  6
CONTINUOUS
 62
    11
 10
-107.0
 20
6.0
 30
0.0
 11
-107.0
 21
0.0
 31
0.0
  0
LINE
  8
FIX
  6
CONTINUOUS
 62
    11
 10
-103.0
 20
6.0
 30
0.0
 11
-103.0
 21
0.0
 31
0.0
  0
ARC
  8
DETAIL
  6
CONTINUOUS
 62
     5
 10
105.0
 20
-0.079147
 30
0.0
 40
2.0
 50
180.0
 51
0.0
  0
ARC
  8
DETAIL
  6
CONTINUOUS
 62
     5
 10
105.0
 20
5.920853
 30
0.0
 40
2.0
 50
0.0
 51
180.0
  0
LINE
  8
DETAIL
  6
CONTINUOUS
 62
     5
 10
103.0
 20
5.920853
 30
0.0
 11
103.0
 21
-0.079147
 31
0.0
  0
LINE
  8
DETAIL
  6
CONTINUOUS
 62
     5
 10
107.0
 20
5.920853
 30
0.0
 11
107.0
 21
-0.079147
 31
0.0
  0
ARC
  8
FIX
  6
CONTINUOUS
 62
    11
 10
105.0
 20
-0.079147
 30
0.0
 40
2.0
 50
180.0
 51
0.0
  0
ARC
  8
FIX
  6
CONTINUOUS
 62
    11
 10
105.0
 20
5.920853
 30
0.0
 40
2.0
 50
0.0
 51
180.0
  0
LINE
  8
FIX
  6
CONTINUOUS
 62
    11
 10
103.0
 20
5.920853
 30
0.0
 11
103.0
 21
-0.079147
 31
0.0
  0
LINE
  8
FIX
  6
CONTINUOUS
 62
    11
 10
107.0
 20
5.920853
 30
0.0
 11
107.0
 21
-0.079147
 31
0.0
  0
LINE
  8
BASIS
  6
DASHDOT
 62
     6
 10
-125.0
 20
0.0
 30
0.0
 11
125.0
 21
0.0
 31
0.0
  0
LINE
  8
BASIS
  6
DASHDOT
 62
     6
 10
0.0
 20
125.0
 30
0.0
 11
0.0
 21
-131.54423700000001
 31
0.0
  0
LINE
  8
SIZE
  6
CONTINUOUS
 62
    30
 10
-145.0
 20
6.0
 30
0.0
 11
-200.46377200000001
 21
6.0
 31
0.0
  0
LINE
  8
SIZE
  6
CONTINUOUS
 62
    30
 10
-145.0
 20
0.0
 30
0.0
 11
-200.46377200000001
 21
0.0
 31
0.0
  0
LINE
  8
SIZE
  6
CONTINUOUS
 62
    30
 10
-180.46377200000001
 20
18.0
 30
0.0
 11
-180.46377200000001
 21
30.0
 31
0.0
  0
LINE
  8
SIZE
  6
CONTINUOUS
 62
    30
 10
-180.46377200000001
 20
-12.0
 30
0.0
 11
-180.46377200000001
 21
-110.389183
 31
0.0
  0
LINE
  8
SIZE
  6
CONTINUOUS
 62
    30
 10
-180.46377200000001
 20
6.0
 30
0.0
 11
-180.46377200000001
 21
0.0
 31
0.0
  0
CIRCLE
  8
SIZE
  6
CONTINUOUS
 62
    30
 10
-180.46377200000001
 20
6.0
 30
0.0
 40
6.0
  0
LINE
  8
SIZE
  6
CONTINUOUS
 62
    30
 10
-180.46377200000001
 20
6.0
 30
0.0
 11
-180.46377200000001
 21
18.0
 31
0.0
  0
CIRCLE
  8
SIZE
  6
CONTINUOUS
 62
    30
 10
-180.46377200000001
 20
0.0
 30
0.0
 40
6.0
  0
LINE
  8
SIZE
  6
CONTINUOUS
 62
    30
 10
-180.46377200000001
 20
0.0
 30
0.0
 11
-180.46377200000001
 21
-12.0
 31
0.0
  0
TEXT
  8
SIZE
  6
CONTINUOUS
 62
    30
 10
-205.46377200000001
 20
-85.389182428571416
 30
0.0
 40
64.0
  1
6
 50
90.0
 41
0.9
 72
     1
 11
-205.46377200000001
 21
-67.560610999999994
 31
0.0
  0
POINT
  8
DEFPOINTS
  6
CONTINUOUS
 62
    30
 10
-125.0
 20
6.0
 30
0.0
  0
POINT
  8
DEFPOINTS
  6
CONTINUOUS
 62
    30
 10
-125.0
 20
0.0
 30
0.0
  0
POINT
  8
DEFPOINTS
  6
CONTINUOUS
 62
    30
 10
-180.46377200000001
 20
0.0
 30
0.0
  0
LINE
  8
SIZE
  6
CONTINUOUS
 62
    30
 10
-133.499313
 20
105.0
 30
0.0
 11
-319.94077900000002
 21
105.0
 31
0.0
  0
LINE
  8
SIZE
  6
CONTINUOUS
 62
    30
 10
-145.0
 20
0.0
 30
0.0
 11
-319.94077900000002
 21
0.0
 31
0.0
  0
LINE
  8
SIZE
  6
CONTINUOUS
 62
    30
 10
-299.94077900000002
 20
117.0
 30
0.0
 11
-299.94077900000002
 21
129.0
 31
0.0
  0
LINE
  8
SIZE
  6
CONTINUOUS
 62
    30
 10
-299.94077900000002
 20
-12.0
 30
0.0
 11
-299.94077900000002
 21
-24.0
 31
0.0
  0
LINE
  8
SIZE
  6
CONTINUOUS
 62
    30
 10
-299.94077900000002
 20
105.0
 30
0.0
 11
-299.94077900000002
 21
0.0
 31
0.0
  0
CIRCLE
  8
SIZE
  6
CONTINUOUS
 62
    30
 10
-299.94077900000002
 20
105.0
 30
0.0
 40
6.0
  0
LINE
  8
SIZE
  6
CONTINUOUS
 62
    30
 10
-299.94077900000002
 20
105.0
 30
0.0
 11
-299.94077900000002
 21
117.0
 31
0.0
  0
CIRCLE
  8
SIZE
  6
CONTINUOUS
 62
    30
 10
-299.94077900000002
 20
0.0
 30
0.0
 40
6.0
  0
LINE
  8
SIZE
  6
CONTINUOUS
 62
    30
 10
-299.94077900000002
 20
0.0
 30
0.0
 11
-299.94077900000002
 21
-12.0
 31
0.0
  0
TEXT
  8
SIZE
  6
CONTINUOUS
 62
    30
 10
-324.94077900000002
 20
-16.071428571428569
 30
0.0
 40
64.0
  1
105
 50
90.0
 41
0.9
 72
     1
 11
-324.94077900000002
 21
52.5
 31
0.0
  0
POINT
  8
DEFPOINTS
  6
CONTINUOUS
 62
    30
 10
-113.499313
 20
105.0
 30
0.0
  0
POINT
  8
DEFPOINTS
  6
CONTINUOUS
 62
    30
 10
-125.0
 20
0.0
 30
0.0
  0
POINT
  8
DEFPOINTS
  6
CONTINUOUS
 62
    30
 10
-299.94077900000002
 20
0.0
 30
0.0
  0
LINE
  8
SIZE
  6
CONTINUOUS
 62
    30
 10
-105.0
 20
-34.0
 30
0.0
 11
-105.0
 21
-275.45197000000002
 31
0.0
  0
LINE
  8
SIZE
  6
CONTINUOUS
 62
    30
 10
105.0
 20
-34.079146999999999
 30
0.0
 11
105.0
 21
-275.45197000000002
 31
0.0
  0
LINE
  8
SIZE
  6
CONTINUOUS
 62
    30
 10
-93.0
 20
-255.45196999999999
 30
0.0
 11
93.0
 21
-255.45196999999999
 31
0.0
  0
CIRCLE
  8
SIZE
  6
CONTINUOUS
 62
    30
 10
-105.0
 20
-255.45196999999999
 30
0.0
 40
6.0
  0
LINE
  8
SIZE
  6
CONTINUOUS
 62
    30
 10
-105.0
 20
-255.45196999999999
 30
0.0
 11
-93.0
 21
-255.45196999999999
 31
0.0
  0
CIRCLE
  8
SIZE
  6
CONTINUOUS
 62
    30
 10
105.0
 20
-255.45196999999999
 30
0.0
 40
6.0
  0
LINE
  8
SIZE
  6
CONTINUOUS
 62
    30
 10
105.0
 20
-255.45196999999999
 30
0.0
 11
93.0
 21
-255.45196999999999
 31
0.0
  0
TEXT
  8
SIZE
  6
CONTINUOUS
 62
    30
 10
-68.571428571428555
 20
-230.45196999999999
 30
0.0
 40
64.0
  1
210
 41
0.9
 72
     1
 11
0.0
 21
-230.45196999999999
 31
0.0
  0
POINT
  8
DEFPOINTS
  6
CONTINUOUS
 62
    30
 10
-105.0
 20
-14.0
 30
0.0
  0
POINT
  8
DEFPOINTS
  6
CONTINUOUS
 62
    30
 10
105.0
 20
-14.079147000000001
 30
0.0
  0
POINT
  8
DEFPOINTS
  6
CONTINUOUS
 62
    30
 10
105.0
 20
-255.45196999999999
 30
0.0
  0
TEXT
  8
NOTE
  6
CONTINUOUS
 62
     4
 10
204.22654600000001
 20
-55.429843000000012
 30
0.0
 40
64.0
  1
2-4×10
 41
0.9
  0
LINE
  8
NOTE
  6
CONTINUOUS
 62
     4
 10
200.965079
 20
-76.074060000000003
 30
0.0
 11
541.24471900000003
 21
-76.074060000000003
 31
0.0
  0
LINE
  8
NOTE
  6
CONTINUOUS
 62
     4
 10
143.23772399999999
 20
-12.723974999999999
 30
0.0
 11
107.0
 21
4.212004
 31
0.0
  0
LINE
  8
NOTE
  6
CONTINUOUS
 62
     4
 10
107.0
 20
4.212004
 30
0.0
 11
129.91480000000001
 21
-28.573846
 31
0.0
  0
LINE
  8
NOTE
  6
CONTINUOUS
 62
     4
 10
107.0
 20
4.212004
 30
0.0
 11
200.965079
 21
-76.074060000000003
 31
0.0
  0
LINE
  8
DETAIL
  6
CONTINUOUS
 62
     5
 10
-70.6477
 20
-125.0
 30
0.0
 11
-66.891000000000005
 21
-128.0
 31
0.0
  0
LINE
  8
DETAIL
  6
CONTINUOUS
 62
     5
 10
-66.891000000000005
 20
-128.0
 30
0.0
 11
-56.641300000000001
 21
-125.0
 31
0.0
  0
ENDSEC
  0
EOF
