  0
SECTION
  2
HEADER
  9
$ACADVER
  1
AC1009
  9
$DWGCODEPAGE
  3
dos932
  9
$INSBASE
 10
0.0
 20
0.0
 30
0.0
  9
$EXTMIN
 10
-468.14115757372019
 20
-449.24925587751198
 30
-0.0015258207003583
  9
$EXTMAX
 10
712.86164450326578
 20
410.79712695302078
 30
0.0000000349246037
  9
$LIMMIN
 10
-2970.0
 20
-2100.0
  9
$LIMMAX
 10
2970.0
 20
2100.0
  9
$ORTHOMODE
 70
     1
  9
$REGENMODE
 70
     1
  9
$FILLMODE
 70
     1
  9
$QTEXTMODE
 70
     0
  9
$MIRRTEXT
 70
     0
  9
$LTSCALE
 40
20.0
  9
$ATTMODE
 70
     1
  9
$TEXTSIZE
 40
64.0
  9
$TRACEWID
 40
0.05
  9
$TEXTSTYLE
  7
STANDARD
  9
$CLAYER
  8
SIZE
  9
$CELTYPE
  6
CONTINUOUS
  9
$CECOLOR
 62
     7
  9
$DIMSCALE
 40
1.0
  9
$DIMASZ
 40
12.0
  9
$DIMEXO
 40
20.0
  9
$DIMDLI
 40
200.0
  9
$DIMRND
 40
0.0
  9
$DIMDLE
 40
0.0
  9
$DIMEXE
 40
20.0
  9
$DIMTP
 40
0.0
  9
$DIMTM
 40
0.0
  9
$DIMTXT
 40
64.0
  9
$DIMCEN
 40
0.09
  9
$DIMTSZ
 40
0.0
  9
$DIMTOL
 70
     0
  9
$DIMLIM
 70
     0
  9
$DIMTIH
 70
     0
  9
$DIMTOH
 70
     0
  9
$DIMSE1
 70
     0
  9
$DIMSE2
 70
     0
  9
$DIMTAD
 70
     1
  9
$DIMZIN
 70
     8
  9
$DIMBLK
  1

  9
$DIMASO
 70
     1
  9
$DIMSHO
 70
     0
  9
$DIMPOST
  1

  9
$DIMAPOST
  1

  9
$DIMALT
 70
     0
  9
$DIMALTD
 70
     2
  9
$DIMALTF
 40
25.399999999999999
  9
$DIMLFAC
 40
1.0
  9
$DIMTOFL
 70
     1
  9
$DIMTVP
 40
0.0
  9
$DIMTIX
 70
     1
  9
$DIMSOXD
 70
     0
  9
$DIMSAH
 70
     0
  9
$DIMBLK1
  1

  9
$DIMBLK2
  1

  9
$DIMSTYLE
  2
STANDARD
  9
$DIMCLRD
 70
     7
  9
$DIMCLRE
 70
     7
  9
$DIMCLRT
 70
     7
  9
$DIMTFAC
 40
1.0
  9
$DIMGAP
 40
25.0
  9
$LUNITS
 70
     2
  9
$LUPREC
 70
     4
  9
$SKETCHINC
 40
0.1
  9
$FILLETRAD
 40
3.0
  9
$AUNITS
 70
     1
  9
$AUPREC
 70
     3
  9
$MENU
  1
ACAD
  9
$ELEVATION
 40
0.0
  9
$PELEVATION
 40
0.0
  9
$THICKNESS
 40
0.0
  9
$LIMCHECK
 70
     0
  9
$CHAMFERA
 40
0.0
  9
$CHAMFERB
 40
0.0
  9
$SKPOLY
 70
     0
  9
$TDCREATE
 40
2453019.62301037
  9
$TDUPDATE
 40
2459025.577497847
  9
$TDINDWG
 40
1.7388122801
  9
$TDUSRTIMER
 40
1.7388122801
  9
$USRTIMER
 70
     1
  9
$ANGBASE
 50
0.0
  9
$ANGDIR
 70
     0
  9
$PDMODE
 70
     3
  9
$PDSIZE
 40
-2.0
  9
$PLINEWID
 40
0.0
  9
$SPLFRAME
 70
     0
  9
$SPLINETYPE
 70
     6
  9
$SPLINESEGS
 70
     8
  9
$SURFTAB1
 70
     6
  9
$SURFTAB2
 70
     6
  9
$SURFTYPE
 70
     6
  9
$SURFU
 70
     6
  9
$SURFV
 70
     6
  9
$UCSNAME
  2

  9
$UCSORG
 10
0.0
 20
0.0
 30
0.0
  9
$UCSXDIR
 10
1.0
 20
0.0
 30
0.0
  9
$UCSYDIR
 10
0.0
 20
1.0
 30
0.0
  9
$PUCSNAME
  2

  9
$PUCSORG
 10
0.0
 20
0.0
 30
0.0
  9
$PUCSXDIR
 10
1.0
 20
0.0
 30
0.0
  9
$PUCSYDIR
 10
0.0
 20
1.0
 30
0.0
  9
$USERI1
 70
     0
  9
$USERI2
 70
     0
  9
$USERI3
 70
     0
  9
$USERI4
 70
     0
  9
$USERI5
 70
     0
  9
$USERR1
 40
20.0
  9
$USERR2
 40
0.0
  9
$USERR3
 40
0.0
  9
$USERR4
 40
0.0
  9
$USERR5
 40
0.0
  9
$WORLDVIEW
 70
     1
  9
$SHADEDGE
 70
     3
  9
$SHADEDIF
 70
    70
  9
$TILEMODE
 70
     1
  9
$MAXACTVP
 70
    48
  9
$PINSBASE
 10
0.0
 20
0.0
 30
0.0
  9
$PLIMCHECK
 70
     0
  9
$PEXTMIN
 10
-100000000000000000000.0
 20
-100000000000000000000.0
 30
-100000000000000000000.0
  9
$PEXTMAX
 10
100000000000000000000.0
 20
100000000000000000000.0
 30
100000000000000000000.0
  9
$PLIMMIN
 10
0.0
 20
0.0
  9
$PLIMMAX
 10
12.0
 20
9.0
  9
$UNITMODE
 70
     0
  9
$VISRETAIN
 70
     0
  9
$PLINEGEN
 70
     0
  9
$PSLTSCALE
 70
     0
  9
$TREEDEPTH
 70
  3020
  9
$ATTDIA
 70
     0
  9
$ATTREQ
 70
     1
  9
$BLIPMODE
 70
     1
  9
$COORDS
 70
     1
  9
$DRAGMODE
 70
     2
  9
$OSMODE
 70
     0
  9
$HANDLING
 70
     0
  9
$HANDSEED
  5
116B8
  0
ENDSEC
  0
SECTION
  2
TABLES
  0
TABLE
  2
LTYPE
 70
     2
  0
LTYPE
  2
CONTINUOUS
 70
     0
  3
実線
 72
    65
 73
     0
 40
0.0
  0
LTYPE
  2
DASHDOT
 70
     0
  3
____ _ ____ _ ____ _ ____ _ ____ _ ____ _ ____
 72
    65
 73
     4
 40
5.5
 49
4.0
 49
-0.6
 49
0.3
 49
-0.6
  0
ENDTAB
  0
TABLE
  2
LAYER
 70
    12
  0
LAYER
  2
0
 70
     0
 62
     7
  6
CONTINUOUS
  0
LAYER
  2
BASIS
 70
     0
 62
     6
  6
DASHDOT
  0
LAYER
  2
OUTLINE
 70
     0
 62
     3
  6
CONTINUOUS
  0
LAYER
  2
DETAIL
 70
     0
 62
     5
  6
CONTINUOUS
  0
LAYER
  2
SIZE
 70
     0
 62
    30
  6
CONTINUOUS
  0
LAYER
  2
ARRANGE
 70
     0
 62
     1
  6
CONTINUOUS
  0
LAYER
  2
ETC
 70
     0
 62
    61
  6
CONTINUOUS
  0
LAYER
  2
FIX
 70
     0
 62
    11
  6
CONTINUOUS
  0
LAYER
  2
NOTE
 70
     0
 62
     4
  6
CONTINUOUS
  0
LAYER
  2
DEFPOINTS
 70
    64
 62
     7
  6
CONTINUOUS
  0
LAYER
  2
SERVICESPACE
 70
    64
 62
     2
  6
DASHDOT
  0
LAYER
  2
SYMBOLLINE
 70
    64
 62
    15
  6
CONTINUOUS
  0
ENDTAB
  0
TABLE
  2
STYLE
 70
     1
  0
STYLE
  2
STANDARD
 70
     0
 40
64.0
 41
0.9
 50
0.0
 71
     0
 42
64.0
  3
SIMPLEX.shx
  4
BIGFONT.shx
  0
ENDTAB
  0
TABLE
  2
APPID
 70
    19
  0
APPID
  2
ACAD
 70
     0
  0
APPID
  2
AUTOCAD_POSTSCRIPT_FIGURE
 70
     0
  0
APPID
  2
ACAD_EXEMPT_FROM_CAD_STANDARDS
 70
     0
  0
APPID
  2
ACAD_PSEXT
 70
     0
  0
APPID
  2
ACAUTHENVIRON
 70
     0
  0
APPID
  2
GENIUS_GENOENT_13
 70
     0
  0
APPID
  2
GENIUS_GENCFG_13
 70
     0
  0
APPID
  2
GENIUS_GENCFG0_13
 70
     0
  0
APPID
  2
GENIUS_GENCFG1_13
 70
     0
  0
APPID
  2
GENIUS_GENCFG2_13
 70
     0
  0
APPID
  2
GENIUS_GENCFG3_13
 70
     0
  0
APPID
  2
GENIUS_GENCFG4_13
 70
     0
  0
APPID
  2
GENIUS_GEVCFG0_13
 70
     0
  0
APPID
  2
CONTENTBLOCKICON
 70
     0
  0
APPID
  2
CONTENTBLOCKDESCRIPTION
 70
     0
  0
APPID
  2
ACAD_NAV_VCDISPLAY
 70
     0
  0
APPID
  2
ACAD_MLEADERVER
 70
     0
  0
APPID
  2
ACDBDYNAMICBLOCKTRUENAME
 70
     0
  0
APPID
  2
ACDBDYNAMICBLOCKGUID
 70
     0
  0
ENDTAB
  0
TABLE
  2
DIMSTYLE
 70
     1
  0
DIMSTYLE
  2
STANDARD
 70
     0
  3

  4

  5
_ORIGIN
  6

  7

 40
1.0
 41
12.0
 42
20.0
 43
200.0
 44
20.0
 45
0.0
 46
0.0
 47
0.0
 48
0.0
140
64.0
141
0.09
142
0.0
143
25.399999999999999
144
1.0
145
0.0
146
1.0
147
25.0
 71
     0
 72
     0
 73
     0
 74
     0
 75
     0
 76
     0
 77
     1
 78
     8
170
     0
171
     2
172
     1
173
     0
174
     1
175
     0
176
     7
177
     7
178
     7
  0
ENDTAB
  0
TABLE
  2
VIEW
 70
     1
  0
VIEW
  2
ALL
 70
     0
 40
4282.6198079999986
 10
0.0
 20
41.309904000000003
 41
5940.0
 11
0.0
 21
0.0
 31
1.0
 12
0.0
 22
0.0
 32
0.0
 42
50.0
 43
0.0
 44
0.0
 50
0.0
 71
     0
  0
ENDTAB
  0
TABLE
  2
UCS
 70
     0
  0
ENDTAB
  0
TABLE
  2
VPORT
 70
     1
  0
VPORT
  2
*ACTIVE
 70
     0
 10
0.0
 20
0.0
 11
1.0
 21
1.0
 12
122.36024346477269
 22
-19.226064462245631
 13
0.0
 23
0.0
 14
1.0
 24
1.0
 15
0.0
 25
0.0
 16
0.0
 26
0.0
 36
1.0
 17
0.0
 27
0.0
 37
0.0
 40
865.74834779957507
 41
1.747787610619469
 42
50.0
 43
0.0
 44
0.0
 50
0.0
 51
0.0
 71
     0
 72
  1000
 73
     1
 74
     3
 75
     0
 76
     0
 77
     0
 78
     0
  0
ENDTAB
  0
ENDSEC
  0
SECTION
  2
BLOCKS
  0
BLOCK
  8
0
  2
_ORIGIN
 70
     0
 10
0.0
 20
0.0
 30
0.0
  3
_ORIGIN
  1
_ORIGIN
  0
CIRCLE
  8
0
  6
CONTINUOUS
 62
     7
 10
0.0
 20
0.0
 30
0.0
 40
0.5
  0
LINE
  8
0
  6
CONTINUOUS
 62
     7
 10
0.0
 20
0.0
 30
0.0
 11
-1.0
 21
0.0
 31
0.0
  0
ENDBLK
  8
0
  0
ENDSEC
  0
SECTION
  2
ENTITIES
  0
TEXT
  8
ETC
  6
CONTINUOUS
 62
    61
 10
197.69302099999999
 20
370.50942500000002
 30
0.0
 40
40.0
  1
V-12PF8_6
 41
0.9
  0
TEXT
  8
ETC
  6
CONTINUOUS
 62
    61
 10
193.50702700000011
 20
309.81314600000002
 30
0.0
 40
40.0
  1
換気扇
 41
0.9
  0
TEXT
  8
ETC
  6
CONTINUOUS
 62
    61
 10
244.11452899999989
 20
227.94303600000009
 30
0.0
 40
40.0
  1
V-12PF8
 41
0.9
  0
CIRCLE
  8
ARRANGE
  6
CONTINUOUS
 62
     1
 10
0.0
 20
0.0
 30
0.0
 40
40.0
  0
POINT
  8
ARRANGE
  6
CONTINUOUS
 62
     1
 10
0.0
 20
0.0
 30
0.0
  0
LINE
  8
BASIS
  6
DASHDOT
 62
     6
 10
0.0
 20
126.37081499999999
 30
0.0
 11
0.0
 21
-71.035071000000016
 31
0.0
  0
LINE
  8
OUTLINE
  6
CONTINUOUS
 62
     3
 10
104.49499299999999
 20
0.0
 30
0.0
 11
-104.49499299999999
 21
0.0
 31
0.0
  0
LINE
  8
OUTLINE
  6
CONTINUOUS
 62
     3
 10
-104.7949450000001
 20
-0.3052370000000337
 30
0.0
 11
-104.1901800000001
 21
-15.9522750000001
 31
0.0
  0
ARC
  8
OUTLINE
  6
CONTINUOUS
 62
     3
 10
-98.038999999999987
 20
-24.561052999999902
 30
0.0
 40
6.0
 50
181.00000000000179
 51
261.06737800000542
  0
LINE
  8
OUTLINE
  6
CONTINUOUS
 62
     3
 10
-104.1901800000001
 20
-15.9522750000001
 30
0.0
 11
-104.03808500000009
 21
-24.665764999999961
 31
0.0
  0
ARC
  8
OUTLINE
  6
CONTINUOUS
 62
     3
 10
-104.49499299999999
 20
-0.2999999999999545
 30
0.0
 40
0.3
 50
90.0
 51
181.00000000000179
  0
LINE
  8
OUTLINE
  6
CONTINUOUS
 62
     3
 10
-104.74702000000001
 20
-0.3059220000000096
 30
0.0
 11
-104.7949450000001
 21
-0.3052370000000337
 31
0.0
  0
LINE
  8
OUTLINE
  6
CONTINUOUS
 62
     3
 10
103.98828499999991
 20
-27.51884199999995
 30
0.0
 11
104.79494800000001
 21
-0.3052370000000337
 31
0.0
  0
ARC
  8
OUTLINE
  6
CONTINUOUS
 62
     3
 10
97.989199999999983
 20
-27.414127000000011
 30
0.0
 40
6.0
 50
277.2649260000041
 51
358.99999999999818
  0
LINE
  8
OUTLINE
  6
CONTINUOUS
 62
     3
 10
103.9424349999999
 20
-27.283681999999999
 30
0.0
 11
104.00582300000001
 21
-26.514116999999938
 31
0.0
  0
LINE
  8
OUTLINE
  6
CONTINUOUS
 62
     3
 10
104.0563649999999
 20
-23.618477999999872
 30
0.0
 11
103.997073
 21
-23.63054499999998
 31
0.0
  0
LINE
  8
OUTLINE
  6
CONTINUOUS
 62
     3
 10
103.99191
 20
-24.374532999999929
 30
0.0
 11
104.0563649999999
 21
-23.618477999999872
 31
0.0
  0
ARC
  8
OUTLINE
  6
CONTINUOUS
 62
     3
 10
104.49498799999991
 20
-0.2999999999999545
 30
0.0
 40
0.3
 50
359.0000159999953
 51
89.999065999991942
  0
LINE
  8
OUTLINE
  6
CONTINUOUS
 62
     3
 10
104.79494800000001
 20
-0.3052370000000337
 30
0.0
 11
104.74702000000001
 21
-0.3059220000000096
 31
0.0
  0
LINE
  8
OUTLINE
  6
CONTINUOUS
 62
     3
 10
34.677329999999976
 20
59.700000000000053
 30
0.0
 11
-69.195298000000093
 21
59.700000000000053
 31
0.0
  0
LINE
  8
OUTLINE
  6
CONTINUOUS
 62
     3
 10
104.49499299999999
 20
66.0
 30
0.0
 11
-104.49499299999999
 21
66.0
 31
0.0
  0
LINE
  8
OUTLINE
  6
CONTINUOUS
 62
     3
 10
-104.7949450000001
 20
66.305235000000039
 30
0.0
 11
-104.1901800000001
 21
81.952271999999994
 31
0.0
  0
ARC
  8
OUTLINE
  6
CONTINUOUS
 62
     3
 10
-104.49499299999999
 20
66.299999999999955
 30
0.0
 40
0.3
 50
178.99999999999829
 51
270.0
  0
LINE
  8
OUTLINE
  6
CONTINUOUS
 62
     3
 10
-104.74702000000001
 20
66.005919999999833
 30
0.0
 11
-104.7949450000001
 21
66.005235000000084
 31
0.0
  0
ARC
  8
OUTLINE
  6
CONTINUOUS
 62
     3
 10
-98.038999999999987
 20
90.561050000000023
 30
0.0
 40
6.0
 50
98.932621999994566
 51
178.99999999999829
  0
LINE
  8
OUTLINE
  6
CONTINUOUS
 62
     3
 10
-104.1901800000001
 20
81.952271999999994
 30
0.0
 11
-104.03808500000009
 21
90.665764999999965
 31
0.0
  0
LINE
  8
OUTLINE
  6
CONTINUOUS
 62
     3
 10
42.83529499999986
 20
59.700000000000053
 30
0.0
 11
69.195652999999993
 21
59.659321000000091
 31
0.0
  0
LINE
  8
OUTLINE
  6
CONTINUOUS
 62
     3
 10
34.697259999999908
 20
59.700000000000053
 30
0.0
 11
43.730137999999897
 21
59.700000000000053
 31
0.0
  0
LINE
  8
OUTLINE
  6
CONTINUOUS
 62
     3
 10
103.98828499999991
 20
93.518839999999955
 30
0.0
 11
104.79494800000001
 21
66.305235000000039
 31
0.0
  0
ARC
  8
OUTLINE
  6
CONTINUOUS
 62
     3
 10
104.49498799999991
 20
66.299999999999955
 30
0.0
 40
0.3
 50
270.00093399999503
 51
0.9999840000046837
  0
LINE
  8
OUTLINE
  6
CONTINUOUS
 62
     3
 10
104.79494800000001
 20
66.005235000000084
 30
0.0
 11
104.74702000000001
 21
66.005919999999833
 31
0.0
  0
ARC
  8
OUTLINE
  6
CONTINUOUS
 62
     3
 10
97.989199999999983
 20
93.414125000000013
 30
0.0
 40
6.0
 50
0.9999999999887361
 51
82.735073999995862
  0
LINE
  8
OUTLINE
  6
CONTINUOUS
 62
     3
 10
104.0563649999999
 20
89.618474999999989
 30
0.0
 11
103.997073
 21
89.630542999999989
 31
0.0
  0
LINE
  8
OUTLINE
  6
CONTINUOUS
 62
     3
 10
103.99191
 20
90.37453000000005
 30
0.0
 11
104.0563649999999
 21
89.618474999999989
 31
0.0
  0
LINE
  8
OUTLINE
  6
CONTINUOUS
 62
     3
 10
103.9424349999999
 20
93.283680000000004
 30
0.0
 11
104.00582300000001
 21
92.514116999999942
 31
0.0
  0
LINE
  8
SIZE
  6
CONTINUOUS
 62
    30
 10
-112.097452
 20
0.0
 30
0.0
 11
-398.866356
 21
0.0
 31
0.0
  0
LINE
  8
SIZE
  6
CONTINUOUS
 62
    30
 10
-112.097452
 20
66.0
 30
0.0
 11
-398.866356
 21
66.0
 31
0.0
  0
LINE
  8
SIZE
  6
CONTINUOUS
 62
    30
 10
-378.866356
 20
78.0
 30
0.0
 11
-378.866356
 21
90.0
 31
0.0
  0
LINE
  8
SIZE
  6
CONTINUOUS
 62
    30
 10
-378.866356
 20
-12.0
 30
0.0
 11
-378.866356
 21
-449.22285699999998
 31
0.0
  0
LINE
  8
SIZE
  6
CONTINUOUS
 62
    30
 10
-378.866356
 20
66.0
 30
0.0
 11
-378.866356
 21
0.0
 31
0.0
  0
CIRCLE
  8
SIZE
  6
CONTINUOUS
 62
    30
 10
-378.866356
 20
66.0
 30
0.0
 40
6.0
  0
LINE
  8
SIZE
  6
CONTINUOUS
 62
    30
 10
-378.866356
 20
66.0
 30
0.0
 11
-378.866356
 21
78.0
 31
0.0
  0
CIRCLE
  8
SIZE
  6
CONTINUOUS
 62
    30
 10
-378.866356
 20
0.0
 30
0.0
 40
6.0
  0
LINE
  8
SIZE
  6
CONTINUOUS
 62
    30
 10
-378.866356
 20
0.0
 30
0.0
 11
-378.866356
 21
-12.0
 31
0.0
  0
TEXT
  8
SIZE
  6
CONTINUOUS
 62
    30
 10
-403.866356
 20
-406.66857185714292
 30
0.0
 40
64.0
  1
66（最小）
 50
90.0
 41
0.9
 72
     1
 11
-403.866356
 21
-236.61142899999999
 31
0.0
  0
LINE
  8
SIZE
  6
CONTINUOUS
 62
    30
 10
-112.097452
 20
0.0
 30
0.0
 11
-278.866356
 21
0.0
 31
0.0
  0
LINE
  8
SIZE
  6
CONTINUOUS
 62
    30
 10
-20.0
 20
-38.858488000000079
 30
0.0
 11
-278.866356
 21
-38.858488000000079
 31
0.0
  0
LINE
  8
SIZE
  6
CONTINUOUS
 62
    30
 10
-258.866356
 20
12.0
 30
0.0
 11
-258.866356
 21
24.0
 31
0.0
  0
LINE
  8
SIZE
  6
CONTINUOUS
 62
    30
 10
-258.866356
 20
-50.858488000000079
 30
0.0
 11
-258.866356
 21
-203.37277399999991
 31
0.0
  0
LINE
  8
SIZE
  6
CONTINUOUS
 62
    30
 10
-258.866356
 20
0.0
 30
0.0
 11
-258.866356
 21
-38.858488000000079
 31
0.0
  0
CIRCLE
  8
SIZE
  6
CONTINUOUS
 62
    30
 10
-258.866356
 20
0.0
 30
0.0
 40
6.0
  0
LINE
  8
SIZE
  6
CONTINUOUS
 62
    30
 10
-258.866356
 20
0.0
 30
0.0
 11
-258.866356
 21
12.0
 31
0.0
  0
CIRCLE
  8
SIZE
  6
CONTINUOUS
 62
    30
 10
-258.866356
 20
-38.858488000000079
 30
0.0
 40
6.0
  0
LINE
  8
SIZE
  6
CONTINUOUS
 62
    30
 10
-258.866356
 20
-38.858488000000079
 30
0.0
 11
-258.866356
 21
-50.858488000000079
 31
0.0
  0
TEXT
  8
SIZE
  6
CONTINUOUS
 62
    30
 10
-283.866356
 20
-178.37277385714299
 30
0.0
 40
64.0
  1
39
 50
90.0
 41
0.9
 72
     1
 11
-283.866356
 21
-133.11563100000009
 31
0.0
  0
LINE
  8
SIZE
  6
CONTINUOUS
 62
    30
 10
-112.097452
 20
66.0
 30
0.0
 11
-278.866356
 21
66.0
 31
0.0
  0
LINE
  8
SIZE
  6
CONTINUOUS
 62
    30
 10
-20.0
 20
104.8584860000001
 30
0.0
 11
-278.866356
 21
104.8584860000001
 31
0.0
  0
LINE
  8
SIZE
  6
CONTINUOUS
 62
    30
 10
-258.866356
 20
54.0
 30
0.0
 11
-258.866356
 21
42.0
 31
0.0
  0
LINE
  8
SIZE
  6
CONTINUOUS
 62
    30
 10
-258.866356
 20
116.8584860000001
 30
0.0
 11
-258.866356
 21
269.37277199999988
 31
0.0
  0
LINE
  8
SIZE
  6
CONTINUOUS
 62
    30
 10
-258.866356
 20
66.0
 30
0.0
 11
-258.866356
 21
104.8584860000001
 31
0.0
  0
CIRCLE
  8
SIZE
  6
CONTINUOUS
 62
    30
 10
-258.866356
 20
66.0
 30
0.0
 40
6.0
  0
LINE
  8
SIZE
  6
CONTINUOUS
 62
    30
 10
-258.866356
 20
66.0
 30
0.0
 11
-258.866356
 21
54.0
 31
0.0
  0
CIRCLE
  8
SIZE
  6
CONTINUOUS
 62
    30
 10
-258.866356
 20
104.8584860000001
 30
0.0
 40
6.0
  0
LINE
  8
SIZE
  6
CONTINUOUS
 62
    30
 10
-258.866356
 20
104.8584860000001
 30
0.0
 11
-258.866356
 21
116.8584860000001
 31
0.0
  0
TEXT
  8
SIZE
  6
CONTINUOUS
 62
    30
 10
-283.866356
 20
153.858486142857
 30
0.0
 40
64.0
  1
39
 50
90.0
 41
0.9
 72
     1
 11
-283.866356
 21
199.1156289999999
 31
0.0
  0
LINE
  8
SIZE
  6
CONTINUOUS
 62
    30
 10
-104.99499299999999
 20
-20.0
 30
0.0
 11
-104.99499299999999
 21
-359.36576400000001
 31
0.0
  0
LINE
  8
SIZE
  6
CONTINUOUS
 62
    30
 10
105.2949880000001
 20
-20.299999999999951
 30
0.0
 11
105.2949880000001
 21
-359.36576400000001
 31
0.0
  0
LINE
  8
SIZE
  6
CONTINUOUS
 62
    30
 10
-92.994993000000022
 20
-339.36576400000001
 30
0.0
 11
93.294988000000103
 21
-339.36576400000001
 31
0.0
  0
CIRCLE
  8
SIZE
  6
CONTINUOUS
 62
    30
 10
-104.99499299999999
 20
-339.36576400000001
 30
0.0
 40
6.0
  0
LINE
  8
SIZE
  6
CONTINUOUS
 62
    30
 10
-104.99499299999999
 20
-339.36576400000001
 30
0.0
 11
-92.994993000000022
 21
-339.36576400000001
 31
0.0
  0
CIRCLE
  8
SIZE
  6
CONTINUOUS
 62
    30
 10
105.2949880000001
 20
-339.36576400000001
 30
0.0
 40
6.0
  0
LINE
  8
SIZE
  6
CONTINUOUS
 62
    30
 10
105.2949880000001
 20
-339.36576400000001
 30
0.0
 11
93.294988000000103
 21
-339.36576400000001
 31
0.0
  0
TEXT
  8
SIZE
  6
CONTINUOUS
 62
    30
 10
-104.9014315714286
 20
-314.36576400000001
 30
0.0
 40
64.0
  1
□210
 41
0.9
 72
     1
 11
0.1499969999999848
 21
-314.36576400000001
 31
0.0
  0
LINE
  8
SIZE
  6
CONTINUOUS
 62
    30
 10
-95.23123099999998
 20
-51.055405999999948
 30
0.0
 11
-95.23123099999998
 21
-212.75665599999999
 31
0.0
  0
LINE
  8
SIZE
  6
CONTINUOUS
 62
    30
 10
95.001046999999971
 20
-53.833378000000039
 30
0.0
 11
95.001046999999971
 21
-212.75665599999999
 31
0.0
  0
LINE
  8
SIZE
  6
CONTINUOUS
 62
    30
 10
-83.23123099999998
 20
-192.75665599999999
 30
0.0
 11
83.001046999999971
 21
-192.75665599999999
 31
0.0
  0
CIRCLE
  8
SIZE
  6
CONTINUOUS
 62
    30
 10
-95.23123099999998
 20
-192.75665599999999
 30
0.0
 40
6.0
  0
LINE
  8
SIZE
  6
CONTINUOUS
 62
    30
 10
-95.23123099999998
 20
-192.75665599999999
 30
0.0
 11
-83.23123099999998
 21
-192.75665599999999
 31
0.0
  0
CIRCLE
  8
SIZE
  6
CONTINUOUS
 62
    30
 10
95.001046999999971
 20
-192.75665599999999
 30
0.0
 40
6.0
  0
LINE
  8
SIZE
  6
CONTINUOUS
 62
    30
 10
95.001046999999971
 20
-192.75665599999999
 30
0.0
 11
83.001046999999971
 21
-192.75665599999999
 31
0.0
  0
TEXT
  8
SIZE
  6
CONTINUOUS
 62
    30
 10
-68.686520571428574
 20
-167.75665599999999
 30
0.0
 40
64.0
  1
190
 41
0.9
 72
     1
 11
-0.1150920000000042
 21
-167.75665599999999
 31
0.0
  0
CIRCLE
  8
FIX
  6
CONTINUOUS
 62
    11
 10
-95.0
 20
0.0
 30
0.0
 40
2.0
  0
CIRCLE
  8
FIX
  6
CONTINUOUS
 62
    11
 10
95.0
 20
0.0
 30
0.0
 40
2.0
  0
LINE
  8
NOTE
  6
DASHDOT
 62
     4
 10
95.0
 20
5.9924570000000594
 30
0.0
 11
95.0
 21
-7.5398259999999482
 31
0.0
  0
LINE
  8
NOTE
  6
DASHDOT
 62
     4
 10
-95.0
 20
5.9924570000000594
 30
0.0
 11
-95.0
 21
-7.5398259999999482
 31
0.0
  0
LINE
  8
NOTE
  6
CONTINUOUS
 62
     4
 10
95.0
 20
0.0
 30
0.0
 11
179.94340000000011
 21
-164.14336099999991
 31
0.0
  0
LINE
  8
NOTE
  6
CONTINUOUS
 62
     4
 10
179.94340000000011
 20
-164.14336099999991
 30
0.0
 11
712.82785257099931
 21
-164.14336099999991
 31
0.0
  0
TEXT
  8
NOTE
  6
CONTINUOUS
 62
     4
 10
198.73753799999989
 20
-147.8635119999999
 30
0.0
 40
40.0
  1
2-φ4×10据付用長穴
 41
0.9
  0
LINE
  8
NOTE
  6
CONTINUOUS
 62
     4
 10
95.0
 20
0.0
 30
0.0
 11
98.804090999999971
 21
-19.014953999999989
 31
0.0
  0
LINE
  8
NOTE
  6
CONTINUOUS
 62
     4
 10
95.0
 20
0.0
 30
0.0
 11
108.3261769999999
 21
-14.087320999999969
 31
0.0
  0
LINE
  8
DETAIL
  6
CONTINUOUS
 62
     5
 10
104.49499299999999
 20
0.0
 30
0.0
 11
-104.49499299999999
 21
0.0
 31
0.0
  0
LINE
  8
DETAIL
  6
CONTINUOUS
 62
     5
 10
-104.7949450000001
 20
-0.3052370000000337
 30
0.0
 11
-104.1901800000001
 21
-15.9522750000001
 31
0.0
  0
ARC
  8
DETAIL
  6
CONTINUOUS
 62
     5
 10
-98.038999999999987
 20
-24.561052999999902
 30
0.0
 40
6.0
 50
181.00000000000179
 51
261.06737800000542
  0
LINE
  8
DETAIL
  6
CONTINUOUS
 62
     5
 10
-104.1901800000001
 20
-15.9522750000001
 30
0.0
 11
-104.03808500000009
 21
-24.665764999999961
 31
0.0
  0
ARC
  8
DETAIL
  6
CONTINUOUS
 62
     5
 10
-104.49499299999999
 20
-0.2999999999999545
 30
0.0
 40
0.3
 50
90.0
 51
181.00000000000179
  0
LINE
  8
DETAIL
  6
CONTINUOUS
 62
     5
 10
-104.74702000000001
 20
-0.3059220000000096
 30
0.0
 11
-104.7949450000001
 21
-0.3052370000000337
 31
0.0
  0
LINE
  8
DETAIL
  6
CONTINUOUS
 62
     5
 10
103.98828499999991
 20
-27.51884199999995
 30
0.0
 11
104.79494800000001
 21
-0.3052370000000337
 31
0.0
  0
ARC
  8
DETAIL
  6
CONTINUOUS
 62
     5
 10
97.989199999999983
 20
-27.414127000000011
 30
0.0
 40
6.0
 50
277.2649260000041
 51
358.99999999999818
  0
LINE
  8
DETAIL
  6
CONTINUOUS
 62
     5
 10
103.9424349999999
 20
-27.283681999999999
 30
0.0
 11
104.00582300000001
 21
-26.514116999999938
 31
0.0
  0
LINE
  8
DETAIL
  6
CONTINUOUS
 62
     5
 10
104.0563649999999
 20
-23.618477999999872
 30
0.0
 11
103.997073
 21
-23.63054499999998
 31
0.0
  0
LINE
  8
DETAIL
  6
CONTINUOUS
 62
     5
 10
103.99191
 20
-24.374532999999929
 30
0.0
 11
104.0563649999999
 21
-23.618477999999872
 31
0.0
  0
ARC
  8
DETAIL
  6
CONTINUOUS
 62
     5
 10
104.49498799999991
 20
-0.2999999999999545
 30
0.0
 40
0.3
 50
359.0000159999953
 51
89.999065999991942
  0
LINE
  8
DETAIL
  6
CONTINUOUS
 62
     5
 10
104.79494800000001
 20
-0.3052370000000337
 30
0.0
 11
104.74702000000001
 21
-0.3059220000000096
 31
0.0
  0
LINE
  8
DETAIL
  6
CONTINUOUS
 62
     5
 10
34.677329999999976
 20
59.700000000000053
 30
0.0
 11
-69.195298000000093
 21
59.700000000000053
 31
0.0
  0
LINE
  8
DETAIL
  6
CONTINUOUS
 62
     5
 10
104.49499299999999
 20
66.0
 30
0.0
 11
-104.49499299999999
 21
66.0
 31
0.0
  0
LINE
  8
DETAIL
  6
CONTINUOUS
 62
     5
 10
-104.7949450000001
 20
66.305235000000039
 30
0.0
 11
-104.1901800000001
 21
81.952271999999994
 31
0.0
  0
ARC
  8
DETAIL
  6
CONTINUOUS
 62
     5
 10
-104.49499299999999
 20
66.299999999999955
 30
0.0
 40
0.3
 50
178.99999999999829
 51
270.0
  0
LINE
  8
DETAIL
  6
CONTINUOUS
 62
     5
 10
-104.74702000000001
 20
66.005919999999833
 30
0.0
 11
-104.7949450000001
 21
66.005235000000084
 31
0.0
  0
ARC
  8
DETAIL
  6
CONTINUOUS
 62
     5
 10
-98.038999999999987
 20
90.561050000000023
 30
0.0
 40
6.0
 50
98.932621999994566
 51
178.99999999999829
  0
LINE
  8
DETAIL
  6
CONTINUOUS
 62
     5
 10
-104.1901800000001
 20
81.952271999999994
 30
0.0
 11
-104.03808500000009
 21
90.665764999999965
 31
0.0
  0
LINE
  8
DETAIL
  6
CONTINUOUS
 62
     5
 10
42.83529499999986
 20
59.700000000000053
 30
0.0
 11
69.195298000000093
 21
59.700000000000053
 31
0.0
  0
LINE
  8
DETAIL
  6
CONTINUOUS
 62
     5
 10
34.697259999999908
 20
59.700000000000053
 30
0.0
 11
43.730137999999897
 21
59.700000000000053
 31
0.0
  0
LINE
  8
DETAIL
  6
CONTINUOUS
 62
     5
 10
103.98828499999991
 20
93.518839999999955
 30
0.0
 11
104.79494800000001
 21
66.305235000000039
 31
0.0
  0
ARC
  8
DETAIL
  6
CONTINUOUS
 62
     5
 10
104.49498799999991
 20
66.299999999999955
 30
0.0
 40
0.3
 50
270.00093399999503
 51
0.9999840000046837
  0
LINE
  8
DETAIL
  6
CONTINUOUS
 62
     5
 10
104.79494800000001
 20
66.005235000000084
 30
0.0
 11
104.74702000000001
 21
66.005919999999833
 31
0.0
  0
ARC
  8
DETAIL
  6
CONTINUOUS
 62
     5
 10
97.989199999999983
 20
93.414125000000013
 30
0.0
 40
6.0
 50
0.9999999999887361
 51
82.735073999995862
  0
LINE
  8
DETAIL
  6
CONTINUOUS
 62
     5
 10
104.0563649999999
 20
89.618474999999989
 30
0.0
 11
103.997073
 21
89.630542999999989
 31
0.0
  0
LINE
  8
DETAIL
  6
CONTINUOUS
 62
     5
 10
103.99191
 20
90.37453000000005
 30
0.0
 11
104.0563649999999
 21
89.618474999999989
 31
0.0
  0
LINE
  8
DETAIL
  6
CONTINUOUS
 62
     5
 10
103.9424349999999
 20
93.283680000000004
 30
0.0
 11
104.00582300000001
 21
92.514116999999942
 31
0.0
  0
CIRCLE
  8
FIX
  6
CONTINUOUS
 62
    11
 10
-95.0
 20
66.0
 30
0.0
 40
2.0
  0
CIRCLE
  8
FIX
  6
CONTINUOUS
 62
    11
 10
95.0
 20
66.0
 30
0.0
 40
2.0
  0
LINE
  8
NOTE
  6
DASHDOT
 62
     4
 10
95.0
 20
71.992457000000059
 30
0.0
 11
95.0
 21
58.460174000000052
 31
0.0
  0
LINE
  8
NOTE
  6
DASHDOT
 62
     4
 10
-95.0
 20
71.992457000000059
 30
0.0
 11
-95.0
 21
58.460174000000052
 31
0.0
  0
LINE
  8
NOTE
  6
CONTINUOUS
 62
     4
 10
95.0
 20
66.0
 30
0.0
 11
179.5790613638078
 21
-51.95460377487052
 31
0.0
  0
LINE
  8
NOTE
  6
CONTINUOUS
 62
     4
 10
179.5790613638078
 20
-51.95460377487052
 30
0.0
 11
712.82785257099931
 21
-51.95460377487052
 31
0.0
  0
TEXT
  8
NOTE
  6
CONTINUOUS
 62
     4
 10
198.73753799999989
 20
-35.674754774870507
 30
0.0
 40
40.0
  1
2-φ4×10据付用長穴
 41
0.9
  0
LINE
  8
NOTE
  6
CONTINUOUS
 62
     4
 10
95.0
 20
66.0
 30
0.0
 11
101.50310707909441
 21
47.731196473873069
 31
0.0
  0
LINE
  8
NOTE
  6
CONTINUOUS
 62
     4
 10
95.0
 20
66.0
 30
0.0
 11
110.2161973202064
 21
53.978895828381383
 31
0.0
  0
LINE
  8
DETAIL
  6
CONTINUOUS
 62
     5
 10
-25.5
 20
66.0
 30
0.0
 11
-25.5
 21
59.700000000000053
 31
0.0
  0
LINE
  8
DETAIL
  6
CONTINUOUS
 62
     5
 10
25.5
 20
66.0
 30
0.0
 11
25.5
 21
59.700000000000053
 31
0.0
  0
LINE
  8
OUTLINE
  6
CONTINUOUS
 62
     3
 10
-25.5
 20
66.0
 30
0.0
 11
-25.5
 21
59.700000000000053
 31
0.0
  0
LINE
  8
OUTLINE
  6
CONTINUOUS
 62
     3
 10
25.5
 20
66.0
 30
0.0
 11
25.5
 21
59.700000000000053
 31
0.0
  0
LINE
  8
SIZE
  6
CONTINUOUS
 62
    30
 10
-25.5
 20
86.0
 30
0.0
 11
-25.5
 21
171.74868546325621
 31
0.0
  0
LINE
  8
SIZE
  6
CONTINUOUS
 62
    30
 10
25.5
 20
86.0
 30
0.0
 11
25.5
 21
171.74868546325621
 31
0.0
  0
LINE
  8
SIZE
  6
CONTINUOUS
 62
    30
 10
-37.5
 20
151.74868546325621
 30
0.0
 11
-49.5
 21
151.74868546325621
 31
0.0
  0
LINE
  8
SIZE
  6
CONTINUOUS
 62
    30
 10
37.5
 20
151.74868546325621
 30
0.0
 11
49.5
 21
151.74868546325621
 31
0.0
  0
LINE
  8
SIZE
  6
CONTINUOUS
 62
    30
 10
-25.5
 20
151.74868546325621
 30
0.0
 11
25.5
 21
151.74868546325621
 31
0.0
  0
CIRCLE
  8
SIZE
  6
CONTINUOUS
 62
    30
 10
-25.5
 20
151.74868546325621
 30
0.0
 40
6.0
  0
LINE
  8
SIZE
  6
CONTINUOUS
 62
    30
 10
-25.5
 20
151.74868546325621
 30
0.0
 11
-37.5
 21
151.74868546325621
 31
0.0
  0
CIRCLE
  8
SIZE
  6
CONTINUOUS
 62
    30
 10
25.5
 20
151.74868546325621
 30
0.0
 40
6.0
  0
LINE
  8
SIZE
  6
CONTINUOUS
 62
    30
 10
25.5
 20
151.74868546325621
 30
0.0
 11
37.5
 21
151.74868546325621
 31
0.0
  0
TEXT
  8
SIZE
  6
CONTINUOUS
 62
    30
 10
-74.605714285714285
 20
187.41535212992289
 30
0.0
 40
64.0
  1
φ51
 41
0.9
 72
     1
 11
0.0
 21
187.41535212992289
 31
0.0
  0
LINE
  8
DETAIL
  6
CONTINUOUS
 62
     5
 10
-69.195298000000093
 20
59.700000000000053
 30
0.0
 11
-70.0
 21
0.0
 31
0.0
  0
LINE
  8
DETAIL
  6
CONTINUOUS
 62
     5
 10
69.195298000000093
 20
59.700000000000053
 30
0.0
 11
70.0
 21
0.0
 31
0.0
  0
LINE
  8
OUTLINE
  6
CONTINUOUS
 62
     3
 10
-69.195298000000093
 20
59.700000000000053
 30
0.0
 11
-70.0
 21
0.0
 31
0.0
  0
LINE
  8
OUTLINE
  6
CONTINUOUS
 62
     3
 10
69.195298000000093
 20
59.700000000000053
 30
0.0
 11
70.0
 21
0.0
 31
0.0
  0
LINE
  8
SIZE
  6
CONTINUOUS
 62
    30
 10
-70.0
 20
20.0
 30
0.0
 11
-70.0
 21
312.35262032485019
 31
0.0
  0
LINE
  8
SIZE
  6
CONTINUOUS
 62
    30
 10
70.0
 20
20.0
 30
0.0
 11
70.0
 21
312.35262032485019
 31
0.0
  0
LINE
  8
SIZE
  6
CONTINUOUS
 62
    30
 10
-82.0
 20
292.35262032485019
 30
0.0
 11
-94.0
 21
292.35262032485019
 31
0.0
  0
LINE
  8
SIZE
  6
CONTINUOUS
 62
    30
 10
82.0
 20
292.35262032485019
 30
0.0
 11
94.0
 21
292.35262032485019
 31
0.0
  0
LINE
  8
SIZE
  6
CONTINUOUS
 62
    30
 10
-70.0
 20
292.35262032485019
 30
0.0
 11
70.0
 21
292.35262032485019
 31
0.0
  0
CIRCLE
  8
SIZE
  6
CONTINUOUS
 62
    30
 10
-70.0
 20
292.35262032485019
 30
0.0
 40
6.0
  0
LINE
  8
SIZE
  6
CONTINUOUS
 62
    30
 10
-70.0
 20
292.35262032485019
 30
0.0
 11
-82.0
 21
292.35262032485019
 31
0.0
  0
CIRCLE
  8
SIZE
  6
CONTINUOUS
 62
    30
 10
70.0
 20
292.35262032485019
 30
0.0
 40
6.0
  0
LINE
  8
SIZE
  6
CONTINUOUS
 62
    30
 10
70.0
 20
292.35262032485019
 30
0.0
 11
82.0
 21
292.35262032485019
 31
0.0
  0
TEXT
  8
SIZE
  6
CONTINUOUS
 62
    30
 10
-108.89142857142861
 20
328.01928699151682
 30
0.0
 40
64.0
  1
φ140
 41
0.9
 72
     1
 11
0.0
 21
328.01928699151682
 31
0.0
  0
LINE
  8
DETAIL
  6
CONTINUOUS
 62
     5
 10
10.0
 20
-8.0
 30
0.0
 11
-10.0
 21
-8.0
 31
0.0
  0
LINE
  8
DETAIL
  6
CONTINUOUS
 62
     5
 10
-10.0
 20
0.0
 30
0.0
 11
-10.0
 21
-8.0
 31
0.0
  0
LINE
  8
DETAIL
  6
CONTINUOUS
 62
     5
 10
10.0
 20
0.0
 30
0.0
 11
10.0
 21
-8.0
 31
0.0
  0
LINE
  8
DETAIL
  6
CONTINUOUS
 62
     5
 10
-10.0
 20
74.0
 30
0.0
 11
-10.0
 21
66.0
 31
0.0
  0
LINE
  8
DETAIL
  6
CONTINUOUS
 62
     5
 10
10.0
 20
74.0
 30
0.0
 11
10.0
 21
66.0
 31
0.0
  0
LINE
  8
DETAIL
  6
CONTINUOUS
 62
     5
 10
10.0
 20
74.0
 30
0.0
 11
-10.0
 21
74.0
 31
0.0
  0
ARC
  8
OUTLINE
  6
CONTINUOUS
 62
     3
 10
10.10354603052804
 20
669.91481000315571
 30
0.0
 40
708.84530734179168
 50
261.14839419273
 51
277.18391147429941
  0
ARC
  8
DETAIL
  6
CONTINUOUS
 62
     5
 10
10.10354603052804
 20
669.91481000315571
 30
0.0
 40
708.84530734179168
 50
261.14839419273
 51
277.18391147429941
  0
ARC
  8
OUTLINE
  6
CONTINUOUS
 62
     3
 10
10.103546030525189
 20
-603.91481200315525
 30
0.0
 40
708.84530734179168
 50
82.816088525700664
 51
98.851605807270005
  0
ARC
  8
DETAIL
  6
CONTINUOUS
 62
     5
 10
10.103546030525189
 20
-603.91481200315525
 30
0.0
 40
708.84530734179168
 50
82.816088525700664
 51
98.851605807270005
  0
ENDSEC
  0
EOF
