  0
SECTION
  2
HEADER
  9
$ACADVER
  1
AC1009
  9
$DWGCODEPAGE
  3
dos932
  9
$INSBASE
 10
0.0
 20
0.0
 30
0.0
  9
$EXTMIN
 10
-344.14403586428631
 20
-222.22618259740011
 30
0.0
  9
$EXTMAX
 10
756.44185402560549
 20
513.30233743406257
 30
0.0
  9
$LIMMIN
 10
-2970.0
 20
-2100.0
  9
$LIMMAX
 10
2970.0
 20
2100.0
  9
$ORTHOMODE
 70
     1
  9
$REGENMODE
 70
     1
  9
$FILLMODE
 70
     1
  9
$QTEXTMODE
 70
     0
  9
$MIRRTEXT
 70
     0
  9
$LTSCALE
 40
20.0
  9
$ATTMODE
 70
     1
  9
$TEXTSIZE
 40
64.0
  9
$TRACEWID
 40
0.05
  9
$TEXTSTYLE
  7
STANDARD
  9
$CLAYER
  8
SIZE
  9
$CELTYPE
  6
CONTINUOUS
  9
$CECOLOR
 62
     7
  9
$DIMSCALE
 40
1.0
  9
$DIMASZ
 40
12.0
  9
$DIMEXO
 40
20.0
  9
$DIMDLI
 40
200.0
  9
$DIMRND
 40
0.0
  9
$DIMDLE
 40
0.0
  9
$DIMEXE
 40
20.0
  9
$DIMTP
 40
0.0
  9
$DIMTM
 40
0.0
  9
$DIMTXT
 40
64.0
  9
$DIMCEN
 40
0.09
  9
$DIMTSZ
 40
0.0
  9
$DIMTOL
 70
     0
  9
$DIMLIM
 70
     0
  9
$DIMTIH
 70
     0
  9
$DIMTOH
 70
     0
  9
$DIMSE1
 70
     0
  9
$DIMSE2
 70
     0
  9
$DIMTAD
 70
     1
  9
$DIMZIN
 70
     8
  9
$DIMBLK
  1

  9
$DIMASO
 70
     1
  9
$DIMSHO
 70
     0
  9
$DIMPOST
  1

  9
$DIMAPOST
  1

  9
$DIMALT
 70
     0
  9
$DIMALTD
 70
     2
  9
$DIMALTF
 40
25.399999999999999
  9
$DIMLFAC
 40
1.0
  9
$DIMTOFL
 70
     1
  9
$DIMTVP
 40
0.0
  9
$DIMTIX
 70
     1
  9
$DIMSOXD
 70
     0
  9
$DIMSAH
 70
     0
  9
$DIMBLK1
  1

  9
$DIMBLK2
  1

  9
$DIMSTYLE
  2
STANDARD
  9
$DIMCLRD
 70
     7
  9
$DIMCLRE
 70
     7
  9
$DIMCLRT
 70
     7
  9
$DIMTFAC
 40
1.0
  9
$DIMGAP
 40
25.0
  9
$LUNITS
 70
     2
  9
$LUPREC
 70
     4
  9
$SKETCHINC
 40
0.1
  9
$FILLETRAD
 40
3.0
  9
$AUNITS
 70
     1
  9
$AUPREC
 70
     3
  9
$MENU
  1
ACAD
  9
$ELEVATION
 40
0.0
  9
$PELEVATION
 40
0.0
  9
$THICKNESS
 40
0.0
  9
$LIMCHECK
 70
     0
  9
$CHAMFERA
 40
0.0
  9
$CHAMFERB
 40
0.0
  9
$SKPOLY
 70
     0
  9
$TDCREATE
 40
2453019.623009259
  9
$TDUPDATE
 40
2459356.666325336
  9
$TDINDWG
 40
1.7173539468
  9
$TDUSRTIMER
 40
1.7173539468
  9
$USRTIMER
 70
     1
  9
$ANGBASE
 50
0.0
  9
$ANGDIR
 70
     0
  9
$PDMODE
 70
     3
  9
$PDSIZE
 40
-2.0
  9
$PLINEWID
 40
0.0
  9
$SPLFRAME
 70
     0
  9
$SPLINETYPE
 70
     6
  9
$SPLINESEGS
 70
     8
  9
$SURFTAB1
 70
     6
  9
$SURFTAB2
 70
     6
  9
$SURFTYPE
 70
     6
  9
$SURFU
 70
     6
  9
$SURFV
 70
     6
  9
$UCSNAME
  2

  9
$UCSORG
 10
0.0
 20
0.0
 30
0.0
  9
$UCSXDIR
 10
1.0
 20
0.0
 30
0.0
  9
$UCSYDIR
 10
0.0
 20
1.0
 30
0.0
  9
$PUCSNAME
  2

  9
$PUCSORG
 10
0.0
 20
0.0
 30
0.0
  9
$PUCSXDIR
 10
1.0
 20
0.0
 30
0.0
  9
$PUCSYDIR
 10
0.0
 20
1.0
 30
0.0
  9
$USERI1
 70
     0
  9
$USERI2
 70
     0
  9
$USERI3
 70
     0
  9
$USERI4
 70
     0
  9
$USERI5
 70
     0
  9
$USERR1
 40
20.0
  9
$USERR2
 40
0.0
  9
$USERR3
 40
0.0
  9
$USERR4
 40
0.0
  9
$USERR5
 40
0.0
  9
$WORLDVIEW
 70
     1
  9
$SHADEDGE
 70
     3
  9
$SHADEDIF
 70
    70
  9
$TILEMODE
 70
     1
  9
$MAXACTVP
 70
    48
  9
$PINSBASE
 10
0.0
 20
0.0
 30
0.0
  9
$PLIMCHECK
 70
     0
  9
$PEXTMIN
 10
-100000000000000000000.0
 20
-100000000000000000000.0
 30
-100000000000000000000.0
  9
$PEXTMAX
 10
100000000000000000000.0
 20
100000000000000000000.0
 30
100000000000000000000.0
  9
$PLIMMIN
 10
0.0
 20
0.0
  9
$PLIMMAX
 10
12.0
 20
9.0
  9
$UNITMODE
 70
     0
  9
$VISRETAIN
 70
     0
  9
$PLINEGEN
 70
     0
  9
$PSLTSCALE
 70
     0
  9
$TREEDEPTH
 70
  3020
  9
$ATTDIA
 70
     0
  9
$ATTREQ
 70
     1
  9
$BLIPMODE
 70
     1
  9
$COORDS
 70
     1
  9
$DRAGMODE
 70
     2
  9
$OSMODE
 70
     0
  9
$HANDLING
 70
     0
  9
$HANDSEED
  5
2F7
  0
ENDSEC
  0
SECTION
  2
TABLES
  0
TABLE
  2
LTYPE
 70
     2
  0
LTYPE
  2
CONTINUOUS
 70
     0
  3
実線
 72
    65
 73
     0
 40
0.0
  0
LTYPE
  2
DASHDOT
 70
     0
  3
____ _ ____ _ ____ _ ____ _ ____ _ ____ _ ____
 72
    65
 73
     4
 40
5.5
 49
4.0
 49
-0.6
 49
0.3
 49
-0.6
  0
ENDTAB
  0
TABLE
  2
LAYER
 70
    12
  0
LAYER
  2
SIZE
 70
     0
 62
    30
  6
CONTINUOUS
  0
LAYER
  2
BASIS
 70
     0
 62
     6
  6
DASHDOT
  0
LAYER
  2
OUTLINE
 70
     0
 62
     3
  6
CONTINUOUS
  0
LAYER
  2
DETAIL
 70
     0
 62
     5
  6
CONTINUOUS
  0
LAYER
  2
ARRANGE
 70
     0
 62
     1
  6
CONTINUOUS
  0
LAYER
  2
ETC
 70
     0
 62
    61
  6
CONTINUOUS
  0
LAYER
  2
0
 70
    64
 62
     7
  6
CONTINUOUS
  0
LAYER
  2
DEFPOINTS
 70
    64
 62
     7
  6
CONTINUOUS
  0
LAYER
  2
FIX
 70
    64
 62
    11
  6
CONTINUOUS
  0
LAYER
  2
NOTE
 70
    64
 62
     4
  6
CONTINUOUS
  0
LAYER
  2
SERVICESPACE
 70
    64
 62
     2
  6
DASHDOT
  0
LAYER
  2
SYMBOLLINE
 70
    64
 62
    15
  6
CONTINUOUS
  0
ENDTAB
  0
TABLE
  2
STYLE
 70
     1
  0
STYLE
  2
STANDARD
 70
     0
 40
64.0
 41
0.9
 50
0.0
 71
     0
 42
64.0
  3
SIMPLEX.shx
  4
BIGFONT.shx
  0
ENDTAB
  0
TABLE
  2
APPID
 70
    20
  0
APPID
  2
ACAD
 70
     0
  0
APPID
  2
ACADANNOTATIVE
 70
     0
  0
APPID
  2
AUTOCAD_POSTSCRIPT_FIGURE
 70
     0
  0
APPID
  2
ACAD_EXEMPT_FROM_CAD_STANDARDS
 70
     0
  0
APPID
  2
ACAD_PSEXT
 70
     0
  0
APPID
  2
ACAUTHENVIRON
 70
     0
  0
APPID
  2
GENIUS_GENOENT_13
 70
     0
  0
APPID
  2
GENIUS_GENCFG_13
 70
     0
  0
APPID
  2
GENIUS_GENCFG0_13
 70
     0
  0
APPID
  2
GENIUS_GENCFG1_13
 70
     0
  0
APPID
  2
GENIUS_GENCFG2_13
 70
     0
  0
APPID
  2
GENIUS_GENCFG3_13
 70
     0
  0
APPID
  2
GENIUS_GENCFG4_13
 70
     0
  0
APPID
  2
GENIUS_GEVCFG0_13
 70
     0
  0
APPID
  2
CONTENTBLOCKICON
 70
     0
  0
APPID
  2
CONTENTBLOCKDESCRIPTION
 70
     0
  0
APPID
  2
ACAD_NAV_VCDISPLAY
 70
     0
  0
APPID
  2
ACAD_MLEADERVER
 70
     0
  0
APPID
  2
ACDBDYNAMICBLOCKTRUENAME
 70
     0
  0
APPID
  2
ACDBDYNAMICBLOCKGUID
 70
     0
  0
ENDTAB
  0
TABLE
  2
DIMSTYLE
 70
     1
  0
DIMSTYLE
  2
STANDARD
 70
     0
  3

  4

  5

  6

  7

 40
1.0
 41
12.0
 42
20.0
 43
200.0
 44
20.0
 45
0.0
 46
0.0
 47
0.0
 48
0.0
140
64.0
141
0.09
142
0.0
143
25.399999999999999
144
1.0
145
0.0
146
1.0
147
25.0
 71
     0
 72
     0
 73
     0
 74
     0
 75
     0
 76
     0
 77
     1
 78
     8
170
     0
171
     2
172
     1
173
     0
174
     1
175
     0
176
     7
177
     7
178
     7
  0
ENDTAB
  0
TABLE
  2
VIEW
 70
     1
  0
VIEW
  2
ALL
 70
     0
 40
4282.6198079999986
 10
0.0
 20
41.309904000000003
 41
5940.0
 11
0.0
 21
0.0
 31
1.0
 12
0.0
 22
0.0
 32
0.0
 42
50.0
 43
0.0
 44
0.0
 50
0.0
 71
     0
  0
ENDTAB
  0
TABLE
  2
UCS
 70
     0
  0
ENDTAB
  0
TABLE
  2
VPORT
 70
     1
  0
VPORT
  2
*ACTIVE
 70
     0
 10
0.0
 20
0.0
 11
1.0
 21
1.0
 12
206.19966006628141
 22
145.47730487011989
 13
0.0
 23
0.0
 14
1.0
 24
1.0
 15
0.0
 25
0.0
 16
0.0
 26
0.0
 36
1.0
 17
0.0
 27
0.0
 37
0.0
 40
740.64995556814972
 41
1.767337807606264
 42
50.0
 43
0.0
 44
0.0
 50
0.0
 51
0.0
 71
     0
 72
  1000
 73
     1
 74
     3
 75
     0
 76
     0
 77
     0
 78
     0
  0
ENDTAB
  0
ENDSEC
  0
SECTION
  2
BLOCKS
  0
ENDSEC
  0
SECTION
  2
ENTITIES
  0
TEXT
  8
ETC
  6
CONTINUOUS
 62
    61
 10
150.27042545417731
 20
449.30233743406262
 30
0.0
 40
64.0
  1
V-12PHLD8_2
 41
0.9
  0
TEXT
  8
ETC
  6
CONTINUOUS
 62
    61
 10
146.08443145417689
 20
331.34702741923138
 30
0.0
 40
64.0
  1
換気扇
 41
0.9
  0
CIRCLE
  8
ARRANGE
  6
CONTINUOUS
 62
     1
 10
0.0
 20
0.0
 30
0.0
 40
40.0
  0
POINT
  8
ARRANGE
  6
CONTINUOUS
 62
     1
 10
0.0
 20
0.0
 30
0.0
  0
LINE
  8
BASIS
  6
DASHDOT
 62
     6
 10
125.4561247050906
 20
0.0
 30
0.0
 11
-125.4561247050906
 21
0.0
 31
0.0
  0
TEXT
  8
ETC
  6
CONTINUOUS
 62
    61
 10
196.7858297027328
 20
223.19825453300609
 30
0.0
 40
40.0
  1
V-12PHLD8
 41
0.9
  0
LINE
  8
SIZE
  6
CONTINUOUS
 62
    30
 10
-105.0
 20
121.0
 30
0.0
 11
-105.0
 21
208.36050884151271
 31
0.0
  0
LINE
  8
SIZE
  6
CONTINUOUS
 62
    30
 10
105.0
 20
121.0
 30
0.0
 11
105.0
 21
208.36050884151271
 31
0.0
  0
LINE
  8
SIZE
  6
CONTINUOUS
 62
    30
 10
-93.0
 20
188.36050884151271
 30
0.0
 11
93.0
 21
188.36050884151271
 31
0.0
  0
CIRCLE
  8
SIZE
  6
CONTINUOUS
 62
    30
 10
-105.0
 20
188.36050884151271
 30
0.0
 40
6.0
  0
LINE
  8
SIZE
  6
CONTINUOUS
 62
    30
 10
-105.0
 20
188.36050884151271
 30
0.0
 11
-93.0
 21
188.36050884151271
 31
0.0
  0
CIRCLE
  8
SIZE
  6
CONTINUOUS
 62
    30
 10
105.0
 20
188.36050884151271
 30
0.0
 40
6.0
  0
LINE
  8
SIZE
  6
CONTINUOUS
 62
    30
 10
105.0
 20
188.36050884151271
 30
0.0
 11
93.0
 21
188.36050884151271
 31
0.0
  0
TEXT
  8
SIZE
  6
CONTINUOUS
 62
    30
 10
-105.0514285714286
 20
213.36050884151271
 30
0.0
 40
64.0
  1
□210
 41
0.9
 72
     1
 11
0.0
 21
213.36050884151271
 31
0.0
  0
LINE
  8
SIZE
  6
CONTINUOUS
 62
    30
 10
-123.7929570428
 20
104.7929570427998
 30
0.0
 11
-275.14403586428631
 21
104.7929570427998
 31
0.0
  0
LINE
  8
SIZE
  6
CONTINUOUS
 62
    30
 10
-145.45612470509059
 20
10.00000000000114
 30
0.0
 11
-275.14403586428631
 21
10.00000000000119
 31
0.0
  0
LINE
  8
SIZE
  6
CONTINUOUS
 62
    30
 10
-255.1440358642862
 20
92.792957042799841
 30
0.0
 11
-255.14403586428631
 21
22.00000000000119
 31
0.0
  0
CIRCLE
  8
SIZE
  6
CONTINUOUS
 62
    30
 10
-255.1440358642862
 20
104.7929570427998
 30
0.0
 40
6.0
  0
LINE
  8
SIZE
  6
CONTINUOUS
 62
    30
 10
-255.1440358642862
 20
104.7929570427998
 30
0.0
 11
-255.1440358642862
 21
92.792957042799813
 31
0.0
  0
CIRCLE
  8
SIZE
  6
CONTINUOUS
 62
    30
 10
-255.14403586428631
 20
10.00000000000119
 30
0.0
 40
6.0
  0
LINE
  8
SIZE
  6
CONTINUOUS
 62
    30
 10
-255.14403586428631
 20
10.00000000000119
 30
0.0
 11
-255.14403586428631
 21
22.00000000000119
 31
0.0
  0
TEXT
  8
SIZE
  6
CONTINUOUS
 62
    30
 10
-280.14403586428631
 20
10.76790709282904
 30
0.0
 40
64.0
  1
95
 50
90.0
 41
0.9
 72
     1
 11
-280.14403586428631
 21
57.396478521400468
 31
0.0
  0
LINE
  8
BASIS
  6
DASHDOT
 62
     6
 10
0.0
 20
109.7929570428
 30
0.0
 11
0.0
 21
-114.82618259740001
 31
0.0
  0
LINE
  8
DETAIL
  6
CONTINUOUS
 62
     5
 10
0.0
 20
-104.7929570428001
 30
0.0
 11
0.0
 21
-75.500000000000213
 31
0.0
  0
ARC
  8
DETAIL
  6
CONTINUOUS
 62
     5
 10
-103.7929570428
 20
-103.7929570428001
 30
0.0
 40
1.0000000000000151
 50
180.0
 51
270.0
  0
ARC
  8
DETAIL
  6
CONTINUOUS
 62
     5
 10
103.7929570427996
 20
-103.7929570428001
 30
0.0
 40
1.0000000000000051
 50
270.0
 51
0.0
  0
ARC
  8
DETAIL
  6
CONTINUOUS
 62
     5
 10
103.7929570427996
 20
103.7929570427999
 30
0.0
 40
1.0000000000000151
 50
0.0
 51
90.0
  0
ARC
  8
DETAIL
  6
CONTINUOUS
 62
     5
 10
-103.7929570428
 20
103.7929570427999
 30
0.0
 40
1.0000000000000151
 50
90.0
 51
180.0
  0
LINE
  8
DETAIL
  6
CONTINUOUS
 62
     5
 10
104.39644805579969
 20
-74.700000000000031
 30
0.0
 11
104.39295704279991
 21
-75.500000000000213
 31
0.0
  0
LINE
  8
DETAIL
  6
CONTINUOUS
 62
     5
 10
104.7929570428
 20
103.7929570427999
 30
0.0
 11
104.7929570428
 21
-74.700000000000031
 31
0.0
  0
LINE
  8
DETAIL
  6
CONTINUOUS
 62
     5
 10
-104.79289612090039
 20
-75.500000000000213
 30
0.0
 11
104.7929570428
 21
-75.500000000000213
 31
0.0
  0
LINE
  8
DETAIL
  6
CONTINUOUS
 62
     5
 10
-104.79289612090039
 20
-74.700000000000031
 30
0.0
 11
104.7928961209
 21
-74.700000000000031
 31
0.0
  0
LINE
  8
DETAIL
  6
CONTINUOUS
 62
     5
 10
104.7929570428
 20
-75.500000000000213
 30
0.0
 11
104.7929570428
 21
-103.7929570428001
 31
0.0
  0
LINE
  8
DETAIL
  6
CONTINUOUS
 62
     5
 10
11.52618259740029
 20
-109.82618259740011
 30
0.0
 11
-11.52618259739984
 21
-109.82618259740011
 31
0.0
  0
LINE
  8
DETAIL
  6
CONTINUOUS
 62
     5
 10
-12.52618259740029
 20
-108.8263349023001
 30
0.0
 11
-12.526182650375629
 21
-104.7929570428001
 31
0.0
  0
LINE
  8
DETAIL
  6
CONTINUOUS
 62
     5
 10
12.526182650058219
 20
-104.7929570428001
 30
0.0
 11
12.52618259739984
 21
-108.8263349023001
 31
0.0
  0
ARC
  8
DETAIL
  6
CONTINUOUS
 62
     5
 10
-11.52618259739984
 20
-108.82618259740021
 30
0.0
 40
1.0000000000000151
 50
180.00000003250051
 51
270.0
  0
ARC
  8
DETAIL
  6
CONTINUOUS
 62
     5
 10
11.52613921299962
 20
-108.8261392130001
 30
0.0
 40
1.000045264000017
 50
270.0112101045994
 51
359.98878992410027
  0
LINE
  8
DETAIL
  6
CONTINUOUS
 62
     5
 10
103.7929570427996
 20
-104.7929570428001
 30
0.0
 11
-103.7929570428
 21
-104.7929570428001
 31
0.0
  0
LINE
  8
DETAIL
  6
CONTINUOUS
 62
     5
 10
-104.39644805580021
 20
-75.500000000000213
 30
0.0
 11
-104.39295704279991
 21
-74.700000000000031
 31
0.0
  0
LINE
  8
DETAIL
  6
CONTINUOUS
 62
     5
 10
-104.7929570428005
 20
-103.7929570428001
 30
0.0
 11
-104.7929570428005
 21
-75.500000000000213
 31
0.0
  0
LINE
  8
DETAIL
  6
CONTINUOUS
 62
     5
 10
-104.7929570428005
 20
-74.700000000000031
 30
0.0
 11
-104.7929570428005
 21
103.7929570427999
 31
0.0
  0
LINE
  8
DETAIL
  6
CONTINUOUS
 62
     5
 10
-103.7929570428
 20
104.7929570427998
 30
0.0
 11
103.7929570427996
 21
104.7929570427998
 31
0.0
  0
LINE
  8
DETAIL
  6
CONTINUOUS
 62
     5
 10
-93.787606234163832
 20
-104.7929570428001
 30
0.0
 11
-93.787606234163832
 21
104.7929570427998
 31
0.0
  0
LINE
  8
DETAIL
  6
CONTINUOUS
 62
     5
 10
93.787606234163363
 20
104.7929570427998
 30
0.0
 11
93.787606234163363
 21
-104.7929570428001
 31
0.0
  0
LINE
  8
DETAIL
  6
CONTINUOUS
 62
     5
 10
55.228952557299642
 20
-106.2749055868002
 30
0.0
 11
55.228647028299747
 21
-106.2749266432
 31
0.0
  0
LINE
  8
DETAIL
  6
CONTINUOUS
 62
     5
 10
54.553495593599557
 20
-107.3000000000001
 30
0.0
 11
54.446504406399967
 21
-107.3000000000001
 31
0.0
  0
LINE
  8
DETAIL
  6
CONTINUOUS
 62
     5
 10
53.771047504199487
 20
-106.27490559100011
 30
0.0
 11
53.771352982299959
 21
-106.2749266439001
 31
0.0
  0
LINE
  8
DETAIL
  6
CONTINUOUS
 62
     5
 10
54.152198943299943
 20
-107.0581746884002
 30
0.0
 11
54.045036886499929
 21
-106.5160423686002
 31
0.0
  0
LINE
  8
DETAIL
  6
CONTINUOUS
 62
     5
 10
54.954963113400019
 20
-106.5160423686002
 30
0.0
 11
54.847801056700057
 21
-107.0581746884002
 31
0.0
  0
ARC
  8
DETAIL
  6
CONTINUOUS
 62
     5
 10
50.396252439699772
 20
-105.14718243510011
 30
0.0
 40
0.30000000000002
 50
180.99999999999849
 51
246.5204695125957
  0
ARC
  8
DETAIL
  6
CONTINUOUS
 62
     5
 10
54.446504406399967
 20
-107.0000000000001
 30
0.0
 40
0.30000000000004
 50
191.1813845514022
 51
270.0
  0
ARC
  8
DETAIL
  6
CONTINUOUS
 62
     5
 10
54.553495593599557
 20
-107.0000000000001
 30
0.0
 40
0.3000000000000125
 50
270.0
 51
348.81861544859782
  0
ARC
  8
DETAIL
  6
CONTINUOUS
 62
     5
 10
53.750731423399877
 20
-106.5742170569001
 30
0.0
 40
0.30000000000004
 50
11.181384551402211
 51
86.116944724206448
  0
ARC
  8
DETAIL
  6
CONTINUOUS
 62
     5
 10
55.249268576600123
 20
-106.5742170569001
 30
0.0
 40
0.3
 50
93.883043485394609
 51
168.81861544859439
  0
ARC
  8
DETAIL
  6
CONTINUOUS
 62
     5
 10
54.5
 20
-95.700000000000216
 30
0.0
 40
10.60000000000006
 50
246.52042829789781
 51
266.05670834530213
  0
ARC
  8
DETAIL
  6
CONTINUOUS
 62
     5
 10
54.5
 20
-95.700000000000216
 30
0.0
 40
10.600000000000019
 50
273.94163660660257
 51
293.47957169289828
  0
ARC
  8
DETAIL
  6
CONTINUOUS
 62
     5
 10
58.603747560300228
 20
-105.14718243510011
 30
0.0
 40
0.2999999999999925
 50
293.47953016359139
 51
359.00000000000148
  0
LINE
  8
DETAIL
  6
CONTINUOUS
 62
     5
 10
58.909976285936857
 20
-104.7929570428001
 30
0.0
 11
58.903701868799999
 21
-105.1524181570002
 31
0.0
  0
LINE
  8
DETAIL
  6
CONTINUOUS
 62
     5
 10
50.096298131099957
 20
-105.1524181570002
 30
0.0
 11
50.090023714040392
 21
-104.7929570428001
 31
0.0
  0
LINE
  8
BASIS
  6
DASHDOT
 62
     6
 10
0.0
 20
109.7929570427998
 30
0.0
 11
0.0
 21
-114.82618259740011
 31
0.0
  0
LINE
  8
BASIS
  6
DASHDOT
 62
     6
 10
-125.4561247050906
 20
10.00000000000114
 30
0.0
 11
125.4561247050906
 21
9.9999999999995435
 31
0.0
  0
LINE
  8
DETAIL
  6
CONTINUOUS
 62
     5
 10
82.750000000000099
 20
-67.223390603301027
 30
0.0
 11
82.75
 21
87.223390603299109
 31
0.0
  0
LINE
  8
DETAIL
  6
CONTINUOUS
 62
     5
 10
76.323740128010726
 20
89.57087589859907
 30
0.0
 11
83.676259871989274
 21
89.57087589859907
 31
0.0
  0
LINE
  8
DETAIL
  6
CONTINUOUS
 62
     5
 10
77.25
 20
86.999999999999091
 30
0.0
 11
82.75
 21
86.999999999999091
 31
0.0
  0
LINE
  8
DETAIL
  6
CONTINUOUS
 62
     5
 10
76.32374012801084
 20
-69.570875898601003
 30
0.0
 11
83.676259871989373
 21
-69.570875898601003
 31
0.0
  0
LINE
  8
DETAIL
  6
CONTINUOUS
 62
     5
 10
77.250000000000099
 20
-67.000000000001023
 30
0.0
 11
82.750000000000099
 21
-67.000000000001023
 31
0.0
  0
LINE
  8
DETAIL
  6
CONTINUOUS
 62
     5
 10
74.750000000000099
 20
-67.223390603301027
 30
0.0
 11
74.75
 21
87.223390603299109
 31
0.0
  0
LINE
  8
DETAIL
  6
CONTINUOUS
 62
     5
 10
77.25
 20
87.223390603299109
 30
0.0
 11
77.250000000000099
 21
-67.223390603301027
 31
0.0
  0
LINE
  8
DETAIL
  6
CONTINUOUS
 62
     5
 10
68.323740128010741
 20
89.57087589859907
 30
0.0
 11
75.676259871989274
 21
89.57087589859907
 31
0.0
  0
LINE
  8
DETAIL
  6
CONTINUOUS
 62
     5
 10
69.25
 20
86.999999999999091
 30
0.0
 11
74.75
 21
86.999999999999091
 31
0.0
  0
LINE
  8
DETAIL
  6
CONTINUOUS
 62
     5
 10
68.323740128010854
 20
-69.570875898601003
 30
0.0
 11
75.676259871989373
 21
-69.570875898601003
 31
0.0
  0
LINE
  8
DETAIL
  6
CONTINUOUS
 62
     5
 10
69.250000000000099
 20
-67.000000000001023
 30
0.0
 11
74.750000000000099
 21
-67.000000000001023
 31
0.0
  0
LINE
  8
DETAIL
  6
CONTINUOUS
 62
     5
 10
66.750000000000099
 20
-67.223390603301027
 30
0.0
 11
66.75
 21
87.223390603299109
 31
0.0
  0
LINE
  8
DETAIL
  6
CONTINUOUS
 62
     5
 10
69.25
 20
87.223390603299109
 30
0.0
 11
69.250000000000099
 21
-67.223390603301027
 31
0.0
  0
LINE
  8
DETAIL
  6
CONTINUOUS
 62
     5
 10
60.323740128010293
 20
89.57087589859907
 30
0.0
 11
67.676259871989259
 21
89.57087589859907
 31
0.0
  0
LINE
  8
DETAIL
  6
CONTINUOUS
 62
     5
 10
61.25
 20
86.999999999999091
 30
0.0
 11
66.75
 21
86.999999999999091
 31
0.0
  0
LINE
  8
DETAIL
  6
CONTINUOUS
 62
     5
 10
60.3237401280104
 20
-69.570875898601003
 30
0.0
 11
67.676259871989359
 21
-69.570875898601003
 31
0.0
  0
LINE
  8
DETAIL
  6
CONTINUOUS
 62
     5
 10
61.250000000000107
 20
-67.000000000001023
 30
0.0
 11
66.750000000000099
 21
-67.000000000001023
 31
0.0
  0
LINE
  8
DETAIL
  6
CONTINUOUS
 62
     5
 10
58.750000000000107
 20
-67.223390603301027
 30
0.0
 11
58.75
 21
87.223390603299109
 31
0.0
  0
LINE
  8
DETAIL
  6
CONTINUOUS
 62
     5
 10
61.25
 20
87.223390603299109
 30
0.0
 11
61.250000000000107
 21
-67.223390603301027
 31
0.0
  0
LINE
  8
DETAIL
  6
CONTINUOUS
 62
     5
 10
52.323740128010741
 20
89.57087589859907
 30
0.0
 11
59.676259871989259
 21
89.57087589859907
 31
0.0
  0
LINE
  8
DETAIL
  6
CONTINUOUS
 62
     5
 10
53.25
 20
86.999999999999091
 30
0.0
 11
58.75
 21
86.999999999999091
 31
0.0
  0
LINE
  8
DETAIL
  6
CONTINUOUS
 62
     5
 10
52.323740128010847
 20
-69.570875898601003
 30
0.0
 11
59.676259871989373
 21
-69.570875898601003
 31
0.0
  0
LINE
  8
DETAIL
  6
CONTINUOUS
 62
     5
 10
53.250000000000107
 20
-67.000000000001023
 30
0.0
 11
58.750000000000107
 21
-67.000000000001023
 31
0.0
  0
LINE
  8
DETAIL
  6
CONTINUOUS
 62
     5
 10
50.750000000000107
 20
-67.223390603301027
 30
0.0
 11
50.75
 21
87.223390603299109
 31
0.0
  0
LINE
  8
DETAIL
  6
CONTINUOUS
 62
     5
 10
53.25
 20
87.223390603299109
 30
0.0
 11
53.250000000000107
 21
-67.223390603301027
 31
0.0
  0
LINE
  8
DETAIL
  6
CONTINUOUS
 62
     5
 10
44.323740128010293
 20
89.57087589859907
 30
0.0
 11
51.676259871989259
 21
89.57087589859907
 31
0.0
  0
LINE
  8
DETAIL
  6
CONTINUOUS
 62
     5
 10
45.25
 20
86.999999999999091
 30
0.0
 11
50.75
 21
86.999999999999091
 31
0.0
  0
LINE
  8
DETAIL
  6
CONTINUOUS
 62
     5
 10
44.3237401280104
 20
-69.570875898601003
 30
0.0
 11
51.676259871989373
 21
-69.570875898601003
 31
0.0
  0
LINE
  8
DETAIL
  6
CONTINUOUS
 62
     5
 10
45.250000000000107
 20
-67.000000000001023
 30
0.0
 11
50.750000000000107
 21
-67.000000000001023
 31
0.0
  0
LINE
  8
DETAIL
  6
CONTINUOUS
 62
     5
 10
42.750000000000099
 20
-67.223390603301027
 30
0.0
 11
42.75
 21
87.223390603299109
 31
0.0
  0
LINE
  8
DETAIL
  6
CONTINUOUS
 62
     5
 10
45.25
 20
87.223390603299109
 30
0.0
 11
45.250000000000107
 21
-67.223390603301027
 31
0.0
  0
LINE
  8
DETAIL
  6
CONTINUOUS
 62
     5
 10
36.323740128010733
 20
89.57087589859907
 30
0.0
 11
43.676259871989259
 21
89.57087589859907
 31
0.0
  0
LINE
  8
DETAIL
  6
CONTINUOUS
 62
     5
 10
37.25
 20
86.999999999999091
 30
0.0
 11
42.75
 21
86.999999999999091
 31
0.0
  0
LINE
  8
DETAIL
  6
CONTINUOUS
 62
     5
 10
36.323740128010847
 20
-69.570875898601003
 30
0.0
 11
43.676259871989373
 21
-69.570875898601003
 31
0.0
  0
LINE
  8
DETAIL
  6
CONTINUOUS
 62
     5
 10
37.250000000000099
 20
-67.000000000001023
 30
0.0
 11
42.750000000000099
 21
-67.000000000001023
 31
0.0
  0
LINE
  8
DETAIL
  6
CONTINUOUS
 62
     5
 10
34.750000000000107
 20
-67.223390603301027
 30
0.0
 11
34.75
 21
87.223390603299109
 31
0.0
  0
LINE
  8
DETAIL
  6
CONTINUOUS
 62
     5
 10
37.25
 20
87.223390603299109
 30
0.0
 11
37.250000000000099
 21
-67.223390603301027
 31
0.0
  0
LINE
  8
DETAIL
  6
CONTINUOUS
 62
     5
 10
28.323740128010741
 20
89.57087589859907
 30
0.0
 11
35.676259871989259
 21
89.57087589859907
 31
0.0
  0
LINE
  8
DETAIL
  6
CONTINUOUS
 62
     5
 10
29.25
 20
86.999999999999091
 30
0.0
 11
34.75
 21
86.999999999999091
 31
0.0
  0
LINE
  8
DETAIL
  6
CONTINUOUS
 62
     5
 10
28.323740128010851
 20
-69.570875898601003
 30
0.0
 11
35.676259871989373
 21
-69.570875898601003
 31
0.0
  0
LINE
  8
DETAIL
  6
CONTINUOUS
 62
     5
 10
29.25000000000011
 20
-67.000000000001023
 30
0.0
 11
34.750000000000107
 21
-67.000000000001023
 31
0.0
  0
LINE
  8
DETAIL
  6
CONTINUOUS
 62
     5
 10
26.75000000000011
 20
-67.223390603301027
 30
0.0
 11
26.75
 21
87.223390603299109
 31
0.0
  0
LINE
  8
DETAIL
  6
CONTINUOUS
 62
     5
 10
29.25
 20
87.223390603299109
 30
0.0
 11
29.25000000000011
 21
-67.223390603301027
 31
0.0
  0
LINE
  8
DETAIL
  6
CONTINUOUS
 62
     5
 10
20.323740128010289
 20
89.57087589859907
 30
0.0
 11
27.676259871989259
 21
89.57087589859907
 31
0.0
  0
LINE
  8
DETAIL
  6
CONTINUOUS
 62
     5
 10
21.25
 20
86.999999999999091
 30
0.0
 11
26.75
 21
86.999999999999091
 31
0.0
  0
LINE
  8
DETAIL
  6
CONTINUOUS
 62
     5
 10
20.3237401280104
 20
-69.570875898601003
 30
0.0
 11
27.67625987198937
 21
-69.570875898601003
 31
0.0
  0
LINE
  8
DETAIL
  6
CONTINUOUS
 62
     5
 10
21.25000000000011
 20
-67.000000000001023
 30
0.0
 11
26.75000000000011
 21
-67.000000000001023
 31
0.0
  0
LINE
  8
DETAIL
  6
CONTINUOUS
 62
     5
 10
18.75000000000011
 20
-67.223390603301027
 30
0.0
 11
18.75
 21
87.223390603299109
 31
0.0
  0
LINE
  8
DETAIL
  6
CONTINUOUS
 62
     5
 10
21.25
 20
87.223390603299109
 30
0.0
 11
21.25000000000011
 21
-67.223390603301027
 31
0.0
  0
LINE
  8
DETAIL
  6
CONTINUOUS
 62
     5
 10
12.323740128010741
 20
89.57087589859907
 30
0.0
 11
19.676259871989259
 21
89.57087589859907
 31
0.0
  0
LINE
  8
DETAIL
  6
CONTINUOUS
 62
     5
 10
13.25
 20
86.999999999999091
 30
0.0
 11
18.75
 21
86.999999999999091
 31
0.0
  0
LINE
  8
DETAIL
  6
CONTINUOUS
 62
     5
 10
12.323740128010851
 20
-69.570875898601003
 30
0.0
 11
19.67625987198937
 21
-69.570875898601003
 31
0.0
  0
LINE
  8
DETAIL
  6
CONTINUOUS
 62
     5
 10
13.25000000000011
 20
-67.000000000001023
 30
0.0
 11
18.75000000000011
 21
-67.000000000001023
 31
0.0
  0
LINE
  8
DETAIL
  6
CONTINUOUS
 62
     5
 10
10.75000000000011
 20
-67.223390603301027
 30
0.0
 11
10.75
 21
87.223390603299109
 31
0.0
  0
LINE
  8
DETAIL
  6
CONTINUOUS
 62
     5
 10
13.25
 20
87.223390603299109
 30
0.0
 11
13.25000000000011
 21
-67.223390603301027
 31
0.0
  0
LINE
  8
DETAIL
  6
CONTINUOUS
 62
     5
 10
4.3237401280102858
 20
89.57087589859907
 30
0.0
 11
11.676259871989259
 21
89.57087589859907
 31
0.0
  0
LINE
  8
DETAIL
  6
CONTINUOUS
 62
     5
 10
5.25
 20
86.999999999999091
 30
0.0
 11
10.75
 21
86.999999999999091
 31
0.0
  0
LINE
  8
DETAIL
  6
CONTINUOUS
 62
     5
 10
4.3237401280104004
 20
-69.570875898601003
 30
0.0
 11
11.67625987198937
 21
-69.570875898601003
 31
0.0
  0
LINE
  8
DETAIL
  6
CONTINUOUS
 62
     5
 10
5.2500000000001137
 20
-67.000000000001023
 30
0.0
 11
10.75000000000011
 21
-67.000000000001023
 31
0.0
  0
LINE
  8
DETAIL
  6
CONTINUOUS
 62
     5
 10
2.7500000000001141
 20
-67.223390603301027
 30
0.0
 11
2.75
 21
87.223390603299109
 31
0.0
  0
LINE
  8
DETAIL
  6
CONTINUOUS
 62
     5
 10
5.25
 20
87.223390603299109
 30
0.0
 11
5.2500000000001137
 21
-67.223390603301027
 31
0.0
  0
LINE
  8
DETAIL
  6
CONTINUOUS
 62
     5
 10
-3.676259871989259
 20
89.57087589859907
 30
0.0
 11
3.676259871989259
 21
89.57087589859907
 31
0.0
  0
LINE
  8
DETAIL
  6
CONTINUOUS
 62
     5
 10
-2.75
 20
86.999999999999091
 30
0.0
 11
2.75
 21
86.999999999999091
 31
0.0
  0
LINE
  8
DETAIL
  6
CONTINUOUS
 62
     5
 10
-3.6762598719891462
 20
-69.570875898601003
 30
0.0
 11
3.6762598719893731
 21
-69.570875898601003
 31
0.0
  0
LINE
  8
DETAIL
  6
CONTINUOUS
 62
     5
 10
-2.749999999999885
 20
-67.000000000001023
 30
0.0
 11
2.7500000000001141
 21
-67.000000000001023
 31
0.0
  0
LINE
  8
DETAIL
  6
CONTINUOUS
 62
     5
 10
-5.2499999999998863
 20
-67.223390603301027
 30
0.0
 11
-5.25
 21
87.223390603299109
 31
0.0
  0
LINE
  8
DETAIL
  6
CONTINUOUS
 62
     5
 10
-2.75
 20
87.223390603299109
 30
0.0
 11
-2.749999999999885
 21
-67.223390603301027
 31
0.0
  0
LINE
  8
DETAIL
  6
CONTINUOUS
 62
     5
 10
-11.676259871989259
 20
89.57087589859907
 30
0.0
 11
-4.3237401280107406
 21
89.57087589859907
 31
0.0
  0
LINE
  8
DETAIL
  6
CONTINUOUS
 62
     5
 10
-10.75
 20
86.999999999999091
 30
0.0
 11
-5.25
 21
86.999999999999091
 31
0.0
  0
LINE
  8
DETAIL
  6
CONTINUOUS
 62
     5
 10
-11.676259871989149
 20
-69.570875898601003
 30
0.0
 11
-4.323740128010626
 21
-69.570875898601003
 31
0.0
  0
LINE
  8
DETAIL
  6
CONTINUOUS
 62
     5
 10
-10.74999999999989
 20
-67.000000000001023
 30
0.0
 11
-5.2499999999998863
 21
-67.000000000001023
 31
0.0
  0
LINE
  8
DETAIL
  6
CONTINUOUS
 62
     5
 10
-13.24999999999989
 20
-67.223390603301027
 30
0.0
 11
-13.25
 21
87.223390603299109
 31
0.0
  0
LINE
  8
DETAIL
  6
CONTINUOUS
 62
     5
 10
-10.75
 20
87.223390603299109
 30
0.0
 11
-10.74999999999989
 21
-67.223390603301027
 31
0.0
  0
LINE
  8
DETAIL
  6
CONTINUOUS
 62
     5
 10
-19.676259871989711
 20
89.57087589859907
 30
0.0
 11
-12.323740128010741
 21
89.57087589859907
 31
0.0
  0
LINE
  8
DETAIL
  6
CONTINUOUS
 62
     5
 10
-18.75
 20
86.999999999999091
 30
0.0
 11
-13.25
 21
86.999999999999091
 31
0.0
  0
LINE
  8
DETAIL
  6
CONTINUOUS
 62
     5
 10
-19.6762598719896
 20
-69.570875898601003
 30
0.0
 11
-12.32374012801063
 21
-69.570875898601003
 31
0.0
  0
LINE
  8
DETAIL
  6
CONTINUOUS
 62
     5
 10
-18.74999999999989
 20
-67.000000000001023
 30
0.0
 11
-13.24999999999989
 21
-67.000000000001023
 31
0.0
  0
LINE
  8
DETAIL
  6
CONTINUOUS
 62
     5
 10
-21.24999999999989
 20
-67.223390603301027
 30
0.0
 11
-21.25
 21
87.223390603299109
 31
0.0
  0
LINE
  8
DETAIL
  6
CONTINUOUS
 62
     5
 10
-18.75
 20
87.223390603299109
 30
0.0
 11
-18.74999999999989
 21
-67.223390603301027
 31
0.0
  0
LINE
  8
DETAIL
  6
CONTINUOUS
 62
     5
 10
-27.676259871989259
 20
89.57087589859907
 30
0.0
 11
-20.323740128010741
 21
89.57087589859907
 31
0.0
  0
LINE
  8
DETAIL
  6
CONTINUOUS
 62
     5
 10
-26.75
 20
86.999999999999091
 30
0.0
 11
-21.25
 21
86.999999999999091
 31
0.0
  0
LINE
  8
DETAIL
  6
CONTINUOUS
 62
     5
 10
-27.676259871989149
 20
-69.570875898601003
 30
0.0
 11
-20.32374012801063
 21
-69.570875898601003
 31
0.0
  0
LINE
  8
DETAIL
  6
CONTINUOUS
 62
     5
 10
-26.74999999999989
 20
-67.000000000001023
 30
0.0
 11
-21.24999999999989
 21
-67.000000000001023
 31
0.0
  0
LINE
  8
DETAIL
  6
CONTINUOUS
 62
     5
 10
-29.24999999999989
 20
-67.223390603301027
 30
0.0
 11
-29.25
 21
87.223390603299109
 31
0.0
  0
LINE
  8
DETAIL
  6
CONTINUOUS
 62
     5
 10
-26.75
 20
87.223390603299109
 30
0.0
 11
-26.74999999999989
 21
-67.223390603301027
 31
0.0
  0
LINE
  8
DETAIL
  6
CONTINUOUS
 62
     5
 10
-35.676259871989707
 20
89.57087589859907
 30
0.0
 11
-28.323740128010741
 21
89.57087589859907
 31
0.0
  0
LINE
  8
DETAIL
  6
CONTINUOUS
 62
     5
 10
-34.75
 20
86.999999999999091
 30
0.0
 11
-29.25
 21
86.999999999999091
 31
0.0
  0
LINE
  8
DETAIL
  6
CONTINUOUS
 62
     5
 10
-35.6762598719896
 20
-69.570875898601003
 30
0.0
 11
-28.32374012801063
 21
-69.570875898601003
 31
0.0
  0
LINE
  8
DETAIL
  6
CONTINUOUS
 62
     5
 10
-34.749999999999893
 20
-67.000000000001023
 30
0.0
 11
-29.24999999999989
 21
-67.000000000001023
 31
0.0
  0
LINE
  8
DETAIL
  6
CONTINUOUS
 62
     5
 10
-37.249999999999893
 20
-67.223390603301027
 30
0.0
 11
-37.25
 21
87.223390603299109
 31
0.0
  0
LINE
  8
DETAIL
  6
CONTINUOUS
 62
     5
 10
-34.75
 20
87.223390603299109
 30
0.0
 11
-34.749999999999893
 21
-67.223390603301027
 31
0.0
  0
LINE
  8
DETAIL
  6
CONTINUOUS
 62
     5
 10
-43.676259871989259
 20
89.57087589859907
 30
0.0
 11
-36.323740128010733
 21
89.57087589859907
 31
0.0
  0
LINE
  8
DETAIL
  6
CONTINUOUS
 62
     5
 10
-42.750000000000448
 20
86.999999999999091
 30
0.0
 11
-37.25
 21
86.999999999999091
 31
0.0
  0
LINE
  8
DETAIL
  6
CONTINUOUS
 62
     5
 10
-43.676259871989153
 20
-69.570875898601003
 30
0.0
 11
-36.323740128010627
 21
-69.570875898601003
 31
0.0
  0
LINE
  8
DETAIL
  6
CONTINUOUS
 62
     5
 10
-42.750000000000327
 20
-67.000000000001023
 30
0.0
 11
-37.249999999999893
 21
-67.000000000001023
 31
0.0
  0
LINE
  8
DETAIL
  6
CONTINUOUS
 62
     5
 10
-45.250000000000341
 20
-67.223390603301027
 30
0.0
 11
-45.250000000000448
 21
87.223390603299109
 31
0.0
  0
LINE
  8
DETAIL
  6
CONTINUOUS
 62
     5
 10
-42.750000000000448
 20
87.223390603299109
 30
0.0
 11
-42.750000000000327
 21
-67.223390603301027
 31
0.0
  0
LINE
  8
DETAIL
  6
CONTINUOUS
 62
     5
 10
-51.676259871989259
 20
89.57087589859907
 30
0.0
 11
-44.323740128010733
 21
89.57087589859907
 31
0.0
  0
LINE
  8
DETAIL
  6
CONTINUOUS
 62
     5
 10
-50.75
 20
86.999999999999091
 30
0.0
 11
-45.250000000000448
 21
86.999999999999091
 31
0.0
  0
LINE
  8
DETAIL
  6
CONTINUOUS
 62
     5
 10
-51.676259871989153
 20
-69.570875898601003
 30
0.0
 11
-44.323740128010627
 21
-69.570875898601003
 31
0.0
  0
LINE
  8
DETAIL
  6
CONTINUOUS
 62
     5
 10
-50.749999999999893
 20
-67.000000000001023
 30
0.0
 11
-45.250000000000341
 21
-67.000000000001023
 31
0.0
  0
LINE
  8
DETAIL
  6
CONTINUOUS
 62
     5
 10
-53.249999999999893
 20
-67.223390603301027
 30
0.0
 11
-53.25
 21
87.223390603299109
 31
0.0
  0
LINE
  8
DETAIL
  6
CONTINUOUS
 62
     5
 10
-50.75
 20
87.223390603299109
 30
0.0
 11
-50.749999999999893
 21
-67.223390603301027
 31
0.0
  0
LINE
  8
DETAIL
  6
CONTINUOUS
 62
     5
 10
-59.6762598719897
 20
89.57087589859907
 30
0.0
 11
-52.323740128010741
 21
89.57087589859907
 31
0.0
  0
LINE
  8
DETAIL
  6
CONTINUOUS
 62
     5
 10
-58.75
 20
86.999999999999091
 30
0.0
 11
-53.25
 21
86.999999999999091
 31
0.0
  0
LINE
  8
DETAIL
  6
CONTINUOUS
 62
     5
 10
-59.6762598719896
 20
-69.570875898601003
 30
0.0
 11
-52.323740128010627
 21
-69.570875898601003
 31
0.0
  0
LINE
  8
DETAIL
  6
CONTINUOUS
 62
     5
 10
-58.749999999999893
 20
-67.000000000001023
 30
0.0
 11
-53.249999999999893
 21
-67.000000000001023
 31
0.0
  0
LINE
  8
DETAIL
  6
CONTINUOUS
 62
     5
 10
-61.249999999999893
 20
-67.223390603301027
 30
0.0
 11
-61.25
 21
87.223390603299109
 31
0.0
  0
LINE
  8
DETAIL
  6
CONTINUOUS
 62
     5
 10
-58.75
 20
87.223390603299109
 30
0.0
 11
-58.749999999999893
 21
-67.223390603301027
 31
0.0
  0
LINE
  8
DETAIL
  6
CONTINUOUS
 62
     5
 10
-67.676259871989259
 20
89.57087589859907
 30
0.0
 11
-60.323740128010741
 21
89.57087589859907
 31
0.0
  0
LINE
  8
DETAIL
  6
CONTINUOUS
 62
     5
 10
-66.75
 20
86.999999999999091
 30
0.0
 11
-61.25
 21
86.999999999999091
 31
0.0
  0
LINE
  8
DETAIL
  6
CONTINUOUS
 62
     5
 10
-67.676259871989146
 20
-69.570875898601003
 30
0.0
 11
-60.323740128010627
 21
-69.570875898601003
 31
0.0
  0
LINE
  8
DETAIL
  6
CONTINUOUS
 62
     5
 10
-66.749999999999901
 20
-67.000000000001023
 30
0.0
 11
-61.249999999999893
 21
-67.000000000001023
 31
0.0
  0
LINE
  8
DETAIL
  6
CONTINUOUS
 62
     5
 10
-69.249999999999901
 20
-67.223390603301027
 30
0.0
 11
-69.25
 21
87.223390603299109
 31
0.0
  0
LINE
  8
DETAIL
  6
CONTINUOUS
 62
     5
 10
-66.75
 20
87.223390603299109
 30
0.0
 11
-66.749999999999901
 21
-67.223390603301027
 31
0.0
  0
LINE
  8
DETAIL
  6
CONTINUOUS
 62
     5
 10
-76.323740128010627
 20
-69.570875898601003
 30
0.0
 11
-83.676259871989146
 21
-69.570875898601003
 31
0.0
  0
LINE
  8
DETAIL
  6
CONTINUOUS
 62
     5
 10
-82.750000000000341
 20
-67.000000000001023
 30
0.0
 11
-77.249999999999872
 21
-67.000000000001023
 31
0.0
  0
LINE
  8
DETAIL
  6
CONTINUOUS
 62
     5
 10
-77.249999999999872
 20
-67.223390603301027
 30
0.0
 11
-77.25
 21
87.223390603299109
 31
0.0
  0
LINE
  8
DETAIL
  6
CONTINUOUS
 62
     5
 10
-74.75
 20
87.223390603299109
 30
0.0
 11
-74.749999999999872
 21
-67.223390603301027
 31
0.0
  0
LINE
  8
DETAIL
  6
CONTINUOUS
 62
     5
 10
-75.6762598719896
 20
-69.570875898601003
 30
0.0
 11
-68.323740128010641
 21
-69.570875898601003
 31
0.0
  0
LINE
  8
DETAIL
  6
CONTINUOUS
 62
     5
 10
-74.749999999999872
 20
-67.000000000001023
 30
0.0
 11
-69.249999999999901
 21
-67.000000000001023
 31
0.0
  0
LINE
  8
DETAIL
  6
CONTINUOUS
 62
     5
 10
-82.750000000000455
 20
87.223390603299109
 30
0.0
 11
-82.750000000000341
 21
-67.223390603301027
 31
0.0
  0
LINE
  8
DETAIL
  6
CONTINUOUS
 62
     5
 10
-82.750000000000455
 20
86.999999999999091
 30
0.0
 11
-77.25
 21
86.999999999999091
 31
0.0
  0
LINE
  8
DETAIL
  6
CONTINUOUS
 62
     5
 10
-76.323740128010726
 20
89.57087589859907
 30
0.0
 11
-83.676259871989274
 21
89.57087589859907
 31
0.0
  0
LINE
  8
DETAIL
  6
CONTINUOUS
 62
     5
 10
-75.6762598719897
 20
89.57087589859907
 30
0.0
 11
-68.323740128010741
 21
89.57087589859907
 31
0.0
  0
LINE
  8
DETAIL
  6
CONTINUOUS
 62
     5
 10
-74.75
 20
86.999999999999091
 30
0.0
 11
-69.25
 21
86.999999999999091
 31
0.0
  0
ARC
  8
DETAIL
  6
CONTINUOUS
 62
     5
 10
0.0
 20
10.000000000000339
 30
0.0
 40
14.99999999999997
 50
290.41964706418088
 51
315.77995557231878
  0
ARC
  8
DETAIL
  6
CONTINUOUS
 62
     5
 10
9.7154076796982718
 20
-5.1529156805269167
 30
0.0
 40
2.9999999999999929
 50
69.826499437993817
 51
122.6660167273013
  0
ARC
  8
DETAIL
  6
CONTINUOUS
 62
     5
 10
0.0000000000454747
 20
9.9999999998691464
 30
0.0
 40
52.224999999999959
 50
280.27849301020109
 51
281.87868298936547
  0
ARC
  8
DETAIL
  6
CONTINUOUS
 62
     5
 10
14.456582494417489
 20
16.856181340932491
 30
0.0
 40
0.9999999999999776
 50
205.37312268790299
 51
275.71076449050253
  0
ARC
  8
DETAIL
  6
CONTINUOUS
 62
     5
 10
-0.0000000000909495
 20
9.9999999998952944
 30
0.0
 40
52.225000000000072
 50
160.278493010201
 51
166.35033775700799
  0
ARC
  8
DETAIL
  6
CONTINUOUS
 62
     5
 10
-17.980513760544
 20
9.1626679813913352
 30
0.0
 40
2.9999999999999711
 50
255.1377865135843
 51
2.666016727296046
  0
ARC
  8
DETAIL
  6
CONTINUOUS
 62
     5
 10
-1.290664032963377
 20
-5.9478583626681711
 30
0.0
 40
1.0000000000000031
 50
85.373122687898459
 51
155.71076449049951
  0
ARC
  8
DETAIL
  6
CONTINUOUS
 62
     5
 10
0.0
 20
10.000000000000339
 30
0.0
 40
52.22499999999998
 50
40.278493010202602
 51
44.499224739788133
  0
ARC
  8
DETAIL
  6
CONTINUOUS
 62
     5
 10
36.791386602799783
 20
41.177628146500297
 30
0.0
 40
3.99999999999996
 50
276.58363117792902
 51
40.278509273596562
  0
ARC
  8
DETAIL
  6
CONTINUOUS
 62
     5
 10
8.2651060807997947
 20
25.990247698900362
 30
0.0
 40
3.0000000000000302
 50
126.1050161415
 51
242.66601672730241
  0
ARC
  8
DETAIL
  6
CONTINUOUS
 62
     5
 10
0.0
 20
10.000000000000339
 30
0.0
 40
15.00000000000002
 50
332.04711341086488
 51
27.952886589135051
  0
ARC
  8
DETAIL
  6
CONTINUOUS
 62
     5
 10
0.0
 20
10.000000000000339
 30
0.0
 40
15.00000000000002
 50
44.220044427681287
 51
69.512684885276101
  0
ARC
  8
DETAIL
  6
CONTINUOUS
 62
     5
 10
0.0
 20
10.000000000000339
 30
0.0
 40
14.99999999999998
 50
79.436022410944446
 51
100.5639775890556
  0
ARC
  8
DETAIL
  6
CONTINUOUS
 62
     5
 10
0.0
 20
10.000000000000339
 30
0.0
 40
14.999999999999989
 50
110.4873151147239
 51
135.7799555723187
  0
ARC
  8
DETAIL
  6
CONTINUOUS
 62
     5
 10
0.0
 20
10.000000000000339
 30
0.0
 40
14.99999999999997
 50
152.04711341086499
 51
207.95288658913509
  0
ARC
  8
DETAIL
  6
CONTINUOUS
 62
     5
 10
0.0
 20
10.000000000000339
 30
0.0
 40
14.99999999999997
 50
224.2200444276813
 51
249.51268488527609
  0
ARC
  8
DETAIL
  6
CONTINUOUS
 62
     5
 10
0.0
 20
10.000000000000339
 30
0.0
 40
14.99999999999998
 50
259.43602241093771
 51
280.56397758905558
  0
ARC
  8
DETAIL
  6
CONTINUOUS
 62
     5
 10
0.0
 20
10.000000000000339
 30
0.0
 40
52.225000000000001
 50
48.287737257870212
 51
55.93890526798544
  0
ARC
  8
DETAIL
  6
CONTINUOUS
 62
     5
 10
0.0
 20
10.000000000000339
 30
0.0
 40
52.225000000000001
 50
59.189064468716253
 51
65.990177523410736
  0
ARC
  8
DETAIL
  6
CONTINUOUS
 62
     5
 10
0.0
 20
10.000000000000339
 30
0.0
 40
52.225000000000001
 50
68.959764762077128
 51
75.30284535034292
  0
ARC
  8
DETAIL
  6
CONTINUOUS
 62
     5
 10
0.0
 20
10.000000000000339
 30
0.0
 40
52.225000000000001
 50
78.121317010587873
 51
84.230506614557314
  0
ARC
  8
DETAIL
  6
CONTINUOUS
 62
     5
 10
0.0
 20
10.000000000000339
 30
0.0
 40
52.225000000000001
 50
86.98159313980679
 51
93.01840686019321
  0
ARC
  8
DETAIL
  6
CONTINUOUS
 62
     5
 10
0.0
 20
10.000000000000339
 30
0.0
 40
52.225000000000023
 50
95.769493385442701
 51
101.8786829894121
  0
ARC
  8
DETAIL
  6
CONTINUOUS
 62
     5
 10
-45.396311306104501
 20
26.273461365124721
 30
0.0
 40
4.0000000000000364
 50
87.903777303177662
 51
160.2785092735968
  0
ARC
  8
DETAIL
  6
CONTINUOUS
 62
     5
 10
-0.0000000000909495
 20
9.9999999998952944
 30
0.0
 40
52.225000000000023
 50
193.64966224299201
 51
209.95208085374239
  0
ARC
  8
DETAIL
  6
CONTINUOUS
 62
     5
 10
-0.0000000000909495
 20
9.9999999998952944
 30
0.0
 40
52.22499999999998
 50
215.05775245514769
 51
223.460926829502
  0
ARC
  8
DETAIL
  6
CONTINUOUS
 62
     5
 10
8.6049247032588028
 20
-37.451089511860218
 30
0.0
 40
3.9999999999999698
 50
212.99362353323639
 51
280.27850927360168
  0
ARC
  8
DETAIL
  6
CONTINUOUS
 62
     5
 10
0.0000000000454747
 20
9.9999999998691464
 30
0.0
 40
52.225000000000001
 50
284.69715464960342
 51
291.04023523786719
  0
ARC
  8
DETAIL
  6
CONTINUOUS
 62
     5
 10
0.0000000000454747
 20
9.9999999998691464
 30
0.0
 40
52.22499999999998
 50
294.00982247653218
 51
300.81093553122321
  0
ARC
  8
DETAIL
  6
CONTINUOUS
 62
     5
 10
0.0000000000454747
 20
9.9999999998691464
 30
0.0
 40
52.22499999999998
 50
304.06109473195937
 51
311.7122627420606
  0
ARC
  8
DETAIL
  6
CONTINUOUS
 62
     5
 10
0.0000000000454747
 20
9.9999999998691464
 30
0.0
 40
52.22499999999998
 50
315.50077526013803
 51
324.94224754494343
  0
ARC
  8
DETAIL
  6
CONTINUOUS
 62
     5
 10
0.0000000000454747
 20
9.9999999998691464
 30
0.0
 40
52.224999999999959
 50
330.04791914635922
 51
343.46092682950177
  0
ARC
  8
DETAIL
  6
CONTINUOUS
 62
     5
 10
0.0
 20
10.000000000000339
 30
0.0
 40
55.500000000000021
 50
23.877297452435911
 51
35.381448509454493
  0
ARC
  8
DETAIL
  6
CONTINUOUS
 62
     5
 10
0.0
 20
10.000000000000339
 30
0.0
 40
55.500000000000007
 50
39.621834907237783
 51
47.842479172920193
  0
ARC
  8
DETAIL
  6
CONTINUOUS
 62
     5
 10
0.0
 20
10.000000000000339
 30
0.0
 40
55.500000000000007
 50
51.235110068232657
 51
58.195197779506458
  0
ARC
  8
DETAIL
  6
CONTINUOUS
 62
     5
 10
0.0
 20
10.000000000000339
 30
0.0
 40
55.500000000000021
 50
61.185071419228457
 51
67.4876302228095
  0
ARC
  8
DETAIL
  6
CONTINUOUS
 62
     5
 10
0.0
 20
10.000000000000339
 30
0.0
 40
55.500000000000021
 50
70.254801899440281
 51
76.18788833863789
  0
ARC
  8
DETAIL
  6
CONTINUOUS
 62
     5
 10
0.0
 20
10.000000000000339
 30
0.0
 40
55.500000000000021
 50
78.831577086572764
 51
84.572013284835364
  0
ARC
  8
DETAIL
  6
CONTINUOUS
 62
     5
 10
0.0
 20
10.000000000000339
 30
0.0
 40
55.500000000000021
 50
87.159856957995473
 51
92.840143042004541
  0
ARC
  8
DETAIL
  6
CONTINUOUS
 62
     5
 10
0.0
 20
10.000000000000339
 30
0.0
 40
55.5
 50
95.427986715164636
 51
101.16842291342719
  0
ARC
  8
DETAIL
  6
CONTINUOUS
 62
     5
 10
0.0
 20
10.000000000000339
 30
0.0
 40
55.5
 50
103.8121116613621
 51
109.7451981005597
  0
ARC
  8
DETAIL
  6
CONTINUOUS
 62
     5
 10
0.0
 20
10.000000000000339
 30
0.0
 40
55.500000000000021
 50
112.5123697771905
 51
118.81492858077161
  0
ARC
  8
DETAIL
  6
CONTINUOUS
 62
     5
 10
0.0
 20
10.000000000000339
 30
0.0
 40
55.5
 50
121.8048022204935
 51
128.7648899317673
  0
ARC
  8
DETAIL
  6
CONTINUOUS
 62
     5
 10
0.0
 20
10.000000000000339
 30
0.0
 40
55.500000000000021
 50
132.15752082707979
 51
140.3781650927622
  0
ARC
  8
DETAIL
  6
CONTINUOUS
 62
     5
 10
0.0
 20
10.000000000000339
 30
0.0
 40
55.5
 50
144.61855149054551
 51
156.1227025475641
  0
ARC
  8
DETAIL
  6
CONTINUOUS
 62
     5
 10
0.0
 20
10.000000000000339
 30
0.0
 40
55.500000000000021
 50
163.62954926300759
 51
196.37045073699241
  0
ARC
  8
DETAIL
  6
CONTINUOUS
 62
     5
 10
0.0
 20
10.000000000000339
 30
0.0
 40
55.500000000000021
 50
203.8772974524359
 51
215.38144850945449
  0
ARC
  8
DETAIL
  6
CONTINUOUS
 62
     5
 10
0.0
 20
10.000000000000339
 30
0.0
 40
55.499999999999979
 50
219.6218349072378
 51
227.84247917292021
  0
ARC
  8
DETAIL
  6
CONTINUOUS
 62
     5
 10
0.0
 20
10.000000000000339
 30
0.0
 40
55.500000000000007
 50
231.23511006823259
 51
238.19519777950649
  0
ARC
  8
DETAIL
  6
CONTINUOUS
 62
     5
 10
0.0
 20
10.000000000000339
 30
0.0
 40
55.5
 50
241.18507141922839
 51
247.48763022280951
  0
ARC
  8
DETAIL
  6
CONTINUOUS
 62
     5
 10
0.0
 20
10.000000000000339
 30
0.0
 40
55.5
 50
250.25480189944031
 51
256.18788833863789
  0
ARC
  8
DETAIL
  6
CONTINUOUS
 62
     5
 10
0.0
 20
10.000000000000339
 30
0.0
 40
55.500000000000007
 50
258.83157708657279
 51
264.57201328483541
  0
ARC
  8
DETAIL
  6
CONTINUOUS
 62
     5
 10
0.0
 20
10.000000000000339
 30
0.0
 40
55.5
 50
267.15985695799537
 51
272.84014304200468
  0
ARC
  8
DETAIL
  6
CONTINUOUS
 62
     5
 10
0.0
 20
10.000000000000339
 30
0.0
 40
55.499999999999979
 50
275.42798671516459
 51
281.16842291342721
  0
ARC
  8
DETAIL
  6
CONTINUOUS
 62
     5
 10
0.0
 20
10.000000000000339
 30
0.0
 40
55.500000000000007
 50
283.81211166135529
 51
289.74519810055972
  0
ARC
  8
DETAIL
  6
CONTINUOUS
 62
     5
 10
0.0
 20
10.000000000000339
 30
0.0
 40
55.499999999999979
 50
292.51236977719049
 51
298.81492858077172
  0
ARC
  8
DETAIL
  6
CONTINUOUS
 62
     5
 10
0.0
 20
10.000000000000339
 30
0.0
 40
55.5
 50
301.80480222049351
 51
308.76488993176741
  0
ARC
  8
DETAIL
  6
CONTINUOUS
 62
     5
 10
0.0
 20
10.000000000000339
 30
0.0
 40
55.500000000000021
 50
312.15752082707968
 51
320.37816509276217
  0
ARC
  8
DETAIL
  6
CONTINUOUS
 62
     5
 10
0.0
 20
10.000000000000339
 30
0.0
 40
55.500000000000021
 50
324.61855149054549
 51
336.12270254756407
  0
ARC
  8
DETAIL
  6
CONTINUOUS
 62
     5
 10
0.0
 20
10.000000000000339
 30
0.0
 40
55.500000000000021
 50
343.62954926300768
 51
16.370450736992389
  0
LINE
  8
DETAIL
  6
CONTINUOUS
 62
     5
 10
83.676259871989274
 20
89.57087589859907
 30
0.0
 11
82.75
 21
87.223390603299109
 31
0.0
  0
LINE
  8
DETAIL
  6
CONTINUOUS
 62
     5
 10
76.323740128010726
 20
89.57087589859907
 30
0.0
 11
77.25
 21
87.223390603299109
 31
0.0
  0
LINE
  8
DETAIL
  6
CONTINUOUS
 62
     5
 10
75.676259871989274
 20
89.57087589859907
 30
0.0
 11
74.75
 21
87.223390603299109
 31
0.0
  0
LINE
  8
DETAIL
  6
CONTINUOUS
 62
     5
 10
68.323740128010741
 20
89.57087589859907
 30
0.0
 11
69.25
 21
87.223390603299109
 31
0.0
  0
LINE
  8
DETAIL
  6
CONTINUOUS
 62
     5
 10
67.676259871989259
 20
89.57087589859907
 30
0.0
 11
66.75
 21
87.223390603299109
 31
0.0
  0
LINE
  8
DETAIL
  6
CONTINUOUS
 62
     5
 10
60.323740128010741
 20
89.57087589859907
 30
0.0
 11
61.25
 21
87.223390603299109
 31
0.0
  0
LINE
  8
DETAIL
  6
CONTINUOUS
 62
     5
 10
59.676259871989259
 20
89.57087589859907
 30
0.0
 11
58.75
 21
87.223390603299109
 31
0.0
  0
LINE
  8
DETAIL
  6
CONTINUOUS
 62
     5
 10
52.323740128010741
 20
89.57087589859907
 30
0.0
 11
53.25
 21
87.223390603299109
 31
0.0
  0
LINE
  8
DETAIL
  6
CONTINUOUS
 62
     5
 10
51.676259871989259
 20
89.57087589859907
 30
0.0
 11
50.75
 21
87.223390603299109
 31
0.0
  0
LINE
  8
DETAIL
  6
CONTINUOUS
 62
     5
 10
44.323740128010733
 20
89.57087589859907
 30
0.0
 11
45.25
 21
87.223390603299109
 31
0.0
  0
LINE
  8
DETAIL
  6
CONTINUOUS
 62
     5
 10
43.676259871989259
 20
89.57087589859907
 30
0.0
 11
42.75
 21
87.223390603299109
 31
0.0
  0
LINE
  8
DETAIL
  6
CONTINUOUS
 62
     5
 10
36.323740128010733
 20
89.57087589859907
 30
0.0
 11
37.25
 21
87.223390603299109
 31
0.0
  0
LINE
  8
DETAIL
  6
CONTINUOUS
 62
     5
 10
35.676259871989259
 20
89.57087589859907
 30
0.0
 11
34.75
 21
87.223390603299109
 31
0.0
  0
LINE
  8
DETAIL
  6
CONTINUOUS
 62
     5
 10
28.323740128010741
 20
89.57087589859907
 30
0.0
 11
29.25
 21
87.223390603299109
 31
0.0
  0
LINE
  8
DETAIL
  6
CONTINUOUS
 62
     5
 10
27.676259871989259
 20
89.57087589859907
 30
0.0
 11
26.75
 21
87.223390603299109
 31
0.0
  0
LINE
  8
DETAIL
  6
CONTINUOUS
 62
     5
 10
20.323740128010741
 20
89.57087589859907
 30
0.0
 11
21.25
 21
87.223390603299109
 31
0.0
  0
LINE
  8
DETAIL
  6
CONTINUOUS
 62
     5
 10
19.676259871989259
 20
89.57087589859907
 30
0.0
 11
18.75
 21
87.223390603299109
 31
0.0
  0
LINE
  8
DETAIL
  6
CONTINUOUS
 62
     5
 10
12.323740128010741
 20
89.57087589859907
 30
0.0
 11
13.25
 21
87.223390603299109
 31
0.0
  0
LINE
  8
DETAIL
  6
CONTINUOUS
 62
     5
 10
11.676259871989259
 20
89.57087589859907
 30
0.0
 11
10.75
 21
87.223390603299109
 31
0.0
  0
LINE
  8
DETAIL
  6
CONTINUOUS
 62
     5
 10
4.3237401280107406
 20
89.57087589859907
 30
0.0
 11
5.25
 21
87.223390603299109
 31
0.0
  0
LINE
  8
DETAIL
  6
CONTINUOUS
 62
     5
 10
3.676259871989259
 20
89.57087589859907
 30
0.0
 11
2.75
 21
87.223390603299109
 31
0.0
  0
LINE
  8
DETAIL
  6
CONTINUOUS
 62
     5
 10
-83.676259871989274
 20
89.57087589859907
 30
0.0
 11
-82.75
 21
87.223390603299109
 31
0.0
  0
LINE
  8
DETAIL
  6
CONTINUOUS
 62
     5
 10
-76.323740128010726
 20
89.57087589859907
 30
0.0
 11
-77.25
 21
87.223390603299109
 31
0.0
  0
LINE
  8
DETAIL
  6
CONTINUOUS
 62
     5
 10
-75.676259871989274
 20
89.57087589859907
 30
0.0
 11
-74.75
 21
87.223390603299109
 31
0.0
  0
LINE
  8
DETAIL
  6
CONTINUOUS
 62
     5
 10
-68.323740128010741
 20
89.57087589859907
 30
0.0
 11
-69.25
 21
87.223390603299109
 31
0.0
  0
LINE
  8
DETAIL
  6
CONTINUOUS
 62
     5
 10
-67.676259871989259
 20
89.57087589859907
 30
0.0
 11
-66.75
 21
87.223390603299109
 31
0.0
  0
LINE
  8
DETAIL
  6
CONTINUOUS
 62
     5
 10
-60.323740128010741
 20
89.57087589859907
 30
0.0
 11
-61.25
 21
87.223390603299109
 31
0.0
  0
LINE
  8
DETAIL
  6
CONTINUOUS
 62
     5
 10
-59.676259871989259
 20
89.57087589859907
 30
0.0
 11
-58.75
 21
87.223390603299109
 31
0.0
  0
LINE
  8
DETAIL
  6
CONTINUOUS
 62
     5
 10
-52.323740128010741
 20
89.57087589859907
 30
0.0
 11
-53.25
 21
87.223390603299109
 31
0.0
  0
LINE
  8
DETAIL
  6
CONTINUOUS
 62
     5
 10
-51.676259871989259
 20
89.57087589859907
 30
0.0
 11
-50.75
 21
87.223390603299109
 31
0.0
  0
LINE
  8
DETAIL
  6
CONTINUOUS
 62
     5
 10
-44.323740128010733
 20
89.57087589859907
 30
0.0
 11
-45.25
 21
87.223390603299109
 31
0.0
  0
LINE
  8
DETAIL
  6
CONTINUOUS
 62
     5
 10
-43.676259871989259
 20
89.57087589859907
 30
0.0
 11
-42.75
 21
87.223390603299109
 31
0.0
  0
LINE
  8
DETAIL
  6
CONTINUOUS
 62
     5
 10
-36.323740128010733
 20
89.57087589859907
 30
0.0
 11
-37.25
 21
87.223390603299109
 31
0.0
  0
LINE
  8
DETAIL
  6
CONTINUOUS
 62
     5
 10
-35.676259871989259
 20
89.57087589859907
 30
0.0
 11
-34.75
 21
87.223390603299109
 31
0.0
  0
LINE
  8
DETAIL
  6
CONTINUOUS
 62
     5
 10
-28.323740128010741
 20
89.57087589859907
 30
0.0
 11
-29.25
 21
87.223390603299109
 31
0.0
  0
LINE
  8
DETAIL
  6
CONTINUOUS
 62
     5
 10
-27.676259871989259
 20
89.57087589859907
 30
0.0
 11
-26.75
 21
87.223390603299109
 31
0.0
  0
LINE
  8
DETAIL
  6
CONTINUOUS
 62
     5
 10
-20.323740128010741
 20
89.57087589859907
 30
0.0
 11
-21.25
 21
87.223390603299109
 31
0.0
  0
LINE
  8
DETAIL
  6
CONTINUOUS
 62
     5
 10
-19.676259871989259
 20
89.57087589859907
 30
0.0
 11
-18.75
 21
87.223390603299109
 31
0.0
  0
LINE
  8
DETAIL
  6
CONTINUOUS
 62
     5
 10
-12.323740128010741
 20
89.57087589859907
 30
0.0
 11
-13.25
 21
87.223390603299109
 31
0.0
  0
LINE
  8
DETAIL
  6
CONTINUOUS
 62
     5
 10
-11.676259871989259
 20
89.57087589859907
 30
0.0
 11
-10.75
 21
87.223390603299109
 31
0.0
  0
LINE
  8
DETAIL
  6
CONTINUOUS
 62
     5
 10
-4.3237401280107406
 20
89.57087589859907
 30
0.0
 11
-5.25
 21
87.223390603299109
 31
0.0
  0
LINE
  8
DETAIL
  6
CONTINUOUS
 62
     5
 10
-3.676259871989259
 20
89.57087589859907
 30
0.0
 11
-2.75
 21
87.223390603299109
 31
0.0
  0
LINE
  8
DETAIL
  6
CONTINUOUS
 62
     5
 10
83.676259871989373
 20
-69.570875898601003
 30
0.0
 11
82.750000000000099
 21
-67.223390603301027
 31
0.0
  0
LINE
  8
DETAIL
  6
CONTINUOUS
 62
     5
 10
76.32374012801084
 20
-69.570875898601003
 30
0.0
 11
77.250000000000099
 21
-67.223390603301027
 31
0.0
  0
LINE
  8
DETAIL
  6
CONTINUOUS
 62
     5
 10
75.676259871989373
 20
-69.570875898601003
 30
0.0
 11
74.750000000000099
 21
-67.223390603301027
 31
0.0
  0
LINE
  8
DETAIL
  6
CONTINUOUS
 62
     5
 10
68.323740128010854
 20
-69.570875898601003
 30
0.0
 11
69.250000000000099
 21
-67.223390603301027
 31
0.0
  0
LINE
  8
DETAIL
  6
CONTINUOUS
 62
     5
 10
67.676259871989359
 20
-69.570875898601003
 30
0.0
 11
66.750000000000099
 21
-67.223390603301027
 31
0.0
  0
LINE
  8
DETAIL
  6
CONTINUOUS
 62
     5
 10
60.323740128010847
 20
-69.570875898601003
 30
0.0
 11
61.250000000000107
 21
-67.223390603301027
 31
0.0
  0
LINE
  8
DETAIL
  6
CONTINUOUS
 62
     5
 10
59.676259871989373
 20
-69.570875898601003
 30
0.0
 11
58.750000000000107
 21
-67.223390603301027
 31
0.0
  0
LINE
  8
DETAIL
  6
CONTINUOUS
 62
     5
 10
52.323740128010847
 20
-69.570875898601003
 30
0.0
 11
53.250000000000107
 21
-67.223390603301027
 31
0.0
  0
LINE
  8
DETAIL
  6
CONTINUOUS
 62
     5
 10
51.676259871989373
 20
-69.570875898601003
 30
0.0
 11
50.750000000000107
 21
-67.223390603301027
 31
0.0
  0
LINE
  8
DETAIL
  6
CONTINUOUS
 62
     5
 10
44.323740128010847
 20
-69.570875898601003
 30
0.0
 11
45.250000000000107
 21
-67.223390603301027
 31
0.0
  0
LINE
  8
DETAIL
  6
CONTINUOUS
 62
     5
 10
43.676259871989373
 20
-69.570875898601003
 30
0.0
 11
42.750000000000099
 21
-67.223390603301027
 31
0.0
  0
LINE
  8
DETAIL
  6
CONTINUOUS
 62
     5
 10
36.323740128010847
 20
-69.570875898601003
 30
0.0
 11
37.250000000000099
 21
-67.223390603301027
 31
0.0
  0
LINE
  8
DETAIL
  6
CONTINUOUS
 62
     5
 10
35.676259871989373
 20
-69.570875898601003
 30
0.0
 11
34.750000000000107
 21
-67.223390603301027
 31
0.0
  0
LINE
  8
DETAIL
  6
CONTINUOUS
 62
     5
 10
28.323740128010851
 20
-69.570875898601003
 30
0.0
 11
29.25000000000011
 21
-67.223390603301027
 31
0.0
  0
LINE
  8
DETAIL
  6
CONTINUOUS
 62
     5
 10
27.67625987198937
 20
-69.570875898601003
 30
0.0
 11
26.75000000000011
 21
-67.223390603301027
 31
0.0
  0
LINE
  8
DETAIL
  6
CONTINUOUS
 62
     5
 10
20.323740128010851
 20
-69.570875898601003
 30
0.0
 11
21.25000000000011
 21
-67.223390603301027
 31
0.0
  0
LINE
  8
DETAIL
  6
CONTINUOUS
 62
     5
 10
19.67625987198937
 20
-69.570875898601003
 30
0.0
 11
18.75000000000011
 21
-67.223390603301027
 31
0.0
  0
LINE
  8
DETAIL
  6
CONTINUOUS
 62
     5
 10
12.323740128010851
 20
-69.570875898601003
 30
0.0
 11
13.25000000000011
 21
-67.223390603301027
 31
0.0
  0
LINE
  8
DETAIL
  6
CONTINUOUS
 62
     5
 10
11.67625987198937
 20
-69.570875898601003
 30
0.0
 11
10.75000000000011
 21
-67.223390603301027
 31
0.0
  0
LINE
  8
DETAIL
  6
CONTINUOUS
 62
     5
 10
4.3237401280108543
 20
-69.570875898601003
 30
0.0
 11
5.2500000000001137
 21
-67.223390603301027
 31
0.0
  0
LINE
  8
DETAIL
  6
CONTINUOUS
 62
     5
 10
3.6762598719893731
 20
-69.570875898601003
 30
0.0
 11
2.7500000000001141
 21
-67.223390603301027
 31
0.0
  0
LINE
  8
DETAIL
  6
CONTINUOUS
 62
     5
 10
-83.676259871989146
 20
-69.570875898601003
 30
0.0
 11
-82.749999999999872
 21
-67.223390603301027
 31
0.0
  0
LINE
  8
DETAIL
  6
CONTINUOUS
 62
     5
 10
-76.323740128010627
 20
-69.570875898601003
 30
0.0
 11
-77.249999999999872
 21
-67.223390603301027
 31
0.0
  0
LINE
  8
DETAIL
  6
CONTINUOUS
 62
     5
 10
-75.676259871989146
 20
-69.570875898601003
 30
0.0
 11
-74.749999999999872
 21
-67.223390603301027
 31
0.0
  0
LINE
  8
DETAIL
  6
CONTINUOUS
 62
     5
 10
-68.323740128010641
 20
-69.570875898601003
 30
0.0
 11
-69.249999999999901
 21
-67.223390603301027
 31
0.0
  0
LINE
  8
DETAIL
  6
CONTINUOUS
 62
     5
 10
-67.676259871989146
 20
-69.570875898601003
 30
0.0
 11
-66.749999999999901
 21
-67.223390603301027
 31
0.0
  0
LINE
  8
DETAIL
  6
CONTINUOUS
 62
     5
 10
-60.323740128010627
 20
-69.570875898601003
 30
0.0
 11
-61.249999999999893
 21
-67.223390603301027
 31
0.0
  0
LINE
  8
DETAIL
  6
CONTINUOUS
 62
     5
 10
-59.676259871989153
 20
-69.570875898601003
 30
0.0
 11
-58.749999999999893
 21
-67.223390603301027
 31
0.0
  0
LINE
  8
DETAIL
  6
CONTINUOUS
 62
     5
 10
-52.323740128010627
 20
-69.570875898601003
 30
0.0
 11
-53.249999999999893
 21
-67.223390603301027
 31
0.0
  0
LINE
  8
DETAIL
  6
CONTINUOUS
 62
     5
 10
-51.676259871989153
 20
-69.570875898601003
 30
0.0
 11
-50.749999999999893
 21
-67.223390603301027
 31
0.0
  0
LINE
  8
DETAIL
  6
CONTINUOUS
 62
     5
 10
-44.323740128010627
 20
-69.570875898601003
 30
0.0
 11
-45.249999999999893
 21
-67.223390603301027
 31
0.0
  0
LINE
  8
DETAIL
  6
CONTINUOUS
 62
     5
 10
-43.676259871989153
 20
-69.570875898601003
 30
0.0
 11
-42.749999999999893
 21
-67.223390603301027
 31
0.0
  0
LINE
  8
DETAIL
  6
CONTINUOUS
 62
     5
 10
-36.323740128010627
 20
-69.570875898601003
 30
0.0
 11
-37.249999999999893
 21
-67.223390603301027
 31
0.0
  0
LINE
  8
DETAIL
  6
CONTINUOUS
 62
     5
 10
-35.676259871989153
 20
-69.570875898601003
 30
0.0
 11
-34.749999999999893
 21
-67.223390603301027
 31
0.0
  0
LINE
  8
DETAIL
  6
CONTINUOUS
 62
     5
 10
-28.32374012801063
 20
-69.570875898601003
 30
0.0
 11
-29.24999999999989
 21
-67.223390603301027
 31
0.0
  0
LINE
  8
DETAIL
  6
CONTINUOUS
 62
     5
 10
-27.676259871989149
 20
-69.570875898601003
 30
0.0
 11
-26.74999999999989
 21
-67.223390603301027
 31
0.0
  0
LINE
  8
DETAIL
  6
CONTINUOUS
 62
     5
 10
-20.32374012801063
 20
-69.570875898601003
 30
0.0
 11
-21.24999999999989
 21
-67.223390603301027
 31
0.0
  0
LINE
  8
DETAIL
  6
CONTINUOUS
 62
     5
 10
-19.676259871989149
 20
-69.570875898601003
 30
0.0
 11
-18.74999999999989
 21
-67.223390603301027
 31
0.0
  0
LINE
  8
DETAIL
  6
CONTINUOUS
 62
     5
 10
-12.32374012801063
 20
-69.570875898601003
 30
0.0
 11
-13.24999999999989
 21
-67.223390603301027
 31
0.0
  0
LINE
  8
DETAIL
  6
CONTINUOUS
 62
     5
 10
-11.676259871989149
 20
-69.570875898601003
 30
0.0
 11
-10.74999999999989
 21
-67.223390603301027
 31
0.0
  0
LINE
  8
DETAIL
  6
CONTINUOUS
 62
     5
 10
-4.323740128010626
 20
-69.570875898601003
 30
0.0
 11
-5.2499999999998863
 21
-67.223390603301027
 31
0.0
  0
LINE
  8
DETAIL
  6
CONTINUOUS
 62
     5
 10
-3.6762598719891462
 20
-69.570875898601003
 30
0.0
 11
-2.749999999999885
 21
-67.223390603301027
 31
0.0
  0
ARC
  8
DETAIL
  6
CONTINUOUS
 62
     5
 10
19.093345089350919
 20
39.912033518898497
 30
0.0
 40
37.469258090825718
 50
149.67744110555051
 51
210.32255889445119
  0
ARC
  8
DETAIL
  6
CONTINUOUS
 62
     5
 10
1.3090320311082451
 20
38.798012250181777
 30
0.0
 40
11.60795351646563
 50
296.54870729267412
 51
324.18760933960232
  0
ARC
  8
DETAIL
  6
CONTINUOUS
 62
     5
 10
50.597465645312703
 20
-95.213712434377484
 30
0.0
 40
134.44561799636381
 50
103.70246287605239
 51
106.12826818878951
  0
ARC
  8
DETAIL
  6
CONTINUOUS
 62
     5
 10
26.895254343436822
 20
22.028971576900741
 30
0.0
 40
15.63054255255328
 50
90.532456285426477
 51
111.1719542639558
  0
ARC
  8
DETAIL
  6
CONTINUOUS
 62
     5
 10
29.066433563572229
 20
-15.4766057154701
 30
0.0
 40
53.194942561286332
 50
83.866575792092362
 51
89.788668936330524
  0
ARC
  8
DETAIL
  6
CONTINUOUS
 62
     5
 10
-7.9147761700148749
 20
62.11262647362463
 30
0.0
 40
56.246313225508793
 50
250.4353444757939
 51
256.28537178060918
  0
ARC
  8
DETAIL
  6
CONTINUOUS
 62
     5
 10
-46.40665373535262
 20
-3.1344696979253972
 30
0.0
 40
22.426901208606619
 50
40.092713203674961
 51
58.547996869252337
  0
ARC
  8
DETAIL
  6
CONTINUOUS
 62
     5
 10
384.69307891478371
 20
256.50484215844767
 30
0.0
 40
484.08874250185818
 50
207.99543926067281
 51
209.35215863524769
  0
ARC
  8
DETAIL
  6
CONTINUOUS
 62
     5
 10
-37.51878917408726
 20
22.29318040465084
 30
0.0
 40
48.218219734458359
 50
269.53848152707059
 51
270.31760112796951
  0
ARC
  8
DETAIL
  6
CONTINUOUS
 62
     5
 10
-37.372921429253211
 20
20.328026409008761
 30
0.0
 40
46.248063966419643
 50
273.29907464215398
 51
280.11579289023598
  0
ARC
  8
DETAIL
  6
CONTINUOUS
 62
     5
 10
-36.484047831054681
 20
16.079950859633868
 30
0.0
 40
41.905666814564803
 50
283.43162263331652
 51
291.31726290908767
  0
ARC
  8
DETAIL
  6
CONTINUOUS
 62
     5
 10
-25.489403572652581
 20
-3.9431993130924639
 30
0.0
 40
19.161166080052311
 50
290.59267628412402
 51
309.69948440977652
  0
ARC
  8
DETAIL
  6
CONTINUOUS
 62
     5
 10
-31.986250717225971
 20
8.4115885495156135
 30
0.0
 40
32.92934922843952
 50
310.15843639846781
 51
324.2847025767947
  0
ARC
  8
DETAIL
  6
CONTINUOUS
 62
     5
 10
-0.692613938347904
 20
-6.9614484763818609
 30
0.0
 40
2.075841410732751
 50
104.4325689311857
 51
172.35418189765409
  0
ARC
  8
DETAIL
  6
CONTINUOUS
 62
     5
 10
5.5993864619834994
 20
-12.866111570628391
 30
0.0
 40
8.544768913845127
 50
333.55424507348317
 51
25.876760543139461
  0
ARC
  8
DETAIL
  6
CONTINUOUS
 62
     5
 10
-35.49785985104041
 20
-3.1989447590328841
 30
0.0
 40
51.856794336829061
 50
321.79256911900058
 51
333.10512582556203
  0
ARC
  8
DETAIL
  6
CONTINUOUS
 62
     5
 10
9.0765262669403928
 20
-28.032246953259229
 30
0.0
 40
47.081078455883613
 50
29.474231439179199
 51
39.796469613292757
  0
ARC
  8
DETAIL
  6
CONTINUOUS
 62
     5
 10
13.70189404999701
 20
-23.828145810506161
 30
0.0
 40
40.821158817449927
 50
44.63521552614813
 51
54.769985446111072
  0
ARC
  8
DETAIL
  6
CONTINUOUS
 62
     5
 10
16.311305589534751
 20
-19.839188858963329
 30
0.0
 40
36.048035289161611
 50
59.235974233310728
 51
68.965547602601461
  0
ARC
  8
DETAIL
  6
CONTINUOUS
 62
     5
 10
17.384539718380559
 20
-16.76005004783849
 30
0.0
 40
32.782629343181682
 50
73.400283730299165
 51
83.228395554043388
  0
ARC
  8
DETAIL
  6
CONTINUOUS
 62
     5
 10
17.56872666304719
 20
-14.40387369973303
 30
0.0
 40
30.414590381094889
 50
87.797778203722572
 51
95.684604756746268
  0
ARC
  8
OUTLINE
  6
CONTINUOUS
 62
     3
 10
-103.7929570428
 20
-103.7929570428001
 30
0.0
 40
1.0000000000000151
 50
180.0
 51
270.0
  0
ARC
  8
OUTLINE
  6
CONTINUOUS
 62
     3
 10
103.7929570427996
 20
-103.7929570428001
 30
0.0
 40
1.0000000000000051
 50
270.0
 51
0.0
  0
ARC
  8
OUTLINE
  6
CONTINUOUS
 62
     3
 10
103.7929570427996
 20
103.7929570427999
 30
0.0
 40
1.0000000000000151
 50
0.0
 51
90.0
  0
ARC
  8
OUTLINE
  6
CONTINUOUS
 62
     3
 10
-103.7929570428
 20
103.7929570427999
 30
0.0
 40
1.0000000000000151
 50
90.0
 51
180.0
  0
LINE
  8
OUTLINE
  6
CONTINUOUS
 62
     3
 10
104.39644805579969
 20
-74.700000000000031
 30
0.0
 11
104.39295704279991
 21
-75.500000000000213
 31
0.0
  0
LINE
  8
OUTLINE
  6
CONTINUOUS
 62
     3
 10
104.7929570428
 20
103.7929570427999
 30
0.0
 11
104.7929570428
 21
-74.700000000000031
 31
0.0
  0
LINE
  8
OUTLINE
  6
CONTINUOUS
 62
     3
 10
104.7929570428
 20
-75.500000000000213
 30
0.0
 11
104.7929570428
 21
-103.7929570428001
 31
0.0
  0
LINE
  8
OUTLINE
  6
CONTINUOUS
 62
     3
 10
103.7929570427996
 20
-104.7929570428001
 30
0.0
 11
-103.7929570428
 21
-104.7929570428001
 31
0.0
  0
LINE
  8
OUTLINE
  6
CONTINUOUS
 62
     3
 10
-104.39644805580021
 20
-75.500000000000213
 30
0.0
 11
-104.39295704279991
 21
-74.700000000000031
 31
0.0
  0
LINE
  8
OUTLINE
  6
CONTINUOUS
 62
     3
 10
-104.7929570428005
 20
-103.7929570428001
 30
0.0
 11
-104.7929570428005
 21
-75.500000000000213
 31
0.0
  0
LINE
  8
OUTLINE
  6
CONTINUOUS
 62
     3
 10
-104.7929570428005
 20
-74.700000000000031
 30
0.0
 11
-104.7929570428005
 21
103.7929570427999
 31
0.0
  0
LINE
  8
OUTLINE
  6
CONTINUOUS
 62
     3
 10
-103.7929570428
 20
104.7929570427998
 30
0.0
 11
103.7929570427996
 21
104.7929570427998
 31
0.0
  0
LINE
  8
SIZE
  6
CONTINUOUS
 62
    30
 10
-145.45612470509059
 20
10.00000000000114
 30
0.0
 11
-275.14403586428631
 21
10.00000000000119
 31
0.0
  0
LINE
  8
SIZE
  6
CONTINUOUS
 62
    30
 10
-145.45612470509059
 20
0.0
 30
0.0
 11
-275.14403586428631
 21
0.0000000000000284
 31
0.0
  0
LINE
  8
SIZE
  6
CONTINUOUS
 62
    30
 10
-255.14403586428631
 20
22.00000000000119
 30
0.0
 11
-255.14403586428631
 21
34.000000000001187
 31
0.0
  0
LINE
  8
SIZE
  6
CONTINUOUS
 62
    30
 10
-255.14403586428631
 20
-11.99999999999997
 30
0.0
 11
-255.14403586428631
 21
-156.28571428571419
 31
0.0
  0
LINE
  8
SIZE
  6
CONTINUOUS
 62
    30
 10
-255.14403586428631
 20
10.00000000000119
 30
0.0
 11
-255.14403586428631
 21
0.0000000000000284
 31
0.0
  0
CIRCLE
  8
SIZE
  6
CONTINUOUS
 62
    30
 10
-255.14403586428631
 20
10.00000000000119
 30
0.0
 40
6.0
  0
LINE
  8
SIZE
  6
CONTINUOUS
 62
    30
 10
-255.14403586428631
 20
10.00000000000119
 30
0.0
 11
-255.14403586428631
 21
22.00000000000119
 31
0.0
  0
CIRCLE
  8
SIZE
  6
CONTINUOUS
 62
    30
 10
-255.14403586428631
 20
0.0000000000000284
 30
0.0
 40
6.0
  0
LINE
  8
SIZE
  6
CONTINUOUS
 62
    30
 10
-255.14403586428631
 20
0.0000000000000284
 30
0.0
 11
-255.14403586428631
 21
-11.99999999999997
 31
0.0
  0
TEXT
  8
SIZE
  6
CONTINUOUS
 62
    30
 10
-280.14403586428631
 20
-131.28571428571431
 30
0.0
 40
64.0
  1
10
 50
90.0
 41
0.9
 72
     1
 11
-280.14403586428631
 21
-90.142857142857153
 31
0.0
  0
LINE
  8
SIZE
  6
CONTINUOUS
 62
    30
 10
-123.7929570428
 20
-104.7929570428001
 30
0.0
 11
-166.67239571113899
 21
-104.7929570428001
 31
0.0
  0
LINE
  8
SIZE
  6
CONTINUOUS
 62
    30
 10
-20.0
 20
-109.82618259740011
 30
0.0
 11
-166.67239571113899
 21
-109.82618259740011
 31
0.0
  0
LINE
  8
SIZE
  6
CONTINUOUS
 62
    30
 10
-146.67239571113899
 20
-92.79295704280014
 30
0.0
 11
-146.67239571113899
 21
-80.79295704280014
 31
0.0
  0
LINE
  8
SIZE
  6
CONTINUOUS
 62
    30
 10
-146.67239571113899
 20
-121.82618259740011
 30
0.0
 11
-146.67239571113899
 21
-222.22618259740011
 31
0.0
  0
LINE
  8
SIZE
  6
CONTINUOUS
 62
    30
 10
-146.67239571113899
 20
-104.7929570428001
 30
0.0
 11
-146.67239571113899
 21
-109.82618259740011
 31
0.0
  0
CIRCLE
  8
SIZE
  6
CONTINUOUS
 62
    30
 10
-146.67239571113899
 20
-104.7929570428001
 30
0.0
 40
6.0
  0
LINE
  8
SIZE
  6
CONTINUOUS
 62
    30
 10
-146.67239571113899
 20
-104.7929570428001
 30
0.0
 11
-146.67239571113899
 21
-92.792957042800083
 31
0.0
  0
CIRCLE
  8
SIZE
  6
CONTINUOUS
 62
    30
 10
-146.67239571113899
 20
-109.82618259740011
 30
0.0
 40
6.0
  0
LINE
  8
SIZE
  6
CONTINUOUS
 62
    30
 10
-146.67239571113899
 20
-109.82618259740011
 30
0.0
 11
-146.67239571113899
 21
-121.82618259740011
 31
0.0
  0
TEXT
  8
SIZE
  6
CONTINUOUS
 62
    30
 10
-171.67239571113899
 20
-197.22618259740011
 30
0.0
 40
64.0
  1
5
 50
90.0
 41
0.9
 72
     1
 11
-171.67239571113899
 21
-178.02618259740009
 31
0.0
  0
LINE
  8
DETAIL
  6
CONTINUOUS
 62
     5
 10
93.500000000000043
 20
-102.9929570427998
 30
0.0
 11
91.499999999999943
 21
-102.9929570427998
 31
0.0
  0
LINE
  8
DETAIL
  6
CONTINUOUS
 62
     5
 10
89.500000000000043
 20
-102.9929570427998
 30
0.0
 11
87.499999999999943
 21
-102.9929570427998
 31
0.0
  0
LINE
  8
DETAIL
  6
CONTINUOUS
 62
     5
 10
85.5
 20
-102.9929570427998
 30
0.0
 11
83.500000000000043
 21
-102.9929570427998
 31
0.0
  0
LINE
  8
DETAIL
  6
CONTINUOUS
 62
     5
 10
83.500000000000043
 20
-104.7929570428
 30
0.0
 11
83.500000000000043
 21
-92.0
 31
0.0
  0
ARC
  8
DETAIL
  6
CONTINUOUS
 62
     5
 10
83.999999999999929
 20
-92.0
 30
0.0
 40
0.4999999999999974
 50
90.0
 51
180.0
  0
LINE
  8
DETAIL
  6
CONTINUOUS
 62
     5
 10
85.5
 20
-104.7929570428
 30
0.0
 11
85.5
 21
-92.0
 31
0.0
  0
LINE
  8
DETAIL
  6
CONTINUOUS
 62
     5
 10
83.999999999999929
 20
-91.5
 30
0.0
 11
85.0
 21
-91.5
 31
0.0
  0
ARC
  8
DETAIL
  6
CONTINUOUS
 62
     5
 10
85.0
 20
-92.0
 30
0.0
 40
0.5000000000000076
 50
0.0
 51
90.0
  0
LINE
  8
DETAIL
  6
CONTINUOUS
 62
     5
 10
87.499999999999943
 20
-104.7929570428
 30
0.0
 11
87.499999999999943
 21
-92.0
 31
0.0
  0
ARC
  8
DETAIL
  6
CONTINUOUS
 62
     5
 10
88.0
 20
-92.0
 30
0.0
 40
0.4999999999999974
 50
90.0
 51
180.0
  0
LINE
  8
DETAIL
  6
CONTINUOUS
 62
     5
 10
89.500000000000043
 20
-104.7929570428
 30
0.0
 11
89.500000000000043
 21
-92.0
 31
0.0
  0
LINE
  8
DETAIL
  6
CONTINUOUS
 62
     5
 10
88.0
 20
-91.5
 30
0.0
 11
88.999999999999943
 21
-91.5
 31
0.0
  0
ARC
  8
DETAIL
  6
CONTINUOUS
 62
     5
 10
88.999999999999943
 20
-92.0
 30
0.0
 40
0.5000000000000076
 50
0.0
 51
90.0
  0
LINE
  8
DETAIL
  6
CONTINUOUS
 62
     5
 10
91.499999999999943
 20
-104.7929570428
 30
0.0
 11
91.499999999999943
 21
-92.0
 31
0.0
  0
ARC
  8
DETAIL
  6
CONTINUOUS
 62
     5
 10
92.000000000000043
 20
-92.0
 30
0.0
 40
0.4999999999999974
 50
90.0
 51
180.0
  0
LINE
  8
DETAIL
  6
CONTINUOUS
 62
     5
 10
93.500000000000043
 20
-104.7929570428
 30
0.0
 11
93.500000000000043
 21
-92.0
 31
0.0
  0
LINE
  8
DETAIL
  6
CONTINUOUS
 62
     5
 10
92.000000000000043
 20
-91.5
 30
0.0
 11
93.0
 21
-91.5
 31
0.0
  0
ARC
  8
DETAIL
  6
CONTINUOUS
 62
     5
 10
93.0
 20
-92.0
 30
0.0
 40
0.5000000000000076
 50
0.0
 51
90.0
  0
LINE
  8
DETAIL
  6
CONTINUOUS
 62
     5
 10
102.9929570428
 20
-86.5
 30
0.0
 11
102.9929570428
 21
-88.499999999999545
 31
0.0
  0
LINE
  8
DETAIL
  6
CONTINUOUS
 62
     5
 10
102.9929570428
 20
-82.5
 30
0.0
 11
102.9929570428
 21
-84.5
 31
0.0
  0
LINE
  8
DETAIL
  6
CONTINUOUS
 62
     5
 10
102.9929570428
 20
-78.499999999999545
 30
0.0
 11
102.9929570428
 21
-80.499999999999545
 31
0.0
  0
LINE
  8
DETAIL
  6
CONTINUOUS
 62
     5
 10
102.5000000000001
 20
-78.499999999999545
 30
0.0
 11
104.7929570428001
 21
-78.499999999999545
 31
0.0
  0
ARC
  8
DETAIL
  6
CONTINUOUS
 62
     5
 10
102.5000000000001
 20
-79.0
 30
0.0
 40
0.5000000000000076
 50
90.0
 51
180.0
  0
LINE
  8
DETAIL
  6
CONTINUOUS
 62
     5
 10
102.4999999999999
 20
-80.499999999999545
 30
0.0
 11
104.7929570428001
 21
-80.499999999999545
 31
0.0
  0
LINE
  8
DETAIL
  6
CONTINUOUS
 62
     5
 10
102.0000000000001
 20
-80.0
 30
0.0
 11
102.0000000000001
 21
-79.0
 31
0.0
  0
ARC
  8
DETAIL
  6
CONTINUOUS
 62
     5
 10
102.4999999999999
 20
-80.0
 30
0.0
 40
0.4999999999999724
 50
180.0
 51
270.0
  0
LINE
  8
DETAIL
  6
CONTINUOUS
 62
     5
 10
102.4999999999999
 20
-82.5
 30
0.0
 11
104.7929570428001
 21
-82.5
 31
0.0
  0
ARC
  8
DETAIL
  6
CONTINUOUS
 62
     5
 10
102.4999999999999
 20
-82.999999999999545
 30
0.0
 40
0.4999999999999974
 50
90.0
 51
180.0
  0
LINE
  8
DETAIL
  6
CONTINUOUS
 62
     5
 10
102.4999999999999
 20
-84.5
 30
0.0
 11
104.7929570428001
 21
-84.5
 31
0.0
  0
LINE
  8
DETAIL
  6
CONTINUOUS
 62
     5
 10
102.0000000000001
 20
-84.0
 30
0.0
 11
102.0000000000001
 21
-82.999999999999545
 31
0.0
  0
ARC
  8
DETAIL
  6
CONTINUOUS
 62
     5
 10
102.4999999999999
 20
-84.0
 30
0.0
 40
0.4999999999999724
 50
180.0
 51
270.0
  0
LINE
  8
DETAIL
  6
CONTINUOUS
 62
     5
 10
102.4999999999999
 20
-86.5
 30
0.0
 11
104.7929570428001
 21
-86.5
 31
0.0
  0
ARC
  8
DETAIL
  6
CONTINUOUS
 62
     5
 10
102.4999999999999
 20
-87.0
 30
0.0
 40
0.4999999999999974
 50
90.0
 51
180.0
  0
LINE
  8
DETAIL
  6
CONTINUOUS
 62
     5
 10
102.5000000000001
 20
-88.499999999999545
 30
0.0
 11
104.7929570428001
 21
-88.499999999999545
 31
0.0
  0
LINE
  8
DETAIL
  6
CONTINUOUS
 62
     5
 10
102.0000000000001
 20
-87.999999999999545
 30
0.0
 11
102.0000000000001
 21
-87.0
 31
0.0
  0
ARC
  8
DETAIL
  6
CONTINUOUS
 62
     5
 10
102.5000000000001
 20
-87.999999999999545
 30
0.0
 40
0.5000000000000076
 50
180.0
 51
270.0
  0
LINE
  8
DETAIL
  6
CONTINUOUS
 62
     5
 10
84.300000000000026
 20
-97.0
 30
0.0
 11
84.300000000000026
 21
-91.5
 31
0.0
  0
LINE
  8
DETAIL
  6
CONTINUOUS
 62
     5
 10
93.500000000000043
 20
-97.0
 30
0.0
 11
91.499999999999943
 21
-97.0
 31
0.0
  0
LINE
  8
DETAIL
  6
CONTINUOUS
 62
     5
 10
89.500000000000043
 20
-97.0
 30
0.0
 11
87.499999999999943
 21
-97.0
 31
0.0
  0
LINE
  8
DETAIL
  6
CONTINUOUS
 62
     5
 10
85.5
 20
-97.0
 30
0.0
 11
84.300000000000026
 21
-97.0
 31
0.0
  0
LINE
  8
DETAIL
  6
CONTINUOUS
 62
     5
 10
40.170455937499973
 20
-87.426880499999697
 30
0.0
 11
40.170455937499973
 21
-93.415022999999564
 31
0.0
  0
LINE
  8
DETAIL
  6
CONTINUOUS
 62
     5
 10
43.663539062499979
 20
-87.426880499999697
 30
0.0
 11
43.663539062499979
 21
-93.415022999999564
 31
0.0
  0
LINE
  8
DETAIL
  6
CONTINUOUS
 62
     5
 10
43.663539062499979
 20
-87.426880499999697
 30
0.0
 11
40.170455937499973
 21
-87.426880499999697
 31
0.0
  0
LINE
  8
DETAIL
  6
CONTINUOUS
 62
     5
 10
43.663539062499979
 20
-93.415022999999564
 30
0.0
 11
40.170455937499973
 21
-93.415022999999564
 31
0.0
  0
LINE
  8
OUTLINE
  6
CONTINUOUS
 62
     3
 10
11.52618259740029
 20
-109.82618259740011
 30
0.0
 11
-11.52618259739984
 21
-109.82618259740011
 31
0.0
  0
LINE
  8
OUTLINE
  6
CONTINUOUS
 62
     3
 10
-12.52618259740029
 20
-108.8263349023001
 30
0.0
 11
-12.526182650375629
 21
-104.7929570428001
 31
0.0
  0
LINE
  8
OUTLINE
  6
CONTINUOUS
 62
     3
 10
12.526182650058219
 20
-104.7929570428001
 30
0.0
 11
12.52618259739984
 21
-108.8263349023001
 31
0.0
  0
ARC
  8
OUTLINE
  6
CONTINUOUS
 62
     3
 10
-11.52618259739984
 20
-108.82618259740021
 30
0.0
 40
1.0000000000000151
 50
180.00000003250051
 51
270.0
  0
ARC
  8
OUTLINE
  6
CONTINUOUS
 62
     3
 10
11.52613921299962
 20
-108.8261392130001
 30
0.0
 40
1.000045264000017
 50
270.0112101045994
 51
359.98878992410027
  0
ENDSEC
  0
EOF
