  0
SECTION
  2
HEADER
  9
$ACADVER
  1
AC1009
  9
$INSBASE
 10
0.0
 20
0.0
 30
0.0
  9
$EXTMIN
 10
-956.67570404088656
 20
-423.61449022266783
 30
-0.0015257624927045
  9
$EXTMAX
 10
498.95783566049789
 20
323.31848915587028
 30
50.001525995323327
  9
$LIMMIN
 10
-2970.0
 20
-2100.0
  9
$LIMMAX
 10
2970.0
 20
2100.0
  9
$ORTHOMODE
 70
     0
  9
$REGENMODE
 70
     1
  9
$FILLMODE
 70
     1
  9
$QTEXTMODE
 70
     0
  9
$MIRRTEXT
 70
     0
  9
$DRAGMODE
 70
     2
  9
$LTSCALE
 40
20.0
  9
$OSMODE
 70
    47
  9
$ATTMODE
 70
     1
  9
$TEXTSIZE
 40
64.0
  9
$TRACEWID
 40
0.05
  9
$TEXTSTYLE
  7
STANDARD
  9
$CLAYER
  8
SIZE
  9
$CELTYPE
  6
CONTINUOUS
  9
$CECOLOR
 62
    30
  9
$DIMSCALE
 40
1.0
  9
$DIMASZ
 40
40.0
  9
$DIMEXO
 40
20.0
  9
$DIMDLI
 40
200.0
  9
$DIMRND
 40
0.0
  9
$DIMDLE
 40
0.0
  9
$DIMEXE
 40
20.0
  9
$DIMTP
 40
0.0
  9
$DIMTM
 40
0.0
  9
$DIMTXT
 40
64.0
  9
$DIMCEN
 40
0.09
  9
$DIMTSZ
 40
0.0
  9
$DIMTOL
 70
     0
  9
$DIMLIM
 70
     0
  9
$DIMTIH
 70
     0
  9
$DIMTOH
 70
     0
  9
$DIMSE1
 70
     0
  9
$DIMSE2
 70
     0
  9
$DIMTAD
 70
     1
  9
$DIMZIN
 70
     8
  9
$DIMBLK
  1
NONE
  9
$DIMASO
 70
     1
  9
$DIMSHO
 70
     0
  9
$DIMPOST
  1

  9
$DIMAPOST
  1

  9
$DIMALT
 70
     0
  9
$DIMALTD
 70
     2
  9
$DIMALTF
 40
25.399999999999999
  9
$DIMLFAC
 40
1.0
  9
$DIMTOFL
 70
     1
  9
$DIMTVP
 40
0.0
  9
$DIMTIX
 70
     1
  9
$DIMSOXD
 70
     0
  9
$DIMSAH
 70
     0
  9
$DIMBLK1
  1
NONE
  9
$DIMBLK2
  1
ORIGIN
  9
$DIMSTYLE
  2
STANDARD
  9
$DIMCLRD
 70
   256
  9
$DIMCLRE
 70
   256
  9
$DIMCLRT
 70
   256
  9
$DIMTFAC
 40
1.0
  9
$DIMGAP
 40
25.0
  9
$LUNITS
 70
     2
  9
$LUPREC
 70
     4
  9
$SKETCHINC
 40
0.1
  9
$FILLETRAD
 40
5.0
  9
$AUNITS
 70
     1
  9
$AUPREC
 70
     3
  9
$MENU
  1
ACAD
  9
$ELEVATION
 40
0.0
  9
$PELEVATION
 40
0.0
  9
$THICKNESS
 40
50.0
  9
$LIMCHECK
 70
     0
  9
$BLIPMODE
 70
     0
  9
$CHAMFERA
 40
0.0
  9
$CHAMFERB
 40
0.0
  9
$SKPOLY
 70
     0
  9
$TDCREATE
 40
2453019.6230103709
  9
$TDUPDATE
 40
2455068.6054432872
  9
$TDINDWG
 40
0.4281234375
  9
$TDUSRTIMER
 40
0.4281232639
  9
$USRTIMER
 70
     1
  9
$ANGBASE
 50
0.0
  9
$ANGDIR
 70
     0
  9
$PDMODE
 70
     3
  9
$PDSIZE
 40
-2.0
  9
$PLINEWID
 40
0.0
  9
$COORDS
 70
     0
  9
$SPLFRAME
 70
     0
  9
$SPLINETYPE
 70
     6
  9
$SPLINESEGS
 70
     8
  9
$ATTDIA
 70
     0
  9
$ATTREQ
 70
     1
  9
$HANDLING
 70
     1
  9
$HANDSEED
  5
4C3
  9
$SURFTAB1
 70
     6
  9
$SURFTAB2
 70
     6
  9
$SURFTYPE
 70
     6
  9
$SURFU
 70
     6
  9
$SURFV
 70
     6
  9
$UCSNAME
  2

  9
$UCSORG
 10
0.0
 20
0.0
 30
0.0
  9
$UCSXDIR
 10
1.0
 20
0.0
 30
0.0
  9
$UCSYDIR
 10
0.0
 20
1.0
 30
0.0
  9
$PUCSNAME
  2

  9
$PUCSORG
 10
0.0
 20
0.0
 30
0.0
  9
$PUCSXDIR
 10
1.0
 20
0.0
 30
0.0
  9
$PUCSYDIR
 10
0.0
 20
1.0
 30
0.0
  9
$USERI1
 70
     0
  9
$USERI2
 70
     0
  9
$USERI3
 70
     0
  9
$USERI4
 70
     0
  9
$USERI5
 70
     0
  9
$USERR1
 40
20.0
  9
$USERR2
 40
0.0
  9
$USERR3
 40
0.0
  9
$USERR4
 40
0.0
  9
$USERR5
 40
0.0
  9
$WORLDVIEW
 70
     1
  9
$SHADEDGE
 70
     3
  9
$SHADEDIF
 70
    70
  9
$TILEMODE
 70
     1
  9
$MAXACTVP
 70
    48
  9
$PLIMCHECK
 70
     0
  9
$PEXTMIN
 10
-1.0000000000000000E+020
 20
-1.0000000000000000E+020
 30
-1.0000000000000000E+020
  9
$PEXTMAX
 10
1.0000000000000000E+020
 20
1.0000000000000000E+020
 30
1.0000000000000000E+020
  9
$PLIMMIN
 10
0.0
 20
0.0
  9
$PLIMMAX
 10
12.0
 20
9.0
  9
$UNITMODE
 70
     0
  9
$VISRETAIN
 70
     0
  9
$PLINEGEN
 70
     0
  9
$PSLTSCALE
 70
     0
  0
ENDSEC
  0
SECTION
  2
TABLES
  0
TABLE
  2
VPORT
 70
     1
  0
VPORT
  2
*ACTIVE
 70
     0
 10
0.0
 20
0.0
 11
1.0
 21
1.0
 12
-179.3821278628937
 22
-95.02252647393243
 13
0.0
 23
0.0
 14
1.0
 24
1.0
 15
0.0
 25
0.0
 16
0.0
 26
0.0
 36
1.0
 17
0.0
 27
0.0
 37
0.0
 40
1333.362379452677
 41
1.2318059299191371
 42
50.0
 43
0.0
 44
0.0
 50
0.0
 51
0.0
 71
     0
 72
  1000
 73
     1
 74
     0
 75
     0
 76
     0
 77
     0
 78
     0
  0
ENDTAB
  0
TABLE
  2
LTYPE
 70
     2
  0
LTYPE
  2
CONTINUOUS
 70
     0
  3
実線
 72
    65
 73
     0
 40
0.0
  0
LTYPE
  2
DASHDOT
 70
     0
  3
____ _ ____ _ ____ _ ____ _ ____ _ ____ _ ____
 72
    65
 73
     4
 40
5.5
 49
4.0
 49
-0.6
 49
0.3
 49
-0.6
  0
ENDTAB
  0
TABLE
  2
LAYER
 70
    12
  0
LAYER
  2
0
 70
     0
 62
     7
  6
CONTINUOUS
  0
LAYER
  2
SIZE
 70
     0
 62
    30
  6
CONTINUOUS
  0
LAYER
  2
ARRANGE
 70
     0
 62
     1
  6
CONTINUOUS
  0
LAYER
  2
BASIS
 70
     0
 62
     6
  6
DASHDOT
  0
LAYER
  2
OUTLINE
 70
     0
 62
     3
  6
CONTINUOUS
  0
LAYER
  2
DETAIL
 70
     0
 62
     5
  6
CONTINUOUS
  0
LAYER
  2
DEFPOINTS
 70
     0
 62
     7
  6
CONTINUOUS
  0
LAYER
  2
ETC
 70
     0
 62
    61
  6
CONTINUOUS
  0
LAYER
  2
FIX
 70
     0
 62
    11
  6
CONTINUOUS
  0
LAYER
  2
NOTE
 70
     0
 62
     4
  6
CONTINUOUS
  0
LAYER
  2
SERVICESPACE
 70
     0
 62
     2
  6
DASHDOT
  0
LAYER
  2
SYMBOLLINE
 70
     0
 62
    15
  6
CONTINUOUS
  0
ENDTAB
  0
TABLE
  2
STYLE
 70
     2
  0
STYLE
  2
STANDARD
 70
     0
 40
64.0
 41
0.9
 50
0.0
 71
     0
 42
64.0
  3
SIMPLEX.shx
  4
BIGFONT.shx
  0
STYLE
  2
ANNOTATIVE
 70
     0
 40
0.0
 41
1.0
 50
0.0
 71
     0
 42
0.2
  3
txt
  4

  0
ENDTAB
  0
TABLE
  2
VIEW
 70
     1
  0
VIEW
  2
ALL
 70
     0
 40
4282.6198079999967
 10
0.0
 20
41.309903999999989
 41
5940.0
 11
0.0
 21
0.0
 31
1.0
 12
0.0
 22
0.0
 32
0.0
 42
50.0
 43
0.0
 44
0.0
 50
0.0
 71
     0
  0
ENDTAB
  0
TABLE
  2
UCS
 70
     0
  0
ENDTAB
  0
TABLE
  2
APPID
 70
     4
  0
APPID
  2
ACAD
 70
     0
  0
APPID
  2
ACADANNOTATIVE
 70
     0
  0
APPID
  2
ACAD_MLEADERVER
 70
     0
  0
APPID
  2
AUTOCAD_POSTSCRIPT_FIGURE
 70
     0
  0
ENDTAB
  0
TABLE
  2
DIMSTYLE
 70
     2
  0
DIMSTYLE
  2
STANDARD
 70
     0
  3

  4

  5

  6

  7

 40
1.0
 41
0.18
 42
0.0625
 43
0.38
 44
0.18
 45
0.0
 46
0.0
 47
0.0
 48
0.0
140
0.18
141
0.09
142
0.0
143
25.399999999999999
144
1.0
145
0.0
146
1.0
147
0.09
 71
     0
 72
     0
 73
     1
 74
     1
 75
     0
 76
     0
 77
     0
 78
     0
170
     0
171
     2
172
     0
173
     0
174
     0
175
     0
176
     7
177
     7
178
     7
  0
DIMSTYLE
  2
ANNOTATIVE
 70
     0
  3

  4

  5

  6

  7

 40
1.0
 41
0.18
 42
0.0625
 43
0.38
 44
0.18
 45
0.0
 46
0.0
 47
0.0
 48
0.0
140
0.18
141
0.09
142
0.0
143
25.399999999999999
144
1.0
145
0.0
146
1.0
147
0.09
 71
     0
 72
     0
 73
     1
 74
     1
 75
     0
 76
     0
 77
     0
 78
     0
170
     0
171
     2
172
     0
173
     0
174
     0
175
     0
176
     0
177
     0
178
     0
  0
ENDTAB
  0
ENDSEC
  0
SECTION
  2
BLOCKS
  0
BLOCK
  8
0
  2
$MODEL_SPACE
 70
     0
 10
0.0
 20
0.0
 30
0.0
  3
$MODEL_SPACE
  1

  0
ENDBLK
  5
469
  8
0
  0
BLOCK
 67
     1
  8
0
  2
$PAPER_SPACE
 70
     0
 10
0.0
 20
0.0
 30
0.0
  3
$PAPER_SPACE
  1

  0
ENDBLK
  5
465
 67
     1
  8
0
  0
BLOCK
  8
0
  2
DOT1
 70
     0
 10
0.0
 20
0.0
 30
0.0
  3
DOT1
  1

  0
CIRCLE
  5
305
  8
SIZE
  6
CONTINUOUS
 62
     7
 10
0.0
 20
0.0
 30
0.0
 40
3.0
  0
ENDBLK
  5
306
  8
0
  0
BLOCK
  8
0
  2
_ORIGIN
 70
     0
 10
0.0
 20
0.0
 30
0.0
  3
_ORIGIN
  1

  0
CIRCLE
  5
309
  8
0
  6
CONTINUOUS
 62
     7
 10
0.0
 20
0.0
 30
0.0
 40
0.5
  0
LINE
  5
30A
  8
0
  6
CONTINUOUS
 62
     7
 10
0.0
 20
0.0
 30
0.0
 11
-1.0
 21
0.0
 31
0.0
  0
ENDBLK
  5
30B
  8
0
  0
BLOCK
  8
0
 62
     7
  2
_NONE
 70
     0
 10
0.0
 20
0.0
 30
0.0
  3
_NONE
  1

  0
ENDBLK
  5
30E
  8
0
 62
     7
  0
BLOCK
  8
0
 62
     7
  2
_OPEN30
 70
     0
 10
0.0
 20
0.0
 30
0.0
  3
_OPEN30
  1

  0
LINE
  5
311
  8
0
  6
BYBLOCK
 62
     0
 10
-1.0
 20
0.26794919
 30
0.0
 11
0.0
 21
0.0
 31
0.0
  0
LINE
  5
312
  8
0
  6
BYBLOCK
 62
     0
 10
0.0
 20
0.0
 30
0.0
 11
-1.0
 21
-0.26794919
 31
0.0
  0
LINE
  5
313
  8
0
  6
BYBLOCK
 62
     0
 10
0.0
 20
0.0
 30
0.0
 11
-1.0
 21
0.0
 31
0.0
  0
ENDBLK
  5
314
  8
0
 62
     7
  0
BLOCK
  8
0
 62
    30
  2
*D6
 70
     1
 10
0.0
 20
0.0
 30
0.0
  3
*D6
  1

  0
LINE
  5
317
  8
SIZE
  6
CONTINUOUS
 10
41.972769999999983
 20
104.9999999999997
 30
0.0
 11
251.77311290953091
 21
104.9999999999997
 31
0.0
  0
LINE
  5
318
  8
SIZE
  6
CONTINUOUS
 10
35.0
 20
-105.0
 30
0.0
 11
251.77311290953091
 21
-105.0
 31
0.0
  0
LINE
  5
319
  8
SIZE
  6
CONTINUOUS
 10
231.77311290953079
 20
104.9999999999997
 30
0.0
 11
231.77311290953079
 21
-105.0
 31
0.0
  0
TEXT
  5
31A
  8
SIZE
  6
CONTINUOUS
 10
206.77311290953079
 20
-68.571428571428569
 30
0.0
 40
64.0
  1
210
 50
90.0
 41
0.9
  0
POINT
  5
31B
  8
DEFPOINTS
  6
CONTINUOUS
 62
     0
 10
21.972770000000001
 20
105.0
 30
0.0
  0
POINT
  5
31C
  8
DEFPOINTS
  6
CONTINUOUS
 62
     0
 10
15.0
 20
-105.0
 30
0.0
  0
POINT
  5
31D
  8
DEFPOINTS
  6
CONTINUOUS
 62
     0
 10
231.77311290953079
 20
-105.0
 30
0.0
  0
ENDBLK
  5
31E
  8
0
 62
    30
  0
ENDSEC
  0
SECTION
  2
ENTITIES
  0
LINE
  5
31F
  8
BASIS
  6
DASHDOT
 62
     6
 39
50.0
 10
90.887010000000004
 20
0.0
 30
0.0
 11
-152.08586199999999
 21
0.0
 31
0.0
  0
CIRCLE
  5
320
  8
ARRANGE
  6
CONTINUOUS
 62
     1
 39
50.0
 10
0.0
 20
0.0
 30
0.0
 40
40.0
  0
LINE
  5
321
  8
DETAIL
  6
CONTINUOUS
 62
     5
 39
50.0
 10
0.0
 20
105.0
 30
0.0
 11
0.0
 21
-105.0
 31
0.0
  0
LINE
  5
322
  8
DETAIL
  6
CONTINUOUS
 62
     5
 39
50.0
 10
0.0
 20
-70.0
 30
0.0
 11
-60.0
 21
-70.0
 31
0.0
  0
LINE
  5
323
  8
DETAIL
  6
CONTINUOUS
 62
     5
 39
50.0
 10
-60.0
 20
-70.0
 30
0.0
 11
-60.0
 21
35.0
 31
0.0
  0
LINE
  5
324
  8
DETAIL
  6
CONTINUOUS
 62
     5
 39
50.0
 10
-60.0
 20
70.0
 30
0.0
 11
0.0
 21
70.0
 31
0.0
  0
LINE
  5
325
  8
DETAIL
  6
CONTINUOUS
 62
     5
 39
50.0
 10
-60.0
 20
31.5
 30
0.0
 11
-67.0
 21
31.5
 31
0.0
  0
LINE
  5
326
  8
DETAIL
  6
CONTINUOUS
 62
     5
 39
50.0
 10
-72.0
 20
26.5
 30
0.0
 11
-72.0
 21
-26.5
 31
0.0
  0
LINE
  5
327
  8
DETAIL
  6
CONTINUOUS
 62
     5
 39
50.0
 10
-67.0
 20
-31.5
 30
0.0
 11
-60.0
 21
-31.5
 31
0.0
  0
ARC
  5
328
  8
DETAIL
  6
CONTINUOUS
 62
     5
 39
50.0
 10
-67.0
 20
26.5
 30
0.0
 40
5.0
 50
90.0
 51
180.0
  0
ARC
  5
329
  8
DETAIL
  6
CONTINUOUS
 62
     5
 39
50.0
 10
-67.0
 20
-26.5
 30
0.0
 40
5.0
 50
180.0
 51
270.0
  0
LINE
  5
32A
  8
DETAIL
  6
CONTINUOUS
 62
     5
 39
50.0
 10
-60.0
 20
65.0
 30
0.0
 11
0.0
 21
65.0
 31
0.0
  0
LINE
  5
32B
  8
DETAIL
  6
CONTINUOUS
 62
     5
 39
50.0
 10
-60.0
 20
35.0
 30
0.0
 11
-48.0
 21
35.0
 31
0.0
  0
LINE
  5
32C
  8
DETAIL
  6
CONTINUOUS
 62
     5
 39
50.0
 10
-31.258268000000001
 20
37.952019
 30
0.0
 11
-31.258268000000001
 21
46.952018999999993
 31
0.0
  0
LINE
  5
32D
  8
DETAIL
  6
CONTINUOUS
 62
     5
 39
50.0
 10
-48.0
 20
35.0
 30
0.0
 11
-31.258268000000001
 21
37.952019
 31
0.0
  0
LINE
  5
32E
  8
DETAIL
  6
CONTINUOUS
 62
     5
 39
50.0
 10
-48.0
 20
43.978225999999999
 30
0.0
 11
-31.258268000000001
 21
46.930244999999992
 31
0.0
  0
LINE
  5
32F
  8
DETAIL
  6
CONTINUOUS
 62
     5
 39
50.0
 10
-48.0
 20
43.978225999999999
 30
0.0
 11
-60.0
 21
43.978225999999999
 31
0.0
  0
LINE
  5
330
  8
DETAIL
  6
CONTINUOUS
 62
     5
 39
50.0
 10
-48.0
 20
43.978225999999999
 30
0.0
 11
-48.0
 21
35.0
 31
0.0
  0
LINE
  5
331
  8
DETAIL
  6
CONTINUOUS
 62
     5
 39
50.0
 10
-58.0
 20
43.978225999999999
 30
0.0
 11
-58.0
 21
35.0
 31
0.0
  0
LINE
  5
332
  8
DETAIL
  6
CONTINUOUS
 62
     5
 39
50.0
 10
-60.0
 20
43.978225999999999
 30
0.0
 11
-60.0
 21
70.0
 31
0.0
  0
LINE
  5
333
  8
OUTLINE
  6
CONTINUOUS
 62
     3
 39
50.0
 10
0.0
 20
105.0
 30
0.0
 11
0.0
 21
-105.0
 31
0.0
  0
LINE
  5
334
  8
OUTLINE
  6
CONTINUOUS
 62
     3
 39
50.0
 10
0.0
 20
-70.0
 30
0.0
 11
-60.0
 21
-70.0
 31
0.0
  0
LINE
  5
335
  8
OUTLINE
  6
CONTINUOUS
 62
     3
 39
50.0
 10
-60.0
 20
-70.0
 30
0.0
 11
-60.0
 21
35.0
 31
0.0
  0
LINE
  5
336
  8
OUTLINE
  6
CONTINUOUS
 62
     3
 39
50.0
 10
-72.0
 20
26.5
 30
0.0
 11
-72.0
 21
-26.5
 31
0.0
  0
ARC
  5
337
  8
OUTLINE
  6
CONTINUOUS
 62
     3
 39
50.0
 10
-67.0
 20
-26.5
 30
0.0
 40
5.0
 50
180.0
 51
270.0
  0
LINE
  5
338
  8
OUTLINE
  6
CONTINUOUS
 62
     3
 39
50.0
 10
-67.0
 20
-31.5
 30
0.0
 11
-60.0
 21
-31.5
 31
0.0
  0
ARC
  5
339
  8
OUTLINE
  6
CONTINUOUS
 62
     3
 39
50.0
 10
-67.0
 20
26.5
 30
0.0
 40
5.0
 50
90.0
 51
180.0
  0
LINE
  5
33A
  8
OUTLINE
  6
CONTINUOUS
 62
     3
 39
50.0
 10
-60.0
 20
31.5
 30
0.0
 11
-67.0
 21
31.5
 31
0.0
  0
LINE
  5
33B
  8
OUTLINE
  6
CONTINUOUS
 62
     3
 39
50.0
 10
-60.0
 20
70.0
 30
0.0
 11
0.0
 21
70.0
 31
0.0
  0
LINE
  5
33C
  8
OUTLINE
  6
CONTINUOUS
 62
     3
 39
50.0
 10
-60.0
 20
43.978225999999999
 30
0.0
 11
-60.0
 21
70.0
 31
0.0
  0
LINE
  5
33D
  8
OUTLINE
  6
CONTINUOUS
 62
     3
 39
50.0
 10
-48.0
 20
43.978225999999999
 30
0.0
 11
-31.258268000000001
 21
46.930244999999992
 31
0.0
  0
LINE
  5
33E
  8
OUTLINE
  6
CONTINUOUS
 62
     3
 39
50.0
 10
-31.258268000000001
 20
37.952019
 30
0.0
 11
-31.258268000000001
 21
46.952018999999993
 31
0.0
  0
LINE
  5
33F
  8
OUTLINE
  6
CONTINUOUS
 62
     3
 39
50.0
 10
-48.0
 20
35.0
 30
0.0
 11
-31.258268000000001
 21
37.952019
 31
0.0
  0
LINE
  5
340
  8
OUTLINE
  6
CONTINUOUS
 62
     3
 39
50.0
 10
-48.0
 20
43.978225999999999
 30
0.0
 11
-60.0
 21
43.978225999999999
 31
0.0
  0
LINE
  5
341
  8
OUTLINE
  6
CONTINUOUS
 62
     3
 39
50.0
 10
-60.0
 20
35.0
 30
0.0
 11
-48.0
 21
35.0
 31
0.0
  0
ARC
  5
342
  8
FIX
  6
CONTINUOUS
 62
    11
 39
50.0
 10
0.0
 20
0.0
 30
0.0
 40
2.0
 50
180.0
 51
0.0
  0
ARC
  5
343
  8
FIX
  6
CONTINUOUS
 62
    11
 39
50.0
 10
0.0
 20
6.0
 30
0.0
 40
2.0
 50
0.0
 51
180.0
  0
LINE
  5
344
  8
FIX
  6
CONTINUOUS
 62
    11
 39
50.0
 10
-2.0
 20
6.0
 30
0.0
 11
-2.0
 21
0.0
 31
0.0
  0
LINE
  5
345
  8
FIX
  6
CONTINUOUS
 62
    11
 39
50.0
 10
2.0
 20
6.0
 30
0.0
 11
2.0
 21
0.0
 31
0.0
  0
LINE
  5
346
  8
NOTE
  6
CONTINUOUS
 62
     4
 10
0.0
 20
-20.0
 30
0.0
 11
0.0
 21
20.0
 31
0.0
  0
LINE
  5
347
  8
NOTE
  6
CONTINUOUS
 62
     4
 10
20.0
 20
0.0
 30
0.0
 11
-20.0
 21
0.0
 31
0.0
  0
LINE
  5
348
  8
NOTE
  6
CONTINUOUS
 62
     4
 39
50.0
 10
0.0
 20
0.0
 30
0.0
 11
0.0
 21
6.0
 31
0.0
  0
LINE
  5
349
  8
NOTE
  6
CONTINUOUS
 62
     4
 10
0.0
 20
-14.0
 30
0.0
 11
0.0
 21
26.0
 31
0.0
  0
LINE
  5
34A
  8
NOTE
  6
CONTINUOUS
 62
     4
 10
20.0
 20
6.0
 30
0.0
 11
-20.0
 21
6.0
 31
0.0
  0
LINE
  5
34B
  8
SIZE
  6
CONTINUOUS
 62
    30
 10
-80.0
 20
-70.0
 30
0.0
 11
-435.75378627742742
 21
-70.0
 31
0.0
  0
LINE
  5
34C
  8
SIZE
  6
CONTINUOUS
 62
    30
 10
-80.0
 20
70.0
 30
0.0
 11
-435.75378627742742
 21
70.0
 31
0.0
  0
LINE
  5
34D
  8
SIZE
  6
CONTINUOUS
 62
    30
 10
-415.95455549852682
 20
58.0
 30
0.0
 11
-415.95455549852682
 21
-58.0
 31
0.0
  0
LINE
  5
34E
  8
SIZE
  6
CONTINUOUS
 62
    30
 10
-415.95455549852682
 20
-70.0
 30
0.0
 11
-415.95455549852682
 21
-333.44971499999991
 31
0.0
  0
CIRCLE
  5
34F
  8
SIZE
  6
CONTINUOUS
 62
    30
 10
-415.95455549852682
 20
70.0
 30
0.0
 40
6.0
  0
LINE
  5
350
  8
SIZE
  6
CONTINUOUS
 62
    30
 10
-415.95455549852682
 20
70.0
 30
0.0
 11
-415.95455549852682
 21
58.0
 31
0.0
  0
CIRCLE
  5
351
  8
SIZE
  6
CONTINUOUS
 62
    30
 10
-415.95455549852682
 20
-70.0
 30
0.0
 40
6.0
  0
LINE
  5
352
  8
SIZE
  6
CONTINUOUS
 62
    30
 10
-415.95455549852682
 20
-70.0
 30
0.0
 11
-415.95455549852682
 21
-58.0
 31
0.0
  0
TEXT
  5
353
  8
SIZE
  6
CONTINUOUS
 62
    30
 10
-440.95455549852682
 20
-322.71257157142861
 30
0.0
 40
64.0
  1
φ140
 50
90.0
 41
0.9
 72
     1
 11
-440.95455549852682
 21
-213.82114300000001
 31
0.0
  0
LINE
  5
354
  8
SIZE
  6
CONTINUOUS
 62
    30
 10
-60.0
 20
-90.0
 30
0.0
 11
-60.0
 21
-287.69143114784561
 31
0.0
  0
LINE
  5
355
  8
SIZE
  6
CONTINUOUS
 62
    30
 10
-72.0
 20
-269.6242369621616
 30
0.0
 11
-230.38443940866941
 21
-269.6242369621616
 31
0.0
  0
LINE
  5
356
  8
SIZE
  6
CONTINUOUS
 62
    30
 10
0.0
 20
-269.6242369621616
 30
0.0
 11
-60.0
 21
-269.6242369621616
 31
0.0
  0
CIRCLE
  5
357
  8
SIZE
  6
CONTINUOUS
 62
    30
 10
0.0
 20
-269.6242369621616
 30
0.0
 40
6.0
  0
CIRCLE
  5
358
  8
SIZE
  6
CONTINUOUS
 62
    30
 10
-60.0
 20
-269.6242369621616
 30
0.0
 40
6.0
  0
LINE
  5
359
  8
SIZE
  6
CONTINUOUS
 62
    30
 10
-60.0
 20
-269.6242369621616
 30
0.0
 11
-72.0
 21
-269.6242369621616
 31
0.0
  0
TEXT
  5
35A
  8
SIZE
  6
CONTINUOUS
 62
    30
 10
-212.95916283735991
 20
-244.6242369621616
 30
0.0
 40
64.0
  1
60
 41
0.9
 72
     1
 11
-166.33059140878851
 21
-244.6242369621616
 31
0.0
  0
LINE
  5
35B
  8
SIZE
  6
CONTINUOUS
 62
    30
 10
0.0
 20
-125.0
 30
0.0
 11
0.0
 21
-419.5704144873809
 31
0.0
  0
LINE
  5
35C
  8
SIZE
  6
CONTINUOUS
 62
    30
 10
-72.0
 20
-46.5
 30
0.0
 11
-72.0
 21
-422.05869576883509
 31
0.0
  0
LINE
  5
35D
  8
SIZE
  6
CONTINUOUS
 62
    30
 10
-12.0
 20
-403.39539096216117
 30
0.0
 11
-65.0
 21
-403.39539096216117
 31
0.0
  0
LINE
  5
35E
  8
SIZE
  6
CONTINUOUS
 62
    30
 10
-72.0
 20
-403.39539096216117
 30
0.0
 11
-226.65045035274881
 21
-403.39539096216117
 31
0.0
  0
CIRCLE
  5
35F
  8
SIZE
  6
CONTINUOUS
 62
    30
 10
0.0
 20
-403.39539096216117
 30
0.0
 40
6.0
  0
LINE
  5
360
  8
SIZE
  6
CONTINUOUS
 62
    30
 10
0.0
 20
-403.39539096216117
 30
0.0
 11
-12.0
 21
-403.39539096216117
 31
0.0
  0
CIRCLE
  5
361
  8
SIZE
  6
CONTINUOUS
 62
    30
 10
-72.0
 20
-403.39539096216117
 30
0.0
 40
6.0
  0
LINE
  5
362
  8
SIZE
  6
CONTINUOUS
 62
    30
 10
-72.0
 20
-403.39539096216117
 30
0.0
 11
-60.0
 21
-403.39539096216117
 31
0.0
  0
TEXT
  5
363
  8
SIZE
  6
CONTINUOUS
 62
    30
 10
-217.93781377399031
 20
-378.39539096216117
 30
0.0
 40
64.0
  1
72
 41
0.9
 72
     1
 11
-171.30924234541891
 21
-378.39539096216117
 31
0.0
  0
TEXT
  5
364
  8
NOTE
  6
CONTINUOUS
 62
     4
 10
-949.83296399999995
 20
131.20128099999991
 30
0.0
 40
64.0
  1
2ヶ所×4×10取付用長穴
 41
0.9
  0
LINE
  5
365
  8
NOTE
  6
CONTINUOUS
 62
     4
 39
50.0
 10
0.0
 20
6.0
 30
0.0
 11
-125.454346
 21
116.80816899999991
 31
0.0
  0
LINE
  5
366
  8
NOTE
  6
CONTINUOUS
 62
     4
 39
50.0
 10
-125.454346
 20
116.80816899999991
 30
0.0
 11
-956.37026000000003
 21
116.80816899999991
 31
0.0
  0
LINE
  5
367
  8
NOTE
  6
CONTINUOUS
 62
     4
 10
-21.751380000000001
 20
39.568995999999991
 30
0.0
 11
0.0
 21
6.0
 31
0.0
  0
LINE
  5
368
  8
NOTE
  6
CONTINUOUS
 62
     4
 10
0.0
 20
6.0
 30
0.0
 11
-35.621746000000002
 21
24.195913000000001
 31
0.0
  0
LINE
  5
369
  8
SIZE
  6
CONTINUOUS
 62
    30
 10
-40.0
 20
6.0
 30
0.0
 11
-225.542914
 21
6.0
 31
0.0
  0
LINE
  5
36A
  8
SIZE
  6
CONTINUOUS
 62
    30
 10
-20.0
 20
0.0
 30
0.0
 11
-225.542914
 21
0.0
 31
0.0
  0
LINE
  5
36B
  8
SIZE
  6
CONTINUOUS
 62
    30
 10
-205.542914
 20
18.0
 30
0.0
 11
-205.542914
 21
30.0
 31
0.0
  0
LINE
  5
36C
  8
SIZE
  6
CONTINUOUS
 62
    30
 10
-205.542914
 20
-12.0
 30
0.0
 11
-205.542914
 21
-56.28114398297248
 31
0.0
  0
LINE
  5
36D
  8
SIZE
  6
CONTINUOUS
 62
    30
 10
-205.542914
 20
6.0
 30
0.0
 11
-205.542914
 21
0.0
 31
0.0
  0
CIRCLE
  5
36E
  8
SIZE
  6
CONTINUOUS
 62
    30
 10
-205.542914
 20
6.0
 30
0.0
 40
6.0
  0
LINE
  5
36F
  8
SIZE
  6
CONTINUOUS
 62
    30
 10
-205.542914
 20
6.0
 30
0.0
 11
-205.542914
 21
18.0
 31
0.0
  0
CIRCLE
  5
370
  8
SIZE
  6
CONTINUOUS
 62
    30
 10
-205.542914
 20
0.0
 30
0.0
 40
6.0
  0
LINE
  5
371
  8
SIZE
  6
CONTINUOUS
 62
    30
 10
-205.542914
 20
0.0
 30
0.0
 11
-205.542914
 21
-12.0
 31
0.0
  0
TEXT
  5
372
  8
SIZE
  6
CONTINUOUS
 62
    30
 10
-230.542914
 20
-48.816295567551613
 30
0.0
 40
64.0
  1
6
 50
90.0
 41
0.9
 72
     1
 11
-230.542914
 21
-30.98772413898018
 31
0.0
  0
LINE
  5
373
  8
DETAIL
  6
CONTINUOUS
 62
     5
 39
50.0
 10
0.0
 20
105.0
 30
0.0
 11
0.0
 21
-105.0
 31
0.0
  0
LINE
  5
374
  8
DETAIL
  6
CONTINUOUS
 62
     5
 39
50.0
 10
0.0
 20
105.0
 30
0.0
 11
27.730746000000011
 21
105.0
 31
0.0
  0
LINE
  5
375
  8
DETAIL
  6
CONTINUOUS
 62
     5
 39
50.0
 10
0.0
 20
-105.0
 30
0.0
 11
21.972770000000001
 21
-105.0
 31
0.0
  0
ARC
  5
376
  8
DETAIL
  6
CONTINUOUS
 62
     5
 39
50.0
 10
-517.70000000000005
 20
15.619999999999999
 30
0.0
 40
556.91909099999987
 50
347.90769599999987
 51
8.7941380000000002
  0
ARC
  5
377
  8
DETAIL
  6
CONTINUOUS
 62
     5
 39
50.0
 10
27.730746000000011
 20
100.0
 30
0.0
 40
5.0
 50
8.7941380000000002
 51
90.0
  0
ARC
  5
378
  8
DETAIL
  6
CONTINUOUS
 62
     5
 39
50.0
 10
21.972770000000001
 20
-100.0
 30
0.0
 40
5.0
 50
270.0
 51
347.90769599999987
  0
ARC
  5
379
  8
OUTLINE
  6
CONTINUOUS
 62
     3
 39
50.0
 10
-517.70000000000005
 20
15.619999999999999
 30
0.0
 40
556.91909099999987
 50
347.90769599999987
 51
8.7941380000000002
  0
LINE
  5
37A
  8
OUTLINE
  6
CONTINUOUS
 62
     3
 39
50.0
 10
0.0
 20
105.0
 30
0.0
 11
0.0
 21
-105.0
 31
0.0
  0
ARC
  5
37B
  8
OUTLINE
  6
CONTINUOUS
 62
     3
 39
50.0
 10
21.972770000000001
 20
-100.0
 30
0.0
 40
5.0
 50
270.0
 51
347.90769599999987
  0
LINE
  5
37C
  8
OUTLINE
  6
CONTINUOUS
 62
     3
 39
50.0
 10
0.0
 20
-105.0
 30
0.0
 11
21.972770000000001
 21
-105.0
 31
0.0
  0
ARC
  5
37D
  8
OUTLINE
  6
CONTINUOUS
 62
     3
 39
50.0
 10
27.730746000000011
 20
100.0
 30
0.0
 40
5.0
 50
8.7941380000000002
 51
90.0
  0
LINE
  5
37E
  8
OUTLINE
  6
CONTINUOUS
 62
     3
 39
50.0
 10
0.0
 20
105.0
 30
0.0
 11
27.730746000000011
 21
105.0
 31
0.0
  0
LINE
  5
37F
  8
SIZE
  6
CONTINUOUS
 62
    30
 10
39.0
 20
-20.0
 30
0.0
 11
39.0
 21
-423.30283755232671
 31
0.0
  0
LINE
  5
380
  8
SIZE
  6
CONTINUOUS
 62
    30
 10
-12.0
 20
-403.39539096216117
 30
0.0
 11
-24.0
 21
-403.39539096216117
 31
0.0
  0
LINE
  5
381
  8
SIZE
  6
CONTINUOUS
 62
    30
 10
51.0
 20
-403.39539096216117
 30
0.0
 11
172.88627963079611
 21
-403.39539096216117
 31
0.0
  0
LINE
  5
382
  8
SIZE
  6
CONTINUOUS
 62
    30
 10
0.0
 20
-403.39539096216117
 30
0.0
 11
39.0
 21
-403.39539096216117
 31
0.0
  0
CIRCLE
  5
383
  8
SIZE
  6
CONTINUOUS
 62
    30
 10
0.0
 20
-403.39539096216117
 30
0.0
 40
6.0
  0
LINE
  5
384
  8
SIZE
  6
CONTINUOUS
 62
    30
 10
0.0
 20
-403.39539096216117
 30
0.0
 11
-12.0
 21
-403.39539096216117
 31
0.0
  0
CIRCLE
  5
385
  8
SIZE
  6
CONTINUOUS
 62
    30
 10
39.0
 20
-403.39539096216117
 30
0.0
 40
6.0
  0
LINE
  5
386
  8
SIZE
  6
CONTINUOUS
 62
    30
 10
39.0
 20
-403.39539096216117
 30
0.0
 11
51.0
 21
-403.39539096216117
 31
0.0
  0
TEXT
  5
387
  8
SIZE
  6
CONTINUOUS
 62
    30
 10
74.557922778900561
 20
-378.39539096216117
 30
0.0
 40
64.0
  1
39
 41
0.9
 72
     1
 11
119.8150656360434
 21
-378.39539096216117
 31
0.0
  0
LINE
  5
3A5
  8
DETAIL
  6
CONTINUOUS
 62
     5
 39
50.0
 10
15.0
 20
-105.0
 30
0.0
 11
15.0
 21
-108.0
 31
0.0
  0
LINE
  5
3A6
  8
DETAIL
  6
CONTINUOUS
 62
     5
 39
50.0
 10
15.0
 20
-108.0
 30
0.0
 11
18.0
 21
-108.0
 31
0.0
  0
LINE
  5
3A7
  8
DETAIL
  6
CONTINUOUS
 62
     5
 39
50.0
 10
18.0
 20
-108.0
 30
0.0
 11
18.0
 21
-105.0
 31
0.0
  0
POINT
  5
3A8
  8
ARRANGE
  6
CONTINUOUS
 62
     1
 10
0.0
 20
0.0
 30
0.0
 39
50.0
  0
TEXT
  5
3A9
  8
ETC
  6
CONTINUOUS
 62
    61
 10
72.515790789669737
 20
273.12855087304592
 30
0.0
 40
50.0
  1
V-12PLD6_5
 41
0.9
  0
TEXT
  5
3AA
  8
ETC
  6
CONTINUOUS
 62
    61
 10
67.089946789669725
 20
204.1393652917198
 30
0.0
 40
50.0
  1
換気扇
 41
0.9
  0
TEXT
  5
3AB
  8
ETC
  6
CONTINUOUS
 62
    61
 10
176.9751989613008
 20
146.51389687304601
 30
0.0
 40
40.0
  1
V-12PLD6
 41
0.9
  0
CIRCLE
  5
3AC
  8
SIZE
  6
CONTINUOUS
 62
    30
 39
50.0
 10
231.77311290953079
 20
104.9999999999997
 30
0.0
 40
6.0
  0
CIRCLE
  5
3AD
  8
SIZE
  6
CONTINUOUS
 62
    30
 39
50.0
 10
231.77311290953079
 20
-105.0
 30
0.0
 40
6.0
  0
LINE
  5
3AE
  8
SIZE
  6
CONTINUOUS
 10
41.972769999999983
 20
104.9999999999997
 30
0.0
 11
251.77311290953091
 21
104.9999999999997
 31
0.0
  0
LINE
  5
3AF
  8
SIZE
  6
CONTINUOUS
 10
35.0
 20
-105.0
 30
0.0
 11
251.77311290953091
 21
-105.0
 31
0.0
  0
LINE
  5
3B0
  8
SIZE
  6
CONTINUOUS
 10
231.77311290953079
 20
104.9999999999997
 30
0.0
 11
231.77311290953079
 21
-105.0
 31
0.0
  0
TEXT
  5
3B1
  8
SIZE
  6
CONTINUOUS
 62
    30
 10
206.75422459729251
 20
-103.61206735917099
 30
0.0
 40
64.0
  1
□210
 50
90.0
 41
0.9
 72
     1
 11
206.75422459729251
 21
1.4393612122575801
 31
0.0
  0
ENDSEC
  0
EOF
